ISO-10303-21;
HEADER;
FILE_DESCRIPTION (( 'STEP AP214' ),
    '1' );
FILE_NAME ('84769.STEP',
    '2023-06-30T23:53:47',
    ( '' ),
    ( '' ),
    'SwSTEP 2.0',
    'SolidWorks 2023',
    '' );
FILE_SCHEMA (( 'AUTOMOTIVE_DESIGN' ));
ENDSEC;

DATA;
#1 = CARTESIAN_POINT ( 'NONE',  ( 0.000000000000000000, 0.3125000000000000555, 0.000000000000000000 ) ) ;
#2 = CIRCLE ( 'NONE', #135, 0.3125000000000000000 ) ;
#3 = CARTESIAN_POINT ( 'NONE',  ( 1.836970198721029194E-16, 2.000000000000000000, 0.000000000000000000 ) ) ;
#4 = ORIENTED_EDGE ( 'NONE', *, *, #56, .F. ) ;
#5 = FILL_AREA_STYLE ('',( #261 ) ) ;
#6 = DIMENSIONAL_EXPONENTS ( 1.000000000000000000, 0.000000000000000000, 0.000000000000000000, 0.000000000000000000, 0.000000000000000000, 0.000000000000000000, 0.000000000000000000 ) ;
#7 = SURFACE_SIDE_STYLE ('',( #151 ) ) ;
#8 = AXIS2_PLACEMENT_3D ( 'NONE', #124, #270, #68 ) ;
#9 = EDGE_CURVE ( 'NONE', #190, #167, #141, .T. ) ;
#10 = SURFACE_STYLE_USAGE ( .BOTH. , #204 ) ;
#11 = CARTESIAN_POINT ( 'NONE',  ( -3.827021247335478926E-17, 0.3125000000000000000, 0.000000000000000000 ) ) ;
#12 =( LENGTH_UNIT ( ) NAMED_UNIT ( * ) SI_UNIT ( $, .METRE. ) );
#13 =( NAMED_UNIT ( * ) SI_UNIT ( $, .STERADIAN. ) SOLID_ANGLE_UNIT ( ) );
#14 = CIRCLE ( 'NONE', #102, 0.3124999999999997224 ) ;
#15 = DIRECTION ( 'NONE',  ( 0.000000000000000000, 0.000000000000000000, 1.000000000000000000 ) ) ;
#16 = LENGTH_MEASURE_WITH_UNIT ( LENGTH_MEASURE( 0.02539999999999999897 ), #360 );
#17 = VERTEX_POINT ( 'NONE', #259 ) ;
#18 = PRODUCT_DEFINITION_SHAPE ( 'NONE', 'NONE',  #27 ) ;
#19 = EDGE_CURVE ( 'NONE', #167, #299, #172, .T. ) ;
#20 = EDGE_CURVE ( 'NONE', #35, #203, #14, .T. ) ;
#21 = AXIS2_PLACEMENT_3D ( 'NONE', #136, #250, #221 ) ;
#22 = CARTESIAN_POINT ( 'NONE',  ( 0.000000000000000000, 0.3125000000000000555, 0.000000000000000000 ) ) ;
#23 = PRODUCT ( '84769', '84769', '', ( #358 ) ) ;
#24 = CARTESIAN_POINT ( 'NONE',  ( 3.827021247335478926E-17, 0.3125000000000000555, 0.3125000000000000000 ) ) ;
#25 = CARTESIAN_POINT ( 'NONE',  ( 0.3124999999999997224, 4.000000000000000000, 3.827021247335475845E-17 ) ) ;
#26 = DIRECTION ( 'NONE',  ( 1.224646799147352961E-16, -1.000000000000000000, 0.000000000000000000 ) ) ;
#27 = PRODUCT_DEFINITION ( 'UNKNOWN', '', #294, #313 ) ;
#28 = CARTESIAN_POINT ( 'NONE',  ( 0.3125000000000000000, 0.3125000000000000555, 0.000000000000000000 ) ) ;
#29 = UNCERTAINTY_MEASURE_WITH_UNIT (LENGTH_MEASURE( 1.000000000000000082E-05 ), #363, 'distance_accuracy_value', 'NONE');
#30 = PRESENTATION_STYLE_ASSIGNMENT (( #260 ) ) ;
#31 = PRESENTATION_LAYER_ASSIGNMENT (  '', '', ( #63 ) ) ;
#32 = ORIENTED_EDGE ( 'NONE', *, *, #317, .F. ) ;
#33 = AXIS2_PLACEMENT_3D ( 'NONE', #53, #296, #160 ) ;
#34 = AXIS2_PLACEMENT_3D ( 'NONE', #3, #140, #117 ) ;
#35 = VERTEX_POINT ( 'NONE', #162 ) ;
#36 = VERTEX_POINT ( 'NONE', #25 ) ;
#37 =( NAMED_UNIT ( * ) SI_UNIT ( $, .STERADIAN. ) SOLID_ANGLE_UNIT ( ) );
#38 = ORIENTED_EDGE ( 'NONE', *, *, #74, .T. ) ;
#39 = AXIS2_PLACEMENT_3D ( 'NONE', #44, #105, #184 ) ;
#40 =( NAMED_UNIT ( * ) PLANE_ANGLE_UNIT ( ) SI_UNIT ( $, .RADIAN. ) );
#41 = FILL_AREA_STYLE ('',( #145 ) ) ;
#42 = LENGTH_MEASURE_WITH_UNIT ( LENGTH_MEASURE( 0.02539999999999999897 ), #12 );
#43 = COLOUR_RGB ( '',0.7921568627450980005, 0.8196078431372548767, 0.9333333333333333481 ) ;
#44 = CARTESIAN_POINT ( 'NONE',  ( 0.000000000000000000, 2.000000000000000000, 0.000000000000000000 ) ) ;
#45 = ORIENTED_EDGE ( 'NONE', *, *, #132, .T. ) ;
#46 = EDGE_CURVE ( 'NONE', #76, #17, #182, .T. ) ;
#47 = EDGE_LOOP ( 'NONE', ( #200, #65 ) ) ;
#48 = ORIENTED_EDGE ( 'NONE', *, *, #257, .T. ) ;
#49 = MECHANICAL_DESIGN_GEOMETRIC_PRESENTATION_REPRESENTATION (  '', ( #243 ), #217 ) ;
#50 = FILL_AREA_STYLE_COLOUR ( '', #362 ) ;
#51 = EDGE_LOOP ( 'NONE', ( #129, #255 ) ) ;
#52 = STYLED_ITEM ( 'NONE', ( #171 ), #223 ) ;
#53 = CARTESIAN_POINT ( 'NONE',  ( -3.827021247335478926E-17, 0.3125000000000000000, 0.000000000000000000 ) ) ;
#54 =( NAMED_UNIT ( * ) PLANE_ANGLE_UNIT ( ) SI_UNIT ( $, .RADIAN. ) );
#55 = CARTESIAN_POINT ( 'NONE',  ( 0.000000000000000000, 2.000000000000000000, 0.000000000000000000 ) ) ;
#56 = EDGE_CURVE ( 'NONE', #203, #35, #69, .T. ) ;
#57 = ADVANCED_BREP_SHAPE_REPRESENTATION ( '84769', ( #361, #223, #248 ), #274 ) ;
#58 =( NAMED_UNIT ( * ) SI_UNIT ( $, .STERADIAN. ) SOLID_ANGLE_UNIT ( ) );
#59 = CARTESIAN_POINT ( 'NONE',  ( -0.3125000000000000000, 0.3125000000000000555, 3.827021247335477694E-17 ) ) ;
#60 = FILL_AREA_STYLE ('',( #189 ) ) ;
#61 = FACE_OUTER_BOUND ( 'NONE', #88, .T. ) ;
#62 = ORIENTED_EDGE ( 'NONE', *, *, #283, .F. ) ;
#63 = STYLED_ITEM ( 'NONE', ( #285 ), #334 ) ;
#64 = PRESENTATION_STYLE_ASSIGNMENT (( #10 ) ) ;
#65 = ORIENTED_EDGE ( 'NONE', *, *, #275, .F. ) ;
#66 = ORIENTED_EDGE ( 'NONE', *, *, #149, .F. ) ;
#67 =( LENGTH_UNIT ( ) NAMED_UNIT ( * ) SI_UNIT ( $, .METRE. ) );
#68 = DIRECTION ( 'NONE',  ( -1.000000000000000000, 0.000000000000000000, 0.000000000000000000 ) ) ;
#69 = CIRCLE ( 'NONE', #284, 0.3124999999999997224 ) ;
#70 = ORIENTED_EDGE ( 'NONE', *, *, #9, .F. ) ;
#71 = DIRECTION ( 'NONE',  ( 1.000000000000000000, 0.000000000000000000, 0.000000000000000000 ) ) ;
#72 = CYLINDRICAL_SURFACE ( 'NONE', #96, 0.3124999999999998890 ) ;
#73 = AXIS2_PLACEMENT_3D ( 'NONE', #22, #338, #130 ) ;
#74 = EDGE_CURVE ( 'NONE', #146, #185, #301, .T. ) ;
#75 = FILL_AREA_STYLE ('',( #50 ) ) ;
#76 = VERTEX_POINT ( 'NONE', #144 ) ;
#77 =( GEOMETRIC_REPRESENTATION_CONTEXT ( 3 ) GLOBAL_UNCERTAINTY_ASSIGNED_CONTEXT ( ( #364 ) ) GLOBAL_UNIT_ASSIGNED_CONTEXT ( ( #307, #357, #119 ) ) REPRESENTATION_CONTEXT ( 'NONE', 'WORKASPACE' ) );
#78 = PRESENTATION_STYLE_ASSIGNMENT (( #281 ) ) ;
#79 = MECHANICAL_DESIGN_GEOMETRIC_PRESENTATION_REPRESENTATION (  '', ( #183 ), #292 ) ;
#80 = ORIENTED_EDGE ( 'NONE', *, *, #46, .T. ) ;
#81 = LINE ( 'NONE', #315, #106 ) ;
#82 = DIMENSIONAL_EXPONENTS ( 1.000000000000000000, 0.000000000000000000, 0.000000000000000000, 0.000000000000000000, 0.000000000000000000, 0.000000000000000000, 0.000000000000000000 ) ;
#83 = ADVANCED_FACE ( 'NONE', ( #114 ), #322, .F. ) ;
#84 = FACE_OUTER_BOUND ( 'NONE', #263, .T. ) ;
#85 = ORIENTED_EDGE ( 'NONE', *, *, #74, .F. ) ;
#86 = PRESENTATION_LAYER_ASSIGNMENT (  '', '', ( #243 ) ) ;
#87 = EDGE_LOOP ( 'NONE', ( #220, #310, #131, #70, #291 ) ) ;
#88 = EDGE_LOOP ( 'NONE', ( #85, #169, #187, #335 ) ) ;
#89 = LINE ( 'NONE', #186, #192 ) ;
#90 = SURFACE_STYLE_USAGE ( .BOTH. , #229 ) ;
#91 = EDGE_LOOP ( 'NONE', ( #80, #325, #164, #278 ) ) ;
#92 = SURFACE_SIDE_STYLE ('',( #230 ) ) ;
#93 = CARTESIAN_POINT ( 'NONE',  ( -6.123233995736764803E-17, 4.000000000000000000, 0.000000000000000000 ) ) ;
#94 =( CONVERSION_BASED_UNIT ( 'INCH', #120 ) LENGTH_UNIT ( ) NAMED_UNIT ( #6 ) );
#95 = CARTESIAN_POINT ( 'NONE',  ( 0.000000000000000000, 0.3125000000000000555, 0.000000000000000000 ) ) ;
#96 = AXIS2_PLACEMENT_3D ( 'NONE', #174, #272, #127 ) ;
#97 =( NAMED_UNIT ( * ) PLANE_ANGLE_UNIT ( ) SI_UNIT ( $, .RADIAN. ) );
#98 = SURFACE_SIDE_STYLE ('',( #356 ) ) ;
#99 = FILL_AREA_STYLE ('',( #236 ) ) ;
#100 = EDGE_CURVE ( 'NONE', #370, #36, #240, .T. ) ;
#101 = DIRECTION ( 'NONE',  ( 1.000000000000000000, 0.000000000000000000, 0.000000000000000000 ) ) ;
#102 = AXIS2_PLACEMENT_3D ( 'NONE', #55, #348, #168 ) ;
#103 = VECTOR ( 'NONE', #328, 39.37007874015748143 ) ;
#104 = DIRECTION ( 'NONE',  ( -1.000000000000000000, 0.000000000000000000, 0.000000000000000000 ) ) ;
#105 = DIRECTION ( 'NONE',  ( 0.000000000000000000, 1.000000000000000000, 0.000000000000000000 ) ) ;
#106 = VECTOR ( 'NONE', #373, 39.37007874015748143 ) ;
#107 = DIMENSIONAL_EXPONENTS ( 1.000000000000000000, 0.000000000000000000, 0.000000000000000000, 0.000000000000000000, 0.000000000000000000, 0.000000000000000000, 0.000000000000000000 ) ;
#108 = LENGTH_MEASURE_WITH_UNIT ( LENGTH_MEASURE( 0.02539999999999999897 ), #134 );
#109 = DIRECTION ( 'NONE',  ( -0.000000000000000000, -1.000000000000000000, -0.000000000000000000 ) ) ;
#110 = LENGTH_MEASURE_WITH_UNIT ( LENGTH_MEASURE( 0.02539999999999999897 ), #287 );
#111 = ORIENTED_EDGE ( 'NONE', *, *, #257, .F. ) ;
#112 = PRESENTATION_LAYER_ASSIGNMENT (  '', '', ( #158 ) ) ;
#113 = AXIS2_PLACEMENT_3D ( 'NONE', #227, #166, #342 ) ;
#114 = FACE_OUTER_BOUND ( 'NONE', #51, .T. ) ;
#115 = FACE_OUTER_BOUND ( 'NONE', #87, .T. ) ;
#116 = DIRECTION ( 'NONE',  ( -1.224646799147352961E-16, 1.000000000000000000, -0.000000000000000000 ) ) ;
#117 = DIRECTION ( 'NONE',  ( -1.000000000000000000, 0.000000000000000000, 0.000000000000000000 ) ) ;
#118 = PRESENTATION_STYLE_ASSIGNMENT (( #90 ) ) ;
#119 =( NAMED_UNIT ( * ) SI_UNIT ( $, .STERADIAN. ) SOLID_ANGLE_UNIT ( ) );
#120 = LENGTH_MEASURE_WITH_UNIT ( LENGTH_MEASURE( 0.02539999999999999897 ), #67 );
#121 = CARTESIAN_POINT ( 'NONE',  ( 0.000000000000000000, 2.000000000000000000, -0.3124999999999997224 ) ) ;
#122 =( CONVERSION_BASED_UNIT ( 'INCH', #304 ) LENGTH_UNIT ( ) NAMED_UNIT ( #161 ) );
#123 = DIRECTION ( 'NONE',  ( 1.000000000000000000, 0.000000000000000000, 0.000000000000000000 ) ) ;
#124 = CARTESIAN_POINT ( 'NONE',  ( -6.123233995736766036E-17, 4.000000000000000000, 0.000000000000000000 ) ) ;
#125 = COLOUR_RGB ( '',1.000000000000000000, 0.000000000000000000, 0.000000000000000000 ) ;
#126 = COLOUR_RGB ( '',1.000000000000000000, 0.000000000000000000, 0.000000000000000000 ) ;
#127 = DIRECTION ( 'NONE',  ( 0.000000000000000000, 0.000000000000000000, -1.000000000000000000 ) ) ;
#128 = CARTESIAN_POINT ( 'NONE',  ( -6.123233995736766036E-17, 4.000000000000000000, 0.000000000000000000 ) ) ;
#129 = ORIENTED_EDGE ( 'NONE', *, *, #100, .T. ) ;
#130 = DIRECTION ( 'NONE',  ( 0.000000000000000000, 0.000000000000000000, -1.000000000000000000 ) ) ;
#131 = ORIENTED_EDGE ( 'NONE', *, *, #19, .F. ) ;
#132 = EDGE_CURVE ( 'NONE', #203, #190, #137, .T. ) ;
#133 = AXIS2_PLACEMENT_3D ( 'NONE', #148, #153, #101 ) ;
#134 =( LENGTH_UNIT ( ) NAMED_UNIT ( * ) SI_UNIT ( $, .METRE. ) );
#135 = AXIS2_PLACEMENT_3D ( 'NONE', #351, #290, #347 ) ;
#136 = CARTESIAN_POINT ( 'NONE',  ( 1.836970198721029194E-16, 2.000000000000000000, 0.000000000000000000 ) ) ;
#137 = LINE ( 'NONE', #352, #277 ) ;
#138 =( NAMED_UNIT ( * ) PLANE_ANGLE_UNIT ( ) SI_UNIT ( $, .RADIAN. ) );
#139 = SURFACE_STYLE_FILL_AREA ( #5 ) ;
#140 = DIRECTION ( 'NONE',  ( -1.224646799147352961E-16, 1.000000000000000000, -0.000000000000000000 ) ) ;
#141 = CIRCLE ( 'NONE', #264, 0.3125000000000000000 ) ;
#142 = CIRCLE ( 'NONE', #113, 0.3125000000000000000 ) ;
#143 = DIRECTION ( 'NONE',  ( -0.000000000000000000, -1.000000000000000000, -0.000000000000000000 ) ) ;
#144 = CARTESIAN_POINT ( 'NONE',  ( -0.3124999999999993339, 2.000000000000000000, 0.000000000000000000 ) ) ;
#145 = FILL_AREA_STYLE_COLOUR ( '', #333 ) ;
#146 = VERTEX_POINT ( 'NONE', #59 ) ;
#147 =( LENGTH_UNIT ( ) NAMED_UNIT ( * ) SI_UNIT ( $, .METRE. ) );
#148 = CARTESIAN_POINT ( 'NONE',  ( -3.827021247335478926E-17, 0.3125000000000000000, 0.000000000000000000 ) ) ;
#149 = EDGE_CURVE ( 'NONE', #36, #370, #367, .T. ) ;
#150 = APPLICATION_PROTOCOL_DEFINITION ( 'draft international standard', 'automotive_design', 1998, #249 ) ;
#151 = SURFACE_STYLE_FILL_AREA ( #262 ) ;
#152 = DIRECTION ( 'NONE',  ( 0.000000000000000000, 0.000000000000000000, 1.000000000000000000 ) ) ;
#153 = DIRECTION ( 'NONE',  ( 0.000000000000000000, 0.000000000000000000, 1.000000000000000000 ) ) ;
#154 = CARTESIAN_POINT ( 'NONE',  ( 0.000000000000000000, 0.3125000000000000555, -0.3125000000000000000 ) ) ;
#155 = UNCERTAINTY_MEASURE_WITH_UNIT (LENGTH_MEASURE( 1.000000000000000082E-05 ), #122, 'distance_accuracy_value', 'NONE');
#156 = AXIS2_PLACEMENT_3D ( 'NONE', #199, #116, #231 ) ;
#157 = APPLICATION_CONTEXT ( 'automotive_design' ) ;
#158 = STYLED_ITEM ( 'NONE', ( #266 ), #197 ) ;
#159 = SURFACE_SIDE_STYLE ('',( #316 ) ) ;
#160 = DIRECTION ( 'NONE',  ( 1.000000000000000000, 0.000000000000000000, -1.224646799147353207E-16 ) ) ;
#161 = DIMENSIONAL_EXPONENTS ( 1.000000000000000000, 0.000000000000000000, 0.000000000000000000, 0.000000000000000000, 0.000000000000000000, 0.000000000000000000, 0.000000000000000000 ) ;
#162 = CARTESIAN_POINT ( 'NONE',  ( 3.827021247335476461E-17, 2.000000000000000000, 0.3124999999999997224 ) ) ;
#163 = UNCERTAINTY_MEASURE_WITH_UNIT (LENGTH_MEASURE( 1.000000000000000082E-05 ), #213, 'distance_accuracy_value', 'NONE');
#164 = ORIENTED_EDGE ( 'NONE', *, *, #100, .F. ) ;
#165 = COLOUR_RGB ( '',1.000000000000000000, 0.000000000000000000, 0.000000000000000000 ) ;
#166 = DIRECTION ( 'NONE',  ( -0.000000000000000000, -1.000000000000000000, -0.000000000000000000 ) ) ;
#167 = VERTEX_POINT ( 'NONE', #28 ) ;
#168 = DIRECTION ( 'NONE',  ( 0.000000000000000000, 0.000000000000000000, -1.000000000000000000 ) ) ;
#169 = ORIENTED_EDGE ( 'NONE', *, *, #330, .T. ) ;
#170 = CARTESIAN_POINT ( 'NONE',  ( -0.3124999999999997224, 4.000000000000000000, 0.000000000000000000 ) ) ;
#171 = PRESENTATION_STYLE_ASSIGNMENT (( #329 ) ) ;
#172 = CIRCLE ( 'NONE', #225, 0.3125000000000000000 ) ;
#173 = FACE_OUTER_BOUND ( 'NONE', #91, .T. ) ;
#174 = CARTESIAN_POINT ( 'NONE',  ( 0.000000000000000000, 0.000000000000000000, 0.000000000000000000 ) ) ;
#175 =( NAMED_UNIT ( * ) SI_UNIT ( $, .STERADIAN. ) SOLID_ANGLE_UNIT ( ) );
#176 = COLOUR_RGB ( '',1.000000000000000000, 0.000000000000000000, 0.000000000000000000 ) ;
#177 =( NAMED_UNIT ( * ) SI_UNIT ( $, .STERADIAN. ) SOLID_ANGLE_UNIT ( ) );
#178 = ADVANCED_FACE ( 'NONE', ( #61 ), #305, .T. ) ;
#179 = ORIENTED_EDGE ( 'NONE', *, *, #275, .T. ) ;
#180 = SHAPE_DEFINITION_REPRESENTATION ( #18, #57 ) ;
#181 =( NAMED_UNIT ( * ) PLANE_ANGLE_UNIT ( ) SI_UNIT ( $, .RADIAN. ) );
#182 = CIRCLE ( 'NONE', #21, 0.3124999999999995559 ) ;
#183 = STYLED_ITEM ( 'NONE', ( #64 ), #361 ) ;
#184 = DIRECTION ( 'NONE',  ( 0.000000000000000000, -0.000000000000000000, 1.000000000000000000 ) ) ;
#185 = VERTEX_POINT ( 'NONE', #345 ) ;
#186 = CARTESIAN_POINT ( 'NONE',  ( 3.827021247335477078E-17, 0.000000000000000000, 0.3124999999999998890 ) ) ;
#187 = ORIENTED_EDGE ( 'NONE', *, *, #9, .T. ) ;
#188 = ADVANCED_FACE ( 'NONE', ( #173 ), #235, .T. ) ;
#189 = FILL_AREA_STYLE_COLOUR ( '', #165 ) ;
#190 = VERTEX_POINT ( 'NONE', #154 ) ;
#191 = AXIS2_PLACEMENT_3D ( 'NONE', #128, #246, #104 ) ;
#192 = VECTOR ( 'NONE', #232, 39.37007874015748143 ) ;
#193 = CARTESIAN_POINT ( 'NONE',  ( 0.000000000000000000, 2.000000000000000000, 0.000000000000000000 ) ) ;
#194 = EDGE_LOOP ( 'NONE', ( #32, #179, #368, #66 ) ) ;
#195 = FILL_AREA_STYLE_COLOUR ( '', #125 ) ;
#196 = UNCERTAINTY_MEASURE_WITH_UNIT (LENGTH_MEASURE( 1.000000000000000082E-05 ), #258, 'distance_accuracy_value', 'NONE');
#197 = ADVANCED_FACE ( 'NONE', ( #205 ), #72, .T. ) ;
#198 = CYLINDRICAL_SURFACE ( 'NONE', #244, 0.3124999999999998890 ) ;
#199 = CARTESIAN_POINT ( 'NONE',  ( -6.123233995736764803E-17, 4.000000000000000000, 0.000000000000000000 ) ) ;
#200 = ORIENTED_EDGE ( 'NONE', *, *, #46, .F. ) ;
#201 = SPHERICAL_SURFACE ( 'NONE', #369, 0.3125000000000000000 ) ;
#202 = AXIS2_PLACEMENT_3D ( 'NONE', #332, #265, #302 ) ;
#203 = VERTEX_POINT ( 'NONE', #121 ) ;
#204 = SURFACE_SIDE_STYLE ('',( #326 ) ) ;
#205 = FACE_OUTER_BOUND ( 'NONE', #324, .T. ) ;
#206 =( NAMED_UNIT ( * ) PLANE_ANGLE_UNIT ( ) SI_UNIT ( $, .RADIAN. ) );
#207 =( LENGTH_UNIT ( ) NAMED_UNIT ( * ) SI_UNIT ( $, .METRE. ) );
#208 = MECHANICAL_DESIGN_GEOMETRIC_PRESENTATION_REPRESENTATION (  '', ( #52 ), #355 ) ;
#209 = MECHANICAL_DESIGN_GEOMETRIC_PRESENTATION_REPRESENTATION (  '', ( #63 ), #359 ) ;
#210 = PLANE ( 'NONE',  #202 ) ;
#211 = UNCERTAINTY_MEASURE_WITH_UNIT (LENGTH_MEASURE( 1.000000000000000082E-05 ), #94, 'distance_accuracy_value', 'NONE');
#212 = ORIENTED_EDGE ( 'NONE', *, *, #330, .F. ) ;
#213 =( CONVERSION_BASED_UNIT ( 'INCH', #42 ) LENGTH_UNIT ( ) NAMED_UNIT ( #82 ) );
#214 = PRESENTATION_LAYER_ASSIGNMENT (  '', '', ( #346 ) ) ;
#215 = SURFACE_SIDE_STYLE ('',( #245 ) ) ;
#216 = LENGTH_MEASURE_WITH_UNIT ( LENGTH_MEASURE( 0.02539999999999999897 ), #207 );
#217 =( GEOMETRIC_REPRESENTATION_CONTEXT ( 3 ) GLOBAL_UNCERTAINTY_ASSIGNED_CONTEXT ( ( #349 ) ) GLOBAL_UNIT_ASSIGNED_CONTEXT ( ( #314, #181, #177 ) ) REPRESENTATION_CONTEXT ( 'NONE', 'WORKASPACE' ) );
#218 = EDGE_LOOP ( 'NONE', ( #4, #327 ) ) ;
#219 = PRESENTATION_LAYER_ASSIGNMENT (  '', '', ( #303 ) ) ;
#220 = ORIENTED_EDGE ( 'NONE', *, *, #56, .T. ) ;
#221 = DIRECTION ( 'NONE',  ( -1.000000000000000000, 0.000000000000000000, 0.000000000000000000 ) ) ;
#222 = CARTESIAN_POINT ( 'NONE',  ( 0.000000000000000000, 0.000000000000000000, 0.000000000000000000 ) ) ;
#223 = MANIFOLD_SOLID_BREP ( 'Revolve - Tool Body (Straight Shanked)', #311 ) ;
#224 = DIRECTION ( 'NONE',  ( -1.000000000000000000, 0.000000000000000000, 0.000000000000000000 ) ) ;
#225 = AXIS2_PLACEMENT_3D ( 'NONE', #95, #109, #318 ) ;
#226 =( GEOMETRIC_REPRESENTATION_CONTEXT ( 3 ) GLOBAL_UNCERTAINTY_ASSIGNED_CONTEXT ( ( #196 ) ) GLOBAL_UNIT_ASSIGNED_CONTEXT ( ( #258, #138, #58 ) ) REPRESENTATION_CONTEXT ( 'NONE', 'WORKASPACE' ) );
#227 = CARTESIAN_POINT ( 'NONE',  ( 0.000000000000000000, 0.3125000000000000555, 0.000000000000000000 ) ) ;
#228 = ADVANCED_FACE ( 'NONE', ( #308 ), #241, .T. ) ;
#229 = SURFACE_SIDE_STYLE ('',( #139 ) ) ;
#230 = SURFACE_STYLE_FILL_AREA ( #252 ) ;
#231 = DIRECTION ( 'NONE',  ( -1.000000000000000000, 0.000000000000000000, 0.000000000000000000 ) ) ;
#232 = DIRECTION ( 'NONE',  ( -0.000000000000000000, -1.000000000000000000, -0.000000000000000000 ) ) ;
#233 = DIRECTION ( 'NONE',  ( 0.000000000000000000, 0.000000000000000000, -1.000000000000000000 ) ) ;
#234 = CIRCLE ( 'NONE', #73, 0.3125000000000000000 ) ;
#235 = CYLINDRICAL_SURFACE ( 'NONE', #8, 0.3124999999999996669 ) ;
#236 = FILL_AREA_STYLE_COLOUR ( '', #43 ) ;
#237 = CIRCLE ( 'NONE', #34, 0.3124999999999995559 ) ;
#238 = APPLICATION_PROTOCOL_DEFINITION ( 'draft international standard', 'automotive_design', 1998, #157 ) ;
#239 = FILL_AREA_STYLE_COLOUR ( '', #126 ) ;
#240 = CIRCLE ( 'NONE', #156, 0.3124999999999998335 ) ;
#241 = CYLINDRICAL_SURFACE ( 'NONE', #191, 0.3124999999999996669 ) ;
#242 = LENGTH_MEASURE_WITH_UNIT ( LENGTH_MEASURE( 0.02539999999999999897 ), #341 );
#243 = STYLED_ITEM ( 'NONE', ( #78 ), #267 ) ;
#244 = AXIS2_PLACEMENT_3D ( 'NONE', #222, #282, #371 ) ;
#245 = SURFACE_STYLE_FILL_AREA ( #75 ) ;
#246 = DIRECTION ( 'NONE',  ( -1.224646799147352961E-16, 1.000000000000000000, -0.000000000000000000 ) ) ;
#247 = FACE_OUTER_BOUND ( 'NONE', #218, .T. ) ;
#248 = AXIS2_PLACEMENT_3D ( 'NONE', #306, #152, #123 ) ;
#249 = APPLICATION_CONTEXT ( 'automotive_design' ) ;
#250 = DIRECTION ( 'NONE',  ( -1.224646799147352961E-16, 1.000000000000000000, -0.000000000000000000 ) ) ;
#251 = DIMENSIONAL_EXPONENTS ( 1.000000000000000000, 0.000000000000000000, 0.000000000000000000, 0.000000000000000000, 0.000000000000000000, 0.000000000000000000, 0.000000000000000000 ) ;
#252 = FILL_AREA_STYLE ('',( #195 ) ) ;
#253 = DIRECTION ( 'NONE',  ( -0.000000000000000000, -1.000000000000000000, -0.000000000000000000 ) ) ;
#254 =( NAMED_UNIT ( * ) SI_UNIT ( $, .STERADIAN. ) SOLID_ANGLE_UNIT ( ) );
#255 = ORIENTED_EDGE ( 'NONE', *, *, #149, .T. ) ;
#256 = MECHANICAL_DESIGN_GEOMETRIC_PRESENTATION_REPRESENTATION (  '', ( #158 ), #77 ) ;
#257 = EDGE_CURVE ( 'NONE', #299, #146, #234, .T. ) ;
#258 =( CONVERSION_BASED_UNIT ( 'INCH', #108 ) LENGTH_UNIT ( ) NAMED_UNIT ( #289 ) );
#259 = CARTESIAN_POINT ( 'NONE',  ( 0.3124999999999997224, 2.000000000000000000, 3.827021247335475845E-17 ) ) ;
#260 = SURFACE_STYLE_USAGE ( .BOTH. , #92 ) ;
#261 = FILL_AREA_STYLE_COLOUR ( '', #176 ) ;
#262 = FILL_AREA_STYLE ('',( #239 ) ) ;
#263 = EDGE_LOOP ( 'NONE', ( #48, #38, #321, #320 ) ) ;
#264 = AXIS2_PLACEMENT_3D ( 'NONE', #1, #353, #233 ) ;
#265 = DIRECTION ( 'NONE',  ( -1.224646799147352961E-16, 1.000000000000000000, 0.000000000000000000 ) ) ;
#266 = PRESENTATION_STYLE_ASSIGNMENT (( #268 ) ) ;
#267 = ADVANCED_FACE ( 'NONE', ( #247 ), #365, .T. ) ;
#268 = SURFACE_STYLE_USAGE ( .BOTH. , #7 ) ;
#269 = EDGE_CURVE ( 'NONE', #167, #185, #2, .T. ) ;
#270 = DIRECTION ( 'NONE',  ( -1.224646799147352961E-16, 1.000000000000000000, -0.000000000000000000 ) ) ;
#271 = UNCERTAINTY_MEASURE_WITH_UNIT (LENGTH_MEASURE( 1.000000000000000082E-05 ), #344, 'distance_accuracy_value', 'NONE');
#272 = DIRECTION ( 'NONE',  ( -0.000000000000000000, -1.000000000000000000, -0.000000000000000000 ) ) ;
#273 = MECHANICAL_DESIGN_GEOMETRIC_PRESENTATION_REPRESENTATION (  '', ( #346 ), #339 ) ;
#274 =( GEOMETRIC_REPRESENTATION_CONTEXT ( 3 ) GLOBAL_UNCERTAINTY_ASSIGNED_CONTEXT ( ( #155 ) ) GLOBAL_UNIT_ASSIGNED_CONTEXT ( ( #122, #206, #13 ) ) REPRESENTATION_CONTEXT ( 'NONE', 'WORKASPACE' ) );
#275 = EDGE_CURVE ( 'NONE', #17, #76, #237, .T. ) ;
#276 =( NAMED_UNIT ( * ) PLANE_ANGLE_UNIT ( ) SI_UNIT ( $, .RADIAN. ) );
#277 = VECTOR ( 'NONE', #253, 39.37007874015748143 ) ;
#278 = ORIENTED_EDGE ( 'NONE', *, *, #366, .F. ) ;
#279 = MECHANICAL_DESIGN_GEOMETRIC_PRESENTATION_REPRESENTATION (  '', ( #303 ), #226 ) ;
#280 = PRODUCT_RELATED_PRODUCT_CATEGORY ( 'part', '', ( #23 ) ) ;
#281 = SURFACE_STYLE_USAGE ( .BOTH. , #215 ) ;
#282 = DIRECTION ( 'NONE',  ( -0.000000000000000000, -1.000000000000000000, -0.000000000000000000 ) ) ;
#283 = EDGE_CURVE ( 'NONE', #35, #299, #89, .T. ) ;
#284 = AXIS2_PLACEMENT_3D ( 'NONE', #193, #143, #343 ) ;
#285 = PRESENTATION_STYLE_ASSIGNMENT (( #295 ) ) ;
#286 = CARTESIAN_POINT ( 'NONE',  ( 0.3124999999999997224, 4.000000000000000000, 0.000000000000000000 ) ) ;
#287 =( LENGTH_UNIT ( ) NAMED_UNIT ( * ) SI_UNIT ( $, .METRE. ) );
#288 = DIRECTION ( 'NONE',  ( 1.000000000000000000, 1.224646799147352961E-16, 0.000000000000000000 ) ) ;
#289 = DIMENSIONAL_EXPONENTS ( 1.000000000000000000, 0.000000000000000000, 0.000000000000000000, 0.000000000000000000, 0.000000000000000000, 0.000000000000000000, 0.000000000000000000 ) ;
#290 = DIRECTION ( 'NONE',  ( 0.000000000000000000, 0.000000000000000000, -1.000000000000000000 ) ) ;
#291 = ORIENTED_EDGE ( 'NONE', *, *, #132, .F. ) ;
#292 =( GEOMETRIC_REPRESENTATION_CONTEXT ( 3 ) GLOBAL_UNCERTAINTY_ASSIGNED_CONTEXT ( ( #211 ) ) GLOBAL_UNIT_ASSIGNED_CONTEXT ( ( #94, #40, #336 ) ) REPRESENTATION_CONTEXT ( 'NONE', 'WORKASPACE' ) );
#293 = AXIS2_PLACEMENT_3D ( 'NONE', #93, #372, #224 ) ;
#294 = PRODUCT_DEFINITION_FORMATION_WITH_SPECIFIED_SOURCE ( 'ANY', '', #23, .NOT_KNOWN. ) ;
#295 = SURFACE_STYLE_USAGE ( .BOTH. , #159 ) ;
#296 = DIRECTION ( 'NONE',  ( 1.224646799147353207E-16, -0.000000000000000000, 1.000000000000000000 ) ) ;
#297 = DIMENSIONAL_EXPONENTS ( 1.000000000000000000, 0.000000000000000000, 0.000000000000000000, 0.000000000000000000, 0.000000000000000000, 0.000000000000000000, 0.000000000000000000 ) ;
#298 = LINE ( 'NONE', #170, #103 ) ;
#299 = VERTEX_POINT ( 'NONE', #24 ) ;
#300 = CARTESIAN_POINT ( 'NONE',  ( -0.3124999999999998890, 4.000000000000000000, 0.000000000000000000 ) ) ;
#301 = CIRCLE ( 'NONE', #33, 0.3125000000000000000 ) ;
#302 = DIRECTION ( 'NONE',  ( -1.000000000000000000, -1.224646799147352961E-16, 0.000000000000000000 ) ) ;
#303 = STYLED_ITEM ( 'NONE', ( #30 ), #319 ) ;
#304 = LENGTH_MEASURE_WITH_UNIT ( LENGTH_MEASURE( 0.02539999999999999897 ), #147 );
#305 = SPHERICAL_SURFACE ( 'NONE', #133, 0.3125000000000000000 ) ;
#306 = CARTESIAN_POINT ( 'NONE',  ( 0.000000000000000000, 0.000000000000000000, 0.000000000000000000 ) ) ;
#307 =( CONVERSION_BASED_UNIT ( 'INCH', #16 ) LENGTH_UNIT ( ) NAMED_UNIT ( #297 ) );
#308 = FACE_OUTER_BOUND ( 'NONE', #194, .T. ) ;
#309 = PRESENTATION_LAYER_ASSIGNMENT (  '', '', ( #52 ) ) ;
#310 = ORIENTED_EDGE ( 'NONE', *, *, #283, .T. ) ;
#311 = CLOSED_SHELL ( 'NONE', ( #188, #337, #228, #83 ) ) ;
#312 = CLOSED_SHELL ( 'NONE', ( #334, #319, #267, #197, #178 ) ) ;
#313 = PRODUCT_DEFINITION_CONTEXT ( 'detailed design', #249, 'design' ) ;
#314 =( CONVERSION_BASED_UNIT ( 'INCH', #242 ) LENGTH_UNIT ( ) NAMED_UNIT ( #354 ) );
#315 = CARTESIAN_POINT ( 'NONE',  ( 0.3124999999999996114, 4.000000000000000000, 3.827021247335475229E-17 ) ) ;
#316 = SURFACE_STYLE_FILL_AREA ( #60 ) ;
#317 = EDGE_CURVE ( 'NONE', #17, #36, #81, .T. ) ;
#318 = DIRECTION ( 'NONE',  ( 0.000000000000000000, 0.000000000000000000, -1.000000000000000000 ) ) ;
#319 = ADVANCED_FACE ( 'NONE', ( #115 ), #198, .T. ) ;
#320 = ORIENTED_EDGE ( 'NONE', *, *, #19, .T. ) ;
#321 = ORIENTED_EDGE ( 'NONE', *, *, #269, .F. ) ;
#322 = PLANE ( 'NONE',  #331 ) ;
#323 = FACE_OUTER_BOUND ( 'NONE', #47, .T. ) ;
#324 = EDGE_LOOP ( 'NONE', ( #62, #350, #45, #212, #111 ) ) ;
#325 = ORIENTED_EDGE ( 'NONE', *, *, #317, .T. ) ;
#326 = SURFACE_STYLE_FILL_AREA ( #41 ) ;
#327 = ORIENTED_EDGE ( 'NONE', *, *, #20, .F. ) ;
#328 = DIRECTION ( 'NONE',  ( -1.224646799147352961E-16, 1.000000000000000000, -0.000000000000000000 ) ) ;
#329 = SURFACE_STYLE_USAGE ( .BOTH. , #98 ) ;
#330 = EDGE_CURVE ( 'NONE', #146, #190, #142, .T. ) ;
#331 = AXIS2_PLACEMENT_3D ( 'NONE', #286, #26, #288 ) ;
#332 = CARTESIAN_POINT ( 'NONE',  ( 1.836970198721029441E-16, 2.000000000000000000, 0.000000000000000000 ) ) ;
#333 = COLOUR_RGB ( '',0.7921568627450980005, 0.8196078431372548767, 0.9333333333333333481 ) ;
#334 = ADVANCED_FACE ( 'NONE', ( #84 ), #201, .T. ) ;
#335 = ORIENTED_EDGE ( 'NONE', *, *, #269, .T. ) ;
#336 =( NAMED_UNIT ( * ) SI_UNIT ( $, .STERADIAN. ) SOLID_ANGLE_UNIT ( ) );
#337 = ADVANCED_FACE ( 'NONE', ( #323 ), #210, .F. ) ;
#338 = DIRECTION ( 'NONE',  ( -0.000000000000000000, -1.000000000000000000, -0.000000000000000000 ) ) ;
#339 =( GEOMETRIC_REPRESENTATION_CONTEXT ( 3 ) GLOBAL_UNCERTAINTY_ASSIGNED_CONTEXT ( ( #163 ) ) GLOBAL_UNIT_ASSIGNED_CONTEXT ( ( #213, #97, #37 ) ) REPRESENTATION_CONTEXT ( 'NONE', 'WORKASPACE' ) );
#340 = PRESENTATION_LAYER_ASSIGNMENT (  '', '', ( #183 ) ) ;
#341 =( LENGTH_UNIT ( ) NAMED_UNIT ( * ) SI_UNIT ( $, .METRE. ) );
#342 = DIRECTION ( 'NONE',  ( 0.000000000000000000, 0.000000000000000000, -1.000000000000000000 ) ) ;
#343 = DIRECTION ( 'NONE',  ( 0.000000000000000000, 0.000000000000000000, -1.000000000000000000 ) ) ;
#344 =( CONVERSION_BASED_UNIT ( 'INCH', #110 ) LENGTH_UNIT ( ) NAMED_UNIT ( #107 ) );
#345 = CARTESIAN_POINT ( 'NONE',  ( -1.913510623667739463E-17, 0.000000000000000000, 0.000000000000000000 ) ) ;
#346 = STYLED_ITEM ( 'NONE', ( #118 ), #178 ) ;
#347 = DIRECTION ( 'NONE',  ( -1.000000000000000000, 0.000000000000000000, 0.000000000000000000 ) ) ;
#348 = DIRECTION ( 'NONE',  ( -0.000000000000000000, -1.000000000000000000, -0.000000000000000000 ) ) ;
#349 = UNCERTAINTY_MEASURE_WITH_UNIT (LENGTH_MEASURE( 1.000000000000000082E-05 ), #314, 'distance_accuracy_value', 'NONE');
#350 = ORIENTED_EDGE ( 'NONE', *, *, #20, .T. ) ;
#351 = CARTESIAN_POINT ( 'NONE',  ( -3.827021247335478926E-17, 0.3125000000000000000, 0.000000000000000000 ) ) ;
#352 = CARTESIAN_POINT ( 'NONE',  ( 0.000000000000000000, 0.000000000000000000, -0.3124999999999998890 ) ) ;
#353 = DIRECTION ( 'NONE',  ( -0.000000000000000000, -1.000000000000000000, -0.000000000000000000 ) ) ;
#354 = DIMENSIONAL_EXPONENTS ( 1.000000000000000000, 0.000000000000000000, 0.000000000000000000, 0.000000000000000000, 0.000000000000000000, 0.000000000000000000, 0.000000000000000000 ) ;
#355 =( GEOMETRIC_REPRESENTATION_CONTEXT ( 3 ) GLOBAL_UNCERTAINTY_ASSIGNED_CONTEXT ( ( #29 ) ) GLOBAL_UNIT_ASSIGNED_CONTEXT ( ( #363, #276, #175 ) ) REPRESENTATION_CONTEXT ( 'NONE', 'WORKASPACE' ) );
#356 = SURFACE_STYLE_FILL_AREA ( #99 ) ;
#357 =( NAMED_UNIT ( * ) PLANE_ANGLE_UNIT ( ) SI_UNIT ( $, .RADIAN. ) );
#358 = PRODUCT_CONTEXT ( 'NONE', #157, 'mechanical' ) ;
#359 =( GEOMETRIC_REPRESENTATION_CONTEXT ( 3 ) GLOBAL_UNCERTAINTY_ASSIGNED_CONTEXT ( ( #271 ) ) GLOBAL_UNIT_ASSIGNED_CONTEXT ( ( #344, #54, #254 ) ) REPRESENTATION_CONTEXT ( 'NONE', 'WORKASPACE' ) );
#360 =( LENGTH_UNIT ( ) NAMED_UNIT ( * ) SI_UNIT ( $, .METRE. ) );
#361 = MANIFOLD_SOLID_BREP ( 'Revolve - Cutting Edge', #312 ) ;
#362 = COLOUR_RGB ( '',1.000000000000000000, 0.000000000000000000, 0.000000000000000000 ) ;
#363 =( CONVERSION_BASED_UNIT ( 'INCH', #216 ) LENGTH_UNIT ( ) NAMED_UNIT ( #251 ) );
#364 = UNCERTAINTY_MEASURE_WITH_UNIT (LENGTH_MEASURE( 1.000000000000000082E-05 ), #307, 'distance_accuracy_value', 'NONE');
#365 = PLANE ( 'NONE',  #39 ) ;
#366 = EDGE_CURVE ( 'NONE', #76, #370, #298, .T. ) ;
#367 = CIRCLE ( 'NONE', #293, 0.3124999999999998335 ) ;
#368 = ORIENTED_EDGE ( 'NONE', *, *, #366, .T. ) ;
#369 = AXIS2_PLACEMENT_3D ( 'NONE', #11, #15, #71 ) ;
#370 = VERTEX_POINT ( 'NONE', #300 ) ;
#371 = DIRECTION ( 'NONE',  ( 0.000000000000000000, 0.000000000000000000, -1.000000000000000000 ) ) ;
#372 = DIRECTION ( 'NONE',  ( -1.224646799147352961E-16, 1.000000000000000000, -0.000000000000000000 ) ) ;
#373 = DIRECTION ( 'NONE',  ( -1.224646799147352961E-16, 1.000000000000000000, -0.000000000000000000 ) ) ;
ENDSEC;
END-ISO-10303-21;
