ISO-10303-21;
HEADER;
FILE_DESCRIPTION (( 'STEP AP214' ),
    '1' );
FILE_NAME ('84085.STEP',
    '2023-06-23T11:35:04',
    ( '' ),
    ( '' ),
    'SwSTEP 2.0',
    'SolidWorks 2023',
    '' );
FILE_SCHEMA (( 'AUTOMOTIVE_DESIGN' ));
ENDSEC;

DATA;
#1 = DIRECTION ( 'NONE',  ( 0.000000000000000000, 0.000000000000000000, -1.000000000000000000 ) ) ;
#2 = VERTEX_POINT ( 'NONE', #265 ) ;
#3 = LENGTH_MEASURE_WITH_UNIT ( LENGTH_MEASURE( 0.02539999999999999897 ), #166 );
#4 = MECHANICAL_DESIGN_GEOMETRIC_PRESENTATION_REPRESENTATION (  '', ( #285 ), #216 ) ;
#5 = FILL_AREA_STYLE_COLOUR ( '', #70 ) ;
#6 = EDGE_LOOP ( 'NONE', ( #310, #136, #93, #170 ) ) ;
#7 = CYLINDRICAL_SURFACE ( 'NONE', #42, 0.03125000000000000000 ) ;
#8 = CARTESIAN_POINT ( 'NONE',  ( -0.1250000000000000278, 0.5373797632095813626, 0.000000000000000000 ) ) ;
#9 = DIRECTION ( 'NONE',  ( 0.000000000000000000, 0.000000000000000000, -1.000000000000000000 ) ) ;
#10 = ADVANCED_FACE ( 'NONE', ( #244 ), #217, .T. ) ;
#11 = ORIENTED_EDGE ( 'NONE', *, *, #138, .F. ) ;
#12 = LENGTH_MEASURE_WITH_UNIT ( LENGTH_MEASURE( 0.02539999999999999897 ), #65 );
#13 = PRESENTATION_LAYER_ASSIGNMENT (  '', '', ( #285 ) ) ;
#14 = FACE_OUTER_BOUND ( 'NONE', #275, .T. ) ;
#15 = DIRECTION ( 'NONE',  ( -0.000000000000000000, -1.000000000000000000, -0.000000000000000000 ) ) ;
#16 = DIMENSIONAL_EXPONENTS ( 1.000000000000000000, 0.000000000000000000, 0.000000000000000000, 0.000000000000000000, 0.000000000000000000, 0.000000000000000000, 0.000000000000000000 ) ;
#17 =( LENGTH_UNIT ( ) NAMED_UNIT ( * ) SI_UNIT ( $, .METRE. ) );
#18 = DIRECTION ( 'NONE',  ( -2.647884971129412640E-17, 1.000000000000000000, -0.000000000000000000 ) ) ;
#19 = AXIS2_PLACEMENT_3D ( 'NONE', #148, #168, #278 ) ;
#20 = DIRECTION ( 'NONE',  ( 0.000000000000000000, 0.000000000000000000, -1.000000000000000000 ) ) ;
#21 = APPLICATION_PROTOCOL_DEFINITION ( 'draft international standard', 'automotive_design', 1998, #36 ) ;
#22 = DIRECTION ( 'NONE',  ( -2.647884971129412640E-17, 1.000000000000000000, -0.000000000000000000 ) ) ;
#23 = AXIS2_PLACEMENT_3D ( 'NONE', #212, #215, #294 ) ;
#24 = UNCERTAINTY_MEASURE_WITH_UNIT (LENGTH_MEASURE( 1.000000000000000082E-05 ), #213, 'distance_accuracy_value', 'NONE');
#25 = COLOUR_RGB ( '',1.000000000000000000, 0.000000000000000000, 0.000000000000000000 ) ;
#26 =( NAMED_UNIT ( * ) SI_UNIT ( $, .STERADIAN. ) SOLID_ANGLE_UNIT ( ) );
#27 =( LENGTH_UNIT ( ) NAMED_UNIT ( * ) SI_UNIT ( $, .METRE. ) );
#28 =( NAMED_UNIT ( * ) PLANE_ANGLE_UNIT ( ) SI_UNIT ( $, .RADIAN. ) );
#29 = FILL_AREA_STYLE ('',( #327 ) ) ;
#30 = LENGTH_MEASURE_WITH_UNIT ( LENGTH_MEASURE( 0.02539999999999999897 ), #296 );
#31 = AXIS2_PLACEMENT_3D ( 'NONE', #324, #126, #98 ) ;
#32 =( GEOMETRIC_REPRESENTATION_CONTEXT ( 3 ) GLOBAL_UNCERTAINTY_ASSIGNED_CONTEXT ( ( #24 ) ) GLOBAL_UNIT_ASSIGNED_CONTEXT ( ( #213, #334, #79 ) ) REPRESENTATION_CONTEXT ( 'NONE', 'WORKASPACE' ) );
#33 =( NAMED_UNIT ( * ) PLANE_ANGLE_UNIT ( ) SI_UNIT ( $, .RADIAN. ) );
#34 = FACE_OUTER_BOUND ( 'NONE', #208, .T. ) ;
#35 = VERTEX_POINT ( 'NONE', #214 ) ;
#36 = APPLICATION_CONTEXT ( 'automotive_design' ) ;
#37 = DIRECTION ( 'NONE',  ( -1.000000000000000000, 0.000000000000000000, 0.000000000000000000 ) ) ;
#38 = CARTESIAN_POINT ( 'NONE',  ( -0.03125000000000000000, 0.1875000000000001110, 0.000000000000000000 ) ) ;
#39 = CYLINDRICAL_SURFACE ( 'NONE', #202, 0.1250000000000000278 ) ;
#40 = ORIENTED_EDGE ( 'NONE', *, *, #206, .F. ) ;
#41 = CARTESIAN_POINT ( 'NONE',  ( 0.000000000000000000, 0.1875000000000000278, 0.000000000000000000 ) ) ;
#42 = AXIS2_PLACEMENT_3D ( 'NONE', #56, #268, #1 ) ;
#43 = CARTESIAN_POINT ( 'NONE',  ( 0.1250000000000000000, 2.500000000000000000, 0.000000000000000000 ) ) ;
#44 = SURFACE_STYLE_USAGE ( .BOTH. , #85 ) ;
#45 = DIRECTION ( 'NONE',  ( -1.000000000000000000, 0.000000000000000000, 0.000000000000000000 ) ) ;
#46 = MECHANICAL_DESIGN_GEOMETRIC_PRESENTATION_REPRESENTATION (  '', ( #141 ), #229 ) ;
#47 = CIRCLE ( 'NONE', #96, 0.03125000000000000000 ) ;
#48 = CARTESIAN_POINT ( 'NONE',  ( 7.582401355855259480E-33, 0.1875000000000001110, 0.000000000000000000 ) ) ;
#49 = UNCERTAINTY_MEASURE_WITH_UNIT (LENGTH_MEASURE( 1.000000000000000082E-05 ), #284, 'distance_accuracy_value', 'NONE');
#50 = LENGTH_MEASURE_WITH_UNIT ( LENGTH_MEASURE( 0.02539999999999999897 ), #238 );
#51 = CARTESIAN_POINT ( 'NONE',  ( 3.827021247335478772E-18, 0.1875000000000000278, 0.03125000000000000000 ) ) ;
#52 = CIRCLE ( 'NONE', #23, 0.1250000000000000555 ) ;
#53 = LINE ( 'NONE', #127, #94 ) ;
#54 = AXIS2_PLACEMENT_3D ( 'NONE', #332, #335, #163 ) ;
#55 = EDGE_CURVE ( 'NONE', #257, #205, #133, .T. ) ;
#56 = CARTESIAN_POINT ( 'NONE',  ( 0.000000000000000000, 0.000000000000000000, 0.000000000000000000 ) ) ;
#57 = PLANE ( 'NONE',  #210 ) ;
#58 =( NAMED_UNIT ( * ) SI_UNIT ( $, .STERADIAN. ) SOLID_ANGLE_UNIT ( ) );
#59 = ORIENTED_EDGE ( 'NONE', *, *, #218, .F. ) ;
#60 = AXIS2_PLACEMENT_3D ( 'NONE', #143, #339, #90 ) ;
#61 = PLANE ( 'NONE',  #347 ) ;
#62 = CARTESIAN_POINT ( 'NONE',  ( -0.1250000000000001110, 2.500000000000000000, 0.000000000000000000 ) ) ;
#63 = PRESENTATION_LAYER_ASSIGNMENT (  '', '', ( #141 ) ) ;
#64 = CIRCLE ( 'NONE', #19, 0.03125000000000000000 ) ;
#65 =( LENGTH_UNIT ( ) NAMED_UNIT ( * ) SI_UNIT ( $, .METRE. ) );
#66 = CARTESIAN_POINT ( 'NONE',  ( 0.000000000000000000, 0.1875000000000000278, -0.03125000000000000000 ) ) ;
#67 = ORIENTED_EDGE ( 'NONE', *, *, #333, .T. ) ;
#68 = UNCERTAINTY_MEASURE_WITH_UNIT (LENGTH_MEASURE( 1.000000000000000082E-05 ), #197, 'distance_accuracy_value', 'NONE');
#69 = CARTESIAN_POINT ( 'NONE',  ( 0.000000000000000000, 0.000000000000000000, 0.000000000000000000 ) ) ;
#70 = COLOUR_RGB ( '',1.000000000000000000, 0.000000000000000000, 0.000000000000000000 ) ;
#71 = EDGE_CURVE ( 'NONE', #145, #2, #209, .T. ) ;
#72 = CARTESIAN_POINT ( 'NONE',  ( 0.000000000000000000, 0.1875000000000000278, 0.000000000000000000 ) ) ;
#73 = SURFACE_STYLE_USAGE ( .BOTH. , #124 ) ;
#74 = CARTESIAN_POINT ( 'NONE',  ( -9.264413667049672299E-18, 0.5373797632095813626, 0.000000000000000000 ) ) ;
#75 = AXIS2_PLACEMENT_3D ( 'NONE', #48, #22, #188 ) ;
#76 = DIMENSIONAL_EXPONENTS ( 1.000000000000000000, 0.000000000000000000, 0.000000000000000000, 0.000000000000000000, 0.000000000000000000, 0.000000000000000000, 0.000000000000000000 ) ;
#77 = EDGE_CURVE ( 'NONE', #35, #120, #52, .T. ) ;
#78 = DIRECTION ( 'NONE',  ( -1.000000000000000000, 0.000000000000000000, 0.000000000000000000 ) ) ;
#79 =( NAMED_UNIT ( * ) SI_UNIT ( $, .STERADIAN. ) SOLID_ANGLE_UNIT ( ) );
#80 = ORIENTED_EDGE ( 'NONE', *, *, #77, .F. ) ;
#81 = DIRECTION ( 'NONE',  ( 0.2588190451025214611, 0.9659258262890679791, 3.169619151431773569E-17 ) ) ;
#82 = SURFACE_STYLE_USAGE ( .BOTH. , #293 ) ;
#83 = LINE ( 'NONE', #299, #195 ) ;
#84 = CARTESIAN_POINT ( 'NONE',  ( 0.1250000000000000000, 0.5373797632095813626, 1.530808498934191817E-17 ) ) ;
#85 = SURFACE_SIDE_STYLE ('',( #307 ) ) ;
#86 = DIRECTION ( 'NONE',  ( 0.000000000000000000, -1.000000000000000000, -0.000000000000000000 ) ) ;
#87 = ORIENTED_EDGE ( 'NONE', *, *, #354, .F. ) ;
#88 = CIRCLE ( 'NONE', #75, 0.03125000000000000000 ) ;
#89 = EDGE_CURVE ( 'NONE', #286, #279, #88, .T. ) ;
#90 = DIRECTION ( 'NONE',  ( -1.000000000000000000, 0.000000000000000000, 0.000000000000000000 ) ) ;
#91 = FILL_AREA_STYLE ('',( #342 ) ) ;
#92 = UNCERTAINTY_MEASURE_WITH_UNIT (LENGTH_MEASURE( 1.000000000000000082E-05 ), #235, 'distance_accuracy_value', 'NONE');
#93 = ORIENTED_EDGE ( 'NONE', *, *, #206, .T. ) ;
#94 = VECTOR ( 'NONE', #162, 39.37007874015748143 ) ;
#95 = PRESENTATION_STYLE_ASSIGNMENT (( #44 ) ) ;
#96 = AXIS2_PLACEMENT_3D ( 'NONE', #41, #15, #262 ) ;
#97 = CARTESIAN_POINT ( 'NONE',  ( -9.264413667049672299E-18, 0.5373797632095813626, 0.000000000000000000 ) ) ;
#98 = DIRECTION ( 'NONE',  ( -1.000000000000000000, 0.000000000000000000, 0.000000000000000000 ) ) ;
#99 = COLOUR_RGB ( '',1.000000000000000000, 0.000000000000000000, 0.000000000000000000 ) ;
#100 = STYLED_ITEM ( 'NONE', ( #95 ), #346 ) ;
#101 =( NAMED_UNIT ( * ) PLANE_ANGLE_UNIT ( ) SI_UNIT ( $, .RADIAN. ) );
#102 = PRESENTATION_LAYER_ASSIGNMENT (  '', '', ( #263 ) ) ;
#103 = STYLED_ITEM ( 'NONE', ( #107 ), #341 ) ;
#104 = FACE_OUTER_BOUND ( 'NONE', #176, .T. ) ;
#105 = PRESENTATION_STYLE_ASSIGNMENT (( #246 ) ) ;
#106 = ORIENTED_EDGE ( 'NONE', *, *, #89, .F. ) ;
#107 = PRESENTATION_STYLE_ASSIGNMENT (( #221 ) ) ;
#108 = ORIENTED_EDGE ( 'NONE', *, *, #189, .F. ) ;
#109 =( CONVERSION_BASED_UNIT ( 'INCH', #30 ) LENGTH_UNIT ( ) NAMED_UNIT ( #352 ) );
#110 = AXIS2_PLACEMENT_3D ( 'NONE', #187, #196, #301 ) ;
#111 = DIRECTION ( 'NONE',  ( 2.647884971129412640E-17, -1.000000000000000000, 0.000000000000000000 ) ) ;
#112 = ORIENTED_EDGE ( 'NONE', *, *, #71, .T. ) ;
#113 = PLANE ( 'NONE',  #291 ) ;
#114 = LENGTH_MEASURE_WITH_UNIT ( LENGTH_MEASURE( 0.02539999999999999897 ), #17 );
#115 = DIRECTION ( 'NONE',  ( 0.000000000000000000, 0.000000000000000000, -1.000000000000000000 ) ) ;
#116 = EDGE_CURVE ( 'NONE', #131, #145, #53, .T. ) ;
#117 = VECTOR ( 'NONE', #223, 39.37007874015748143 ) ;
#118 = CARTESIAN_POINT ( 'NONE',  ( -6.123233995736766036E-17, 2.500000000000000000, 0.000000000000000000 ) ) ;
#119 = CYLINDRICAL_SURFACE ( 'NONE', #54, 0.03125000000000000000 ) ;
#120 = VERTEX_POINT ( 'NONE', #266 ) ;
#121 = ORIENTED_EDGE ( 'NONE', *, *, #89, .T. ) ;
#122 = CIRCLE ( 'NONE', #325, 0.1250000000000000278 ) ;
#123 =( GEOMETRIC_REPRESENTATION_CONTEXT ( 3 ) GLOBAL_UNCERTAINTY_ASSIGNED_CONTEXT ( ( #264 ) ) GLOBAL_UNIT_ASSIGNED_CONTEXT ( ( #109, #28, #58 ) ) REPRESENTATION_CONTEXT ( 'NONE', 'WORKASPACE' ) );
#124 = SURFACE_SIDE_STYLE ('',( #321 ) ) ;
#125 = EDGE_CURVE ( 'NONE', #120, #35, #194, .T. ) ;
#126 = DIRECTION ( 'NONE',  ( -2.647884971129412640E-17, 1.000000000000000000, -0.000000000000000000 ) ) ;
#127 = CARTESIAN_POINT ( 'NONE',  ( 3.827021247335478772E-18, 0.000000000000000000, 0.03125000000000000000 ) ) ;
#128 = DIRECTION ( 'NONE',  ( -2.647884971129412640E-17, 1.000000000000000000, -0.000000000000000000 ) ) ;
#129 = DIRECTION ( 'NONE',  ( -1.000000000000000000, 0.000000000000000000, 0.000000000000000000 ) ) ;
#130 = PRESENTATION_STYLE_ASSIGNMENT (( #82 ) ) ;
#131 = VERTEX_POINT ( 'NONE', #51 ) ;
#132 = LINE ( 'NONE', #219, #241 ) ;
#133 = CIRCLE ( 'NONE', #245, 0.1250000000000000278 ) ;
#134 = MANIFOLD_SOLID_BREP ( 'Revolve - Cutting Edge', #177 ) ;
#135 = DIRECTION ( 'NONE',  ( -0.000000000000000000, -1.000000000000000000, -0.000000000000000000 ) ) ;
#136 = ORIENTED_EDGE ( 'NONE', *, *, #138, .T. ) ;
#137 = SURFACE_STYLE_USAGE ( .BOTH. , #220 ) ;
#138 = EDGE_CURVE ( 'NONE', #205, #257, #122, .T. ) ;
#139 = DIRECTION ( 'NONE',  ( -2.647884971129412640E-17, 1.000000000000000000, 0.000000000000000000 ) ) ;
#140 = MANIFOLD_SOLID_BREP ( 'Revolve - Tool Body (Reduced Cut Diameter)', #330 ) ;
#141 = STYLED_ITEM ( 'NONE', ( #323 ), #134 ) ;
#142 = AXIS2_PLACEMENT_3D ( 'NONE', #72, #259, #287 ) ;
#143 = CARTESIAN_POINT ( 'NONE',  ( 7.582401355855259480E-33, 0.1875000000000001110, 0.000000000000000000 ) ) ;
#144 = DIRECTION ( 'NONE',  ( -0.000000000000000000, -1.000000000000000000, -0.000000000000000000 ) ) ;
#145 = VERTEX_POINT ( 'NONE', #329 ) ;
#146 = AXIS2_PLACEMENT_3D ( 'NONE', #289, #184, #45 ) ;
#147 = VECTOR ( 'NONE', #308, 39.37007874015748143 ) ;
#148 = CARTESIAN_POINT ( 'NONE',  ( 7.582401355855259480E-33, 0.1875000000000001110, 0.000000000000000000 ) ) ;
#149 = DIRECTION ( 'NONE',  ( 1.000000000000000000, 0.000000000000000000, 0.000000000000000000 ) ) ;
#150 = ORIENTED_EDGE ( 'NONE', *, *, #218, .T. ) ;
#151 = ADVANCED_FACE ( 'NONE', ( #253 ), #267, .T. ) ;
#152 = APPLICATION_PROTOCOL_DEFINITION ( 'draft international standard', 'automotive_design', 1998, #239 ) ;
#153 = ORIENTED_EDGE ( 'NONE', *, *, #226, .T. ) ;
#154 =( GEOMETRIC_REPRESENTATION_CONTEXT ( 3 ) GLOBAL_UNCERTAINTY_ASSIGNED_CONTEXT ( ( #309 ) ) GLOBAL_UNIT_ASSIGNED_CONTEXT ( ( #272, #249, #167 ) ) REPRESENTATION_CONTEXT ( 'NONE', 'WORKASPACE' ) );
#155 = MECHANICAL_DESIGN_GEOMETRIC_PRESENTATION_REPRESENTATION (  '', ( #103 ), #331 ) ;
#156 = DIMENSIONAL_EXPONENTS ( 1.000000000000000000, 0.000000000000000000, 0.000000000000000000, 0.000000000000000000, 0.000000000000000000, 0.000000000000000000, 0.000000000000000000 ) ;
#157 = FILL_AREA_STYLE_COLOUR ( '', #290 ) ;
#158 =( CONVERSION_BASED_UNIT ( 'INCH', #50 ) LENGTH_UNIT ( ) NAMED_UNIT ( #343 ) );
#159 = FILL_AREA_STYLE ('',( #351 ) ) ;
#160 = ADVANCED_FACE ( 'NONE', ( #104 ), #57, .T. ) ;
#161 = MECHANICAL_DESIGN_GEOMETRIC_PRESENTATION_REPRESENTATION (  '', ( #178 ), #123 ) ;
#162 = DIRECTION ( 'NONE',  ( -0.000000000000000000, -1.000000000000000000, -0.000000000000000000 ) ) ;
#163 = DIRECTION ( 'NONE',  ( 0.000000000000000000, 0.000000000000000000, -1.000000000000000000 ) ) ;
#164 = PRODUCT_DEFINITION ( 'UNKNOWN', '', #203, #242 ) ;
#165 = ORIENTED_EDGE ( 'NONE', *, *, #276, .T. ) ;
#166 =( LENGTH_UNIT ( ) NAMED_UNIT ( * ) SI_UNIT ( $, .METRE. ) );
#167 =( NAMED_UNIT ( * ) SI_UNIT ( $, .STERADIAN. ) SOLID_ANGLE_UNIT ( ) );
#168 = DIRECTION ( 'NONE',  ( -2.647884971129412640E-17, 1.000000000000000000, -0.000000000000000000 ) ) ;
#169 = PRESENTATION_LAYER_ASSIGNMENT (  '', '', ( #103 ) ) ;
#170 = ORIENTED_EDGE ( 'NONE', *, *, #125, .F. ) ;
#171 = FILL_AREA_STYLE_COLOUR ( '', #25 ) ;
#172 = CARTESIAN_POINT ( 'NONE',  ( 0.000000000000000000, 0.1875000000000000278, 0.000000000000000000 ) ) ;
#173 = ORIENTED_EDGE ( 'NONE', *, *, #116, .F. ) ;
#174 = SURFACE_STYLE_FILL_AREA ( #91 ) ;
#175 = PRODUCT_RELATED_PRODUCT_CATEGORY ( 'part', '', ( #348 ) ) ;
#176 = EDGE_LOOP ( 'NONE', ( #165, #112 ) ) ;
#177 = CLOSED_SHELL ( 'NONE', ( #341, #346, #300, #160 ) ) ;
#178 = STYLED_ITEM ( 'NONE', ( #105 ), #300 ) ;
#179 = AXIS2_PLACEMENT_3D ( 'NONE', #211, #288, #149 ) ;
#180 =( NAMED_UNIT ( * ) SI_UNIT ( $, .STERADIAN. ) SOLID_ANGLE_UNIT ( ) );
#181 = ORIENTED_EDGE ( 'NONE', *, *, #318, .T. ) ;
#182 = PLANE ( 'NONE',  #142 ) ;
#183 = DIMENSIONAL_EXPONENTS ( 1.000000000000000000, 0.000000000000000000, 0.000000000000000000, 0.000000000000000000, 0.000000000000000000, 0.000000000000000000, 0.000000000000000000 ) ;
#184 = DIRECTION ( 'NONE',  ( -2.647884971129412640E-17, 1.000000000000000000, -0.000000000000000000 ) ) ;
#185 = ADVANCED_FACE ( 'NONE', ( #305 ), #113, .F. ) ;
#186 = DIRECTION ( 'NONE',  ( -2.647884971129412640E-17, 1.000000000000000000, -0.000000000000000000 ) ) ;
#187 = CARTESIAN_POINT ( 'NONE',  ( 7.582401355855259480E-33, 0.1875000000000001110, 0.000000000000000000 ) ) ;
#188 = DIRECTION ( 'NONE',  ( -1.000000000000000000, 0.000000000000000000, 0.000000000000000000 ) ) ;
#189 = EDGE_CURVE ( 'NONE', #286, #257, #256, .T. ) ;
#190 = FACE_OUTER_BOUND ( 'NONE', #232, .T. ) ;
#191 = SURFACE_STYLE_FILL_AREA ( #29 ) ;
#192 = ORIENTED_EDGE ( 'NONE', *, *, #276, .F. ) ;
#193 = CARTESIAN_POINT ( 'NONE',  ( 1.095514815677032768E-35, 0.1875000000000000278, 0.000000000000000000 ) ) ;
#194 = CIRCLE ( 'NONE', #146, 0.1250000000000000555 ) ;
#195 = VECTOR ( 'NONE', #81, 39.37007874015748143 ) ;
#196 = DIRECTION ( 'NONE',  ( -2.647884971129412640E-17, 1.000000000000000000, -0.000000000000000000 ) ) ;
#197 =( CONVERSION_BASED_UNIT ( 'INCH', #3 ) LENGTH_UNIT ( ) NAMED_UNIT ( #156 ) );
#198 = VERTEX_POINT ( 'NONE', #66 ) ;
#199 =( NAMED_UNIT ( * ) SI_UNIT ( $, .STERADIAN. ) SOLID_ANGLE_UNIT ( ) );
#200 = CARTESIAN_POINT ( 'NONE',  ( 0.000000000000000000, 0.000000000000000000, 0.000000000000000000 ) ) ;
#201 = DIRECTION ( 'NONE',  ( 1.000000000000000000, 2.647884971129412640E-17, 0.000000000000000000 ) ) ;
#202 = AXIS2_PLACEMENT_3D ( 'NONE', #118, #18, #37 ) ;
#203 = PRODUCT_DEFINITION_FORMATION_WITH_SPECIFIED_SOURCE ( 'ANY', '', #348, .NOT_KNOWN. ) ;
#204 = LINE ( 'NONE', #62, #147 ) ;
#205 = VERTEX_POINT ( 'NONE', #84 ) ;
#206 = EDGE_CURVE ( 'NONE', #257, #35, #204, .T. ) ;
#207 = EDGE_LOOP ( 'NONE', ( #106, #59 ) ) ;
#208 = EDGE_LOOP ( 'NONE', ( #273, #150, #234, #11 ) ) ;
#209 = CIRCLE ( 'NONE', #236, 0.03125000000000000000 ) ;
#210 = AXIS2_PLACEMENT_3D ( 'NONE', #200, #86, #280 ) ;
#211 = CARTESIAN_POINT ( 'NONE',  ( 0.000000000000000000, 0.000000000000000000, 0.000000000000000000 ) ) ;
#212 = CARTESIAN_POINT ( 'NONE',  ( -6.123233995736766036E-17, 2.500000000000000000, 0.000000000000000000 ) ) ;
#213 =( CONVERSION_BASED_UNIT ( 'INCH', #114 ) LENGTH_UNIT ( ) NAMED_UNIT ( #349 ) );
#214 = CARTESIAN_POINT ( 'NONE',  ( -0.1250000000000001388, 2.500000000000000000, 0.000000000000000000 ) ) ;
#215 = DIRECTION ( 'NONE',  ( -2.647884971129412640E-17, 1.000000000000000000, -0.000000000000000000 ) ) ;
#216 =( GEOMETRIC_REPRESENTATION_CONTEXT ( 3 ) GLOBAL_UNCERTAINTY_ASSIGNED_CONTEXT ( ( #49 ) ) GLOBAL_UNIT_ASSIGNED_CONTEXT ( ( #284, #314, #254 ) ) REPRESENTATION_CONTEXT ( 'NONE', 'WORKASPACE' ) );
#217 = CYLINDRICAL_SURFACE ( 'NONE', #31, 0.1250000000000000278 ) ;
#218 = EDGE_CURVE ( 'NONE', #279, #286, #64, .T. ) ;
#219 = CARTESIAN_POINT ( 'NONE',  ( 0.1249999999999999584, 2.500000000000000000, 1.530808498934191817E-17 ) ) ;
#220 = SURFACE_SIDE_STYLE ('',( #191 ) ) ;
#221 = SURFACE_STYLE_USAGE ( .BOTH. , #302 ) ;
#222 = MECHANICAL_DESIGN_GEOMETRIC_PRESENTATION_REPRESENTATION (  '', ( #100 ), #298 ) ;
#223 = DIRECTION ( 'NONE',  ( -0.2588190451025214611, 0.9659258262890679791, 0.000000000000000000 ) ) ;
#224 = EDGE_LOOP ( 'NONE', ( #121, #181, #337, #108 ) ) ;
#225 = LENGTH_MEASURE_WITH_UNIT ( LENGTH_MEASURE( 0.02539999999999999897 ), #282 );
#226 = EDGE_CURVE ( 'NONE', #198, #131, #231, .T. ) ;
#227 = EDGE_LOOP ( 'NONE', ( #153, #251, #192, #306 ) ) ;
#228 = FACE_OUTER_BOUND ( 'NONE', #6, .T. ) ;
#229 =( GEOMETRIC_REPRESENTATION_CONTEXT ( 3 ) GLOBAL_UNCERTAINTY_ASSIGNED_CONTEXT ( ( #344 ) ) GLOBAL_UNIT_ASSIGNED_CONTEXT ( ( #158, #101, #26 ) ) REPRESENTATION_CONTEXT ( 'NONE', 'WORKASPACE' ) );
#230 = CARTESIAN_POINT ( 'NONE',  ( -0.03125000000000000000, 0.1875000000000001110, 0.000000000000000000 ) ) ;
#231 = CIRCLE ( 'NONE', #338, 0.03125000000000000000 ) ;
#232 = EDGE_LOOP ( 'NONE', ( #250, #87 ) ) ;
#233 = DIRECTION ( 'NONE',  ( -0.000000000000000000, -1.000000000000000000, -0.000000000000000000 ) ) ;
#234 = ORIENTED_EDGE ( 'NONE', *, *, #189, .T. ) ;
#235 =( CONVERSION_BASED_UNIT ( 'INCH', #12 ) LENGTH_UNIT ( ) NAMED_UNIT ( #76 ) );
#236 = AXIS2_PLACEMENT_3D ( 'NONE', #240, #243, #20 ) ;
#237 = PRESENTATION_LAYER_ASSIGNMENT (  '', '', ( #178 ) ) ;
#238 =( LENGTH_UNIT ( ) NAMED_UNIT ( * ) SI_UNIT ( $, .METRE. ) );
#239 = APPLICATION_CONTEXT ( 'automotive_design' ) ;
#240 = CARTESIAN_POINT ( 'NONE',  ( 0.000000000000000000, 0.000000000000000000, 0.000000000000000000 ) ) ;
#241 = VECTOR ( 'NONE', #271, 39.37007874015748143 ) ;
#242 = PRODUCT_DEFINITION_CONTEXT ( 'detailed design', #36, 'design' ) ;
#243 = DIRECTION ( 'NONE',  ( -0.000000000000000000, -1.000000000000000000, -0.000000000000000000 ) ) ;
#244 = FACE_OUTER_BOUND ( 'NONE', #336, .T. ) ;
#245 = AXIS2_PLACEMENT_3D ( 'NONE', #97, #186, #78 ) ;
#246 = SURFACE_STYLE_USAGE ( .BOTH. , #297 ) ;
#247 = PRESENTATION_STYLE_ASSIGNMENT (( #137 ) ) ;
#248 = FACE_OUTER_BOUND ( 'NONE', #227, .T. ) ;
#249 =( NAMED_UNIT ( * ) PLANE_ANGLE_UNIT ( ) SI_UNIT ( $, .RADIAN. ) );
#250 = ORIENTED_EDGE ( 'NONE', *, *, #226, .F. ) ;
#251 = ORIENTED_EDGE ( 'NONE', *, *, #116, .T. ) ;
#252 = LINE ( 'NONE', #328, #322 ) ;
#253 = FACE_OUTER_BOUND ( 'NONE', #224, .T. ) ;
#254 =( NAMED_UNIT ( * ) SI_UNIT ( $, .STERADIAN. ) SOLID_ANGLE_UNIT ( ) );
#255 = ORIENTED_EDGE ( 'NONE', *, *, #77, .T. ) ;
#256 = LINE ( 'NONE', #38, #117 ) ;
#257 = VERTEX_POINT ( 'NONE', #8 ) ;
#258 = ADVANCED_BREP_SHAPE_REPRESENTATION ( '84085', ( #134, #140, #179 ), #32 ) ;
#259 = DIRECTION ( 'NONE',  ( 0.000000000000000000, 1.000000000000000000, 0.000000000000000000 ) ) ;
#260 = PRODUCT_CONTEXT ( 'NONE', #239, 'mechanical' ) ;
#261 = ORIENTED_EDGE ( 'NONE', *, *, #354, .T. ) ;
#262 = DIRECTION ( 'NONE',  ( 0.000000000000000000, 0.000000000000000000, -1.000000000000000000 ) ) ;
#263 = STYLED_ITEM ( 'NONE', ( #130 ), #140 ) ;
#264 = UNCERTAINTY_MEASURE_WITH_UNIT (LENGTH_MEASURE( 1.000000000000000082E-05 ), #109, 'distance_accuracy_value', 'NONE');
#265 = CARTESIAN_POINT ( 'NONE',  ( 0.000000000000000000, 0.000000000000000000, -0.03125000000000000000 ) ) ;
#266 = CARTESIAN_POINT ( 'NONE',  ( 0.1250000000000000278, 2.500000000000000000, 1.530808498934192125E-17 ) ) ;
#267 = CONICAL_SURFACE ( 'NONE', #110, 0.03125000000000000000, 0.2617993877991501850 ) ;
#268 = DIRECTION ( 'NONE',  ( -0.000000000000000000, -1.000000000000000000, -0.000000000000000000 ) ) ;
#269 = MECHANICAL_DESIGN_GEOMETRIC_PRESENTATION_REPRESENTATION (  '', ( #263 ), #154 ) ;
#270 = CIRCLE ( 'NONE', #353, 0.03125000000000000000 ) ;
#271 = DIRECTION ( 'NONE',  ( -2.647884971129412640E-17, 1.000000000000000000, -0.000000000000000000 ) ) ;
#272 =( CONVERSION_BASED_UNIT ( 'INCH', #303 ) LENGTH_UNIT ( ) NAMED_UNIT ( #16 ) );
#273 = ORIENTED_EDGE ( 'NONE', *, *, #318, .F. ) ;
#274 = SURFACE_STYLE_FILL_AREA ( #358 ) ;
#275 = EDGE_LOOP ( 'NONE', ( #173, #261, #67, #283 ) ) ;
#276 = EDGE_CURVE ( 'NONE', #2, #145, #270, .T. ) ;
#277 = DIRECTION ( 'NONE',  ( -1.000000000000000000, -2.647884971129412640E-17, 0.000000000000000000 ) ) ;
#278 = DIRECTION ( 'NONE',  ( -1.000000000000000000, 0.000000000000000000, 0.000000000000000000 ) ) ;
#279 = VERTEX_POINT ( 'NONE', #311 ) ;
#280 = DIRECTION ( 'NONE',  ( 0.000000000000000000, 0.000000000000000000, -1.000000000000000000 ) ) ;
#281 = ORIENTED_EDGE ( 'NONE', *, *, #125, .T. ) ;
#282 =( LENGTH_UNIT ( ) NAMED_UNIT ( * ) SI_UNIT ( $, .METRE. ) );
#283 = ORIENTED_EDGE ( 'NONE', *, *, #71, .F. ) ;
#284 =( CONVERSION_BASED_UNIT ( 'INCH', #225 ) LENGTH_UNIT ( ) NAMED_UNIT ( #183 ) );
#285 = STYLED_ITEM ( 'NONE', ( #247 ), #160 ) ;
#286 = VERTEX_POINT ( 'NONE', #230 ) ;
#287 = DIRECTION ( 'NONE',  ( 0.000000000000000000, -0.000000000000000000, 1.000000000000000000 ) ) ;
#288 = DIRECTION ( 'NONE',  ( 0.000000000000000000, 0.000000000000000000, 1.000000000000000000 ) ) ;
#289 = CARTESIAN_POINT ( 'NONE',  ( -6.123233995736766036E-17, 2.500000000000000000, 0.000000000000000000 ) ) ;
#290 = COLOUR_RGB ( '',0.7921568627450980005, 0.8196078431372548767, 0.9333333333333333481 ) ;
#291 = AXIS2_PLACEMENT_3D ( 'NONE', #43, #111, #201 ) ;
#292 = ADVANCED_FACE ( 'NONE', ( #34 ), #357, .T. ) ;
#293 = SURFACE_SIDE_STYLE ('',( #317 ) ) ;
#294 = DIRECTION ( 'NONE',  ( -1.000000000000000000, 0.000000000000000000, 0.000000000000000000 ) ) ;
#295 = PRESENTATION_LAYER_ASSIGNMENT (  '', '', ( #100 ) ) ;
#296 =( LENGTH_UNIT ( ) NAMED_UNIT ( * ) SI_UNIT ( $, .METRE. ) );
#297 = SURFACE_SIDE_STYLE ('',( #174 ) ) ;
#298 =( GEOMETRIC_REPRESENTATION_CONTEXT ( 3 ) GLOBAL_UNCERTAINTY_ASSIGNED_CONTEXT ( ( #92 ) ) GLOBAL_UNIT_ASSIGNED_CONTEXT ( ( #235, #345, #180 ) ) REPRESENTATION_CONTEXT ( 'NONE', 'WORKASPACE' ) );
#299 = CARTESIAN_POINT ( 'NONE',  ( 0.03125000000000000000, 0.1875000000000001110, 3.827021247335478772E-18 ) ) ;
#300 = ADVANCED_FACE ( 'NONE', ( #14 ), #119, .T. ) ;
#301 = DIRECTION ( 'NONE',  ( -1.000000000000000000, 0.000000000000000000, 0.000000000000000000 ) ) ;
#302 = SURFACE_SIDE_STYLE ('',( #274 ) ) ;
#303 = LENGTH_MEASURE_WITH_UNIT ( LENGTH_MEASURE( 0.02539999999999999897 ), #27 );
#304 = ADVANCED_FACE ( 'NONE', ( #326 ), #61, .F. ) ;
#305 = FACE_OUTER_BOUND ( 'NONE', #340, .T. ) ;
#306 = ORIENTED_EDGE ( 'NONE', *, *, #333, .F. ) ;
#307 = SURFACE_STYLE_FILL_AREA ( #313 ) ;
#308 = DIRECTION ( 'NONE',  ( -2.647884971129412640E-17, 1.000000000000000000, -0.000000000000000000 ) ) ;
#309 = UNCERTAINTY_MEASURE_WITH_UNIT (LENGTH_MEASURE( 1.000000000000000082E-05 ), #272, 'distance_accuracy_value', 'NONE');
#310 = ORIENTED_EDGE ( 'NONE', *, *, #320, .F. ) ;
#311 = CARTESIAN_POINT ( 'NONE',  ( 0.03125000000000000000, 0.1875000000000001110, 9.567553118338697316E-18 ) ) ;
#312 = PRODUCT_DEFINITION_SHAPE ( 'NONE', 'NONE',  #164 ) ;
#313 = FILL_AREA_STYLE ('',( #171 ) ) ;
#314 =( NAMED_UNIT ( * ) PLANE_ANGLE_UNIT ( ) SI_UNIT ( $, .RADIAN. ) );
#315 = ORIENTED_EDGE ( 'NONE', *, *, #320, .T. ) ;
#316 = COLOUR_RGB ( '',1.000000000000000000, 0.000000000000000000, 0.000000000000000000 ) ;
#317 = SURFACE_STYLE_FILL_AREA ( #355 ) ;
#318 = EDGE_CURVE ( 'NONE', #279, #205, #83, .T. ) ;
#319 = SHAPE_DEFINITION_REPRESENTATION ( #312, #258 ) ;
#320 = EDGE_CURVE ( 'NONE', #205, #120, #132, .T. ) ;
#321 = SURFACE_STYLE_FILL_AREA ( #159 ) ;
#322 = VECTOR ( 'NONE', #135, 39.37007874015748143 ) ;
#323 = PRESENTATION_STYLE_ASSIGNMENT (( #73 ) ) ;
#324 = CARTESIAN_POINT ( 'NONE',  ( -6.123233995736766036E-17, 2.500000000000000000, 0.000000000000000000 ) ) ;
#325 = AXIS2_PLACEMENT_3D ( 'NONE', #74, #128, #129 ) ;
#326 = FACE_OUTER_BOUND ( 'NONE', #207, .T. ) ;
#327 = FILL_AREA_STYLE_COLOUR ( '', #99 ) ;
#328 = CARTESIAN_POINT ( 'NONE',  ( 0.000000000000000000, 0.000000000000000000, -0.03125000000000000000 ) ) ;
#329 = CARTESIAN_POINT ( 'NONE',  ( 3.827021247335478772E-18, 0.000000000000000000, 0.03125000000000000000 ) ) ;
#330 = CLOSED_SHELL ( 'NONE', ( #10, #151, #304, #292, #350, #185 ) ) ;
#331 =( GEOMETRIC_REPRESENTATION_CONTEXT ( 3 ) GLOBAL_UNCERTAINTY_ASSIGNED_CONTEXT ( ( #68 ) ) GLOBAL_UNIT_ASSIGNED_CONTEXT ( ( #197, #33, #199 ) ) REPRESENTATION_CONTEXT ( 'NONE', 'WORKASPACE' ) );
#332 = CARTESIAN_POINT ( 'NONE',  ( 0.000000000000000000, 0.000000000000000000, 0.000000000000000000 ) ) ;
#333 = EDGE_CURVE ( 'NONE', #198, #2, #252, .T. ) ;
#334 =( NAMED_UNIT ( * ) PLANE_ANGLE_UNIT ( ) SI_UNIT ( $, .RADIAN. ) );
#335 = DIRECTION ( 'NONE',  ( -0.000000000000000000, -1.000000000000000000, -0.000000000000000000 ) ) ;
#336 = EDGE_LOOP ( 'NONE', ( #359, #315, #80, #40 ) ) ;
#337 = ORIENTED_EDGE ( 'NONE', *, *, #55, .F. ) ;
#338 = AXIS2_PLACEMENT_3D ( 'NONE', #172, #144, #9 ) ;
#339 = DIRECTION ( 'NONE',  ( -2.647884971129412640E-17, 1.000000000000000000, -0.000000000000000000 ) ) ;
#340 = EDGE_LOOP ( 'NONE', ( #255, #281 ) ) ;
#341 = ADVANCED_FACE ( 'NONE', ( #248 ), #7, .T. ) ;
#342 = FILL_AREA_STYLE_COLOUR ( '', #316 ) ;
#343 = DIMENSIONAL_EXPONENTS ( 1.000000000000000000, 0.000000000000000000, 0.000000000000000000, 0.000000000000000000, 0.000000000000000000, 0.000000000000000000, 0.000000000000000000 ) ;
#344 = UNCERTAINTY_MEASURE_WITH_UNIT (LENGTH_MEASURE( 1.000000000000000082E-05 ), #158, 'distance_accuracy_value', 'NONE');
#345 =( NAMED_UNIT ( * ) PLANE_ANGLE_UNIT ( ) SI_UNIT ( $, .RADIAN. ) );
#346 = ADVANCED_FACE ( 'NONE', ( #190 ), #182, .T. ) ;
#347 = AXIS2_PLACEMENT_3D ( 'NONE', #193, #139, #277 ) ;
#348 = PRODUCT ( '84085', '84085', '', ( #260 ) ) ;
#349 = DIMENSIONAL_EXPONENTS ( 1.000000000000000000, 0.000000000000000000, 0.000000000000000000, 0.000000000000000000, 0.000000000000000000, 0.000000000000000000, 0.000000000000000000 ) ;
#350 = ADVANCED_FACE ( 'NONE', ( #228 ), #39, .T. ) ;
#351 = FILL_AREA_STYLE_COLOUR ( '', #356 ) ;
#352 = DIMENSIONAL_EXPONENTS ( 1.000000000000000000, 0.000000000000000000, 0.000000000000000000, 0.000000000000000000, 0.000000000000000000, 0.000000000000000000, 0.000000000000000000 ) ;
#353 = AXIS2_PLACEMENT_3D ( 'NONE', #69, #233, #115 ) ;
#354 = EDGE_CURVE ( 'NONE', #131, #198, #47, .T. ) ;
#355 = FILL_AREA_STYLE ('',( #157 ) ) ;
#356 = COLOUR_RGB ( '',0.7921568627450980005, 0.8196078431372548767, 0.9333333333333333481 ) ;
#357 = CONICAL_SURFACE ( 'NONE', #60, 0.03125000000000000000, 0.2617993877991501850 ) ;
#358 = FILL_AREA_STYLE ('',( #5 ) ) ;
#359 = ORIENTED_EDGE ( 'NONE', *, *, #55, .T. ) ;
ENDSEC;
END-ISO-10303-21;
