ISO-10303-21;
HEADER;
FILE_DESCRIPTION (( 'STEP AP214' ),
    '1' );
FILE_NAME ('59476.STEP',
    '2023-07-24T15:47:50',
    ( '' ),
    ( '' ),
    'SwSTEP 2.0',
    'SolidWorks 2023',
    '' );
FILE_SCHEMA (( 'AUTOMOTIVE_DESIGN' ));
ENDSEC;

DATA;
#1 = DIRECTION ( 'NONE',  ( 6.243297407417877041E-17, 1.000000000000000000, -0.000000000000000000 ) ) ;
#2 = ORIENTED_EDGE ( 'NONE', *, *, #102, .T. ) ;
#3 = CARTESIAN_POINT ( 'NONE',  ( 0.000000000000000000, 12.00000000000000000, 0.000000000000000000 ) ) ;
#4 = EDGE_LOOP ( 'NONE', ( #75, #2, #139, #47 ) ) ;
#5 = STYLED_ITEM ( 'NONE', ( #53 ), #30 ) ;
#6 = SURFACE_STYLE_USAGE ( .BOTH. , #231 ) ;
#7 = LINE ( 'NONE', #189, #137 ) ;
#8 = DIRECTION ( 'NONE',  ( 6.243297407417877041E-17, 1.000000000000000000, -0.000000000000000000 ) ) ;
#9 = COLOUR_RGB ( '',0.7921568627450980005, 0.8196078431372548767, 0.9333333333333333481 ) ;
#10 = PRODUCT_DEFINITION_FORMATION_WITH_SPECIFIED_SOURCE ( 'ANY', '', #158, .NOT_KNOWN. ) ;
#11 = DIRECTION ( 'NONE',  ( -1.000000000000000000, 0.000000000000000000, 0.000000000000000000 ) ) ;
#12 = SURFACE_STYLE_USAGE ( .BOTH. , #99 ) ;
#13 = UNCERTAINTY_MEASURE_WITH_UNIT (LENGTH_MEASURE( 1.000000000000000082E-05 ), #154, 'distance_accuracy_value', 'NONE');
#14 = CIRCLE ( 'NONE', #268, 3.000000000000000000 ) ;
#15 = FACE_OUTER_BOUND ( 'NONE', #66, .T. ) ;
#16 =( LENGTH_UNIT ( ) NAMED_UNIT ( * ) SI_UNIT ( .MILLI., .METRE. ) );
#17 = VECTOR ( 'NONE', #262, 1000.000000000000000 ) ;
#18 = SURFACE_STYLE_FILL_AREA ( #281 ) ;
#19 = EDGE_CURVE ( 'NONE', #111, #202, #86, .T. ) ;
#20 = DIRECTION ( 'NONE',  ( -1.000000000000000000, 0.000000000000000000, 0.000000000000000000 ) ) ;
#21 = ORIENTED_EDGE ( 'NONE', *, *, #179, .F. ) ;
#22 =( GEOMETRIC_REPRESENTATION_CONTEXT ( 3 ) GLOBAL_UNCERTAINTY_ASSIGNED_CONTEXT ( ( #130 ) ) GLOBAL_UNIT_ASSIGNED_CONTEXT ( ( #187, #54, #94 ) ) REPRESENTATION_CONTEXT ( 'NONE', 'WORKASPACE' ) );
#23 = AXIS2_PLACEMENT_3D ( 'NONE', #161, #138, #283 ) ;
#24 = DIRECTION ( 'NONE',  ( 0.000000000000000000, 0.000000000000000000, 1.000000000000000000 ) ) ;
#25 = PRESENTATION_STYLE_ASSIGNMENT (( #204 ) ) ;
#26 = PLANE ( 'NONE',  #104 ) ;
#27 = DIRECTION ( 'NONE',  ( -0.000000000000000000, -1.000000000000000000, -0.000000000000000000 ) ) ;
#28 =( LENGTH_UNIT ( ) NAMED_UNIT ( * ) SI_UNIT ( .MILLI., .METRE. ) );
#29 = MANIFOLD_SOLID_BREP ( 'Revolve - Tool Body (Straight Shanked)', #83 ) ;
#30 = MANIFOLD_SOLID_BREP ( 'Revolve - Cutting Edge', #131 ) ;
#31 = PRESENTATION_LAYER_ASSIGNMENT (  '', '', ( #271 ) ) ;
#32 = ORIENTED_EDGE ( 'NONE', *, *, #157, .T. ) ;
#33 = AXIS2_PLACEMENT_3D ( 'NONE', #222, #269, #167 ) ;
#34 = CYLINDRICAL_SURFACE ( 'NONE', #40, 2.999999999999998224 ) ;
#35 = CARTESIAN_POINT ( 'NONE',  ( 0.000000000000000000, 0.000000000000000000, 0.000000000000000000 ) ) ;
#36 = PLANE ( 'NONE',  #142 ) ;
#37 = DIRECTION ( 'NONE',  ( 0.000000000000000000, 1.000000000000000000, 0.000000000000000000 ) ) ;
#38 = CARTESIAN_POINT ( 'NONE',  ( 0.000000000000000000, 0.000000000000000000, 0.000000000000000000 ) ) ;
#39 = CYLINDRICAL_SURFACE ( 'NONE', #278, 2.999999999999998224 ) ;
#40 = AXIS2_PLACEMENT_3D ( 'NONE', #101, #194, #84 ) ;
#41 = ADVANCED_FACE ( 'NONE', ( #56 ), #26, .T. ) ;
#42 = CARTESIAN_POINT ( 'NONE',  ( 3.673940397442059868E-16, 12.00000000000000000, 3.000000000000000000 ) ) ;
#43 = VERTEX_POINT ( 'NONE', #61 ) ;
#44 = CARTESIAN_POINT ( 'NONE',  ( 3.000000000000001332, 63.00000000000000000, 3.673940397442057896E-16 ) ) ;
#45 = UNCERTAINTY_MEASURE_WITH_UNIT (LENGTH_MEASURE( 1.000000000000000082E-05 ), #28, 'distance_accuracy_value', 'NONE');
#46 = SURFACE_SIDE_STYLE ('',( #159 ) ) ;
#47 = ORIENTED_EDGE ( 'NONE', *, *, #124, .F. ) ;
#48 = PRESENTATION_LAYER_ASSIGNMENT (  '', '', ( #63 ) ) ;
#49 = APPLICATION_PROTOCOL_DEFINITION ( 'draft international standard', 'automotive_design', 1998, #96 ) ;
#50 =( NAMED_UNIT ( * ) SI_UNIT ( $, .STERADIAN. ) SOLID_ANGLE_UNIT ( ) );
#51 = EDGE_LOOP ( 'NONE', ( #32, #119 ) ) ;
#52 = DIRECTION ( 'NONE',  ( 0.000000000000000000, 0.000000000000000000, -1.000000000000000000 ) ) ;
#53 = PRESENTATION_STYLE_ASSIGNMENT (( #74 ) ) ;
#54 =( NAMED_UNIT ( * ) PLANE_ANGLE_UNIT ( ) SI_UNIT ( $, .RADIAN. ) );
#55 = ADVANCED_FACE ( 'NONE', ( #171 ), #81, .T. ) ;
#56 = FACE_OUTER_BOUND ( 'NONE', #156, .T. ) ;
#57 = APPLICATION_CONTEXT ( 'automotive_design' ) ;
#58 = MECHANICAL_DESIGN_GEOMETRIC_PRESENTATION_REPRESENTATION (  '', ( #271 ), #22 ) ;
#59 = LINE ( 'NONE', #210, #203 ) ;
#60 =( LENGTH_UNIT ( ) NAMED_UNIT ( * ) SI_UNIT ( .MILLI., .METRE. ) );
#61 = CARTESIAN_POINT ( 'NONE',  ( 0.000000000000000000, 0.000000000000000000, -3.000000000000000000 ) ) ;
#62 = DIRECTION ( 'NONE',  ( 0.000000000000000000, 0.000000000000000000, -1.000000000000000000 ) ) ;
#63 = STYLED_ITEM ( 'NONE', ( #197 ), #199 ) ;
#64 = DIRECTION ( 'NONE',  ( 6.243297407417877041E-17, 1.000000000000000000, -0.000000000000000000 ) ) ;
#65 = FILL_AREA_STYLE_COLOUR ( '', #166 ) ;
#66 = EDGE_LOOP ( 'NONE', ( #242, #227, #244, #266 ) ) ;
#67 = AXIS2_PLACEMENT_3D ( 'NONE', #220, #112, #153 ) ;
#68 =( NAMED_UNIT ( * ) PLANE_ANGLE_UNIT ( ) SI_UNIT ( $, .RADIAN. ) );
#69 = ORIENTED_EDGE ( 'NONE', *, *, #19, .F. ) ;
#70 = PRESENTATION_LAYER_ASSIGNMENT (  '', '', ( #186 ) ) ;
#71 = DIRECTION ( 'NONE',  ( 0.000000000000000000, 0.000000000000000000, -1.000000000000000000 ) ) ;
#72 = ORIENTED_EDGE ( 'NONE', *, *, #114, .T. ) ;
#73 = CARTESIAN_POINT ( 'NONE',  ( 3.000000000000000000, 11.99999999999999645, 3.673940397442058882E-16 ) ) ;
#74 = SURFACE_STYLE_USAGE ( .BOTH. , #76 ) ;
#75 = ORIENTED_EDGE ( 'NONE', *, *, #259, .T. ) ;
#76 = SURFACE_SIDE_STYLE ('',( #182 ) ) ;
#77 = COLOUR_RGB ( '',0.7921568627450980005, 0.8196078431372548767, 0.9333333333333333481 ) ;
#78 =( LENGTH_UNIT ( ) NAMED_UNIT ( * ) SI_UNIT ( .MILLI., .METRE. ) );
#79 = DIRECTION ( 'NONE',  ( -0.000000000000000000, -1.000000000000000000, -0.000000000000000000 ) ) ;
#80 = ADVANCED_FACE ( 'NONE', ( #253 ), #34, .T. ) ;
#81 = CYLINDRICAL_SURFACE ( 'NONE', #109, 3.000000000000000000 ) ;
#82 = ADVANCED_BREP_SHAPE_REPRESENTATION ( '59476', ( #30, #29, #147 ), #181 ) ;
#83 = CLOSED_SHELL ( 'NONE', ( #245, #160, #80, #277 ) ) ;
#84 = DIRECTION ( 'NONE',  ( -1.000000000000000000, 0.000000000000000000, 0.000000000000000000 ) ) ;
#85 = CARTESIAN_POINT ( 'NONE',  ( 0.000000000000000000, 0.000000000000000000, 0.000000000000000000 ) ) ;
#86 = CIRCLE ( 'NONE', #275, 2.999999999999996891 ) ;
#87 = MECHANICAL_DESIGN_GEOMETRIC_PRESENTATION_REPRESENTATION (  '', ( #122 ), #105 ) ;
#88 = ORIENTED_EDGE ( 'NONE', *, *, #19, .T. ) ;
#89 = PRESENTATION_LAYER_ASSIGNMENT (  '', '', ( #122 ) ) ;
#90 = APPLICATION_PROTOCOL_DEFINITION ( 'draft international standard', 'automotive_design', 1998, #57 ) ;
#91 = FILL_AREA_STYLE ('',( #223 ) ) ;
#92 = CARTESIAN_POINT ( 'NONE',  ( 3.184081677783117402E-15, 63.00000000000000000, 0.000000000000000000 ) ) ;
#93 = COLOUR_RGB ( '',1.000000000000000000, 0.000000000000000000, 0.000000000000000000 ) ;
#94 =( NAMED_UNIT ( * ) SI_UNIT ( $, .STERADIAN. ) SOLID_ANGLE_UNIT ( ) );
#95 = PRESENTATION_STYLE_ASSIGNMENT (( #6 ) ) ;
#96 = APPLICATION_CONTEXT ( 'automotive_design' ) ;
#97 = MECHANICAL_DESIGN_GEOMETRIC_PRESENTATION_REPRESENTATION (  '', ( #5 ), #162 ) ;
#98 = AXIS2_PLACEMENT_3D ( 'NONE', #38, #250, #71 ) ;
#99 = SURFACE_SIDE_STYLE ('',( #256 ) ) ;
#100 = DIRECTION ( 'NONE',  ( 6.243297407417877041E-17, 1.000000000000000000, -0.000000000000000000 ) ) ;
#101 = CARTESIAN_POINT ( 'NONE',  ( 3.184081677783117402E-15, 63.00000000000000000, 0.000000000000000000 ) ) ;
#102 = EDGE_CURVE ( 'NONE', #209, #136, #173, .T. ) ;
#103 = DIRECTION ( 'NONE',  ( 0.000000000000000000, -0.000000000000000000, 1.000000000000000000 ) ) ;
#104 = AXIS2_PLACEMENT_3D ( 'NONE', #127, #37, #103 ) ;
#105 =( GEOMETRIC_REPRESENTATION_CONTEXT ( 3 ) GLOBAL_UNCERTAINTY_ASSIGNED_CONTEXT ( ( #214 ) ) GLOBAL_UNIT_ASSIGNED_CONTEXT ( ( #16, #68, #261 ) ) REPRESENTATION_CONTEXT ( 'NONE', 'WORKASPACE' ) );
#106 = SURFACE_STYLE_USAGE ( .BOTH. , #46 ) ;
#107 = FACE_OUTER_BOUND ( 'NONE', #51, .T. ) ;
#108 = ORIENTED_EDGE ( 'NONE', *, *, #196, .F. ) ;
#109 = AXIS2_PLACEMENT_3D ( 'NONE', #128, #123, #192 ) ;
#110 = UNCERTAINTY_MEASURE_WITH_UNIT (LENGTH_MEASURE( 1.000000000000000082E-05 ), #246, 'distance_accuracy_value', 'NONE');
#111 = VERTEX_POINT ( 'NONE', #150 ) ;
#112 = DIRECTION ( 'NONE',  ( -0.000000000000000000, -1.000000000000000000, -0.000000000000000000 ) ) ;
#113 = ORIENTED_EDGE ( 'NONE', *, *, #286, .T. ) ;
#114 = EDGE_CURVE ( 'NONE', #221, #263, #288, .T. ) ;
#115 =( NAMED_UNIT ( * ) SI_UNIT ( $, .STERADIAN. ) SOLID_ANGLE_UNIT ( ) );
#116 = DIRECTION ( 'NONE',  ( -1.000000000000000000, 0.000000000000000000, 0.000000000000000000 ) ) ;
#117 = CIRCLE ( 'NONE', #226, 3.000000000000000000 ) ;
#118 = DIRECTION ( 'NONE',  ( 1.000000000000000000, 0.000000000000000000, 0.000000000000000000 ) ) ;
#119 = ORIENTED_EDGE ( 'NONE', *, *, #249, .T. ) ;
#120 = SHAPE_DEFINITION_REPRESENTATION ( #129, #82 ) ;
#121 = SURFACE_STYLE_FILL_AREA ( #165 ) ;
#122 = STYLED_ITEM ( 'NONE', ( #265 ), #230 ) ;
#123 = DIRECTION ( 'NONE',  ( -0.000000000000000000, -1.000000000000000000, -0.000000000000000000 ) ) ;
#124 = EDGE_CURVE ( 'NONE', #141, #43, #59, .T. ) ;
#125 = FILL_AREA_STYLE ('',( #213 ) ) ;
#126 = CARTESIAN_POINT ( 'NONE',  ( 0.000000000000000000, 12.00000000000000000, -3.000000000000000000 ) ) ;
#127 = CARTESIAN_POINT ( 'NONE',  ( 0.000000000000000000, 12.00000000000000000, 0.000000000000000000 ) ) ;
#128 = CARTESIAN_POINT ( 'NONE',  ( 0.000000000000000000, 0.000000000000000000, 0.000000000000000000 ) ) ;
#129 = PRODUCT_DEFINITION_SHAPE ( 'NONE', 'NONE',  #254 ) ;
#130 = UNCERTAINTY_MEASURE_WITH_UNIT (LENGTH_MEASURE( 1.000000000000000082E-05 ), #187, 'distance_accuracy_value', 'NONE');
#131 = CLOSED_SHELL ( 'NONE', ( #55, #41, #199, #230 ) ) ;
#132 = FILL_AREA_STYLE ('',( #65 ) ) ;
#133 = CIRCLE ( 'NONE', #208, 3.000000000000000000 ) ;
#134 = CARTESIAN_POINT ( 'NONE',  ( -3.000000000000000000, 11.99999999999999645, 0.000000000000000000 ) ) ;
#135 = SURFACE_SIDE_STYLE ('',( #18 ) ) ;
#136 = VERTEX_POINT ( 'NONE', #170 ) ;
#137 = VECTOR ( 'NONE', #8, 1000.000000000000000 ) ;
#138 = DIRECTION ( 'NONE',  ( 0.000000000000000000, -1.000000000000000000, -0.000000000000000000 ) ) ;
#139 = ORIENTED_EDGE ( 'NONE', *, *, #157, .F. ) ;
#140 =( NAMED_UNIT ( * ) PLANE_ANGLE_UNIT ( ) SI_UNIT ( $, .RADIAN. ) );
#141 = VERTEX_POINT ( 'NONE', #126 ) ;
#142 = AXIS2_PLACEMENT_3D ( 'NONE', #260, #64, #215 ) ;
#143 =( GEOMETRIC_REPRESENTATION_CONTEXT ( 3 ) GLOBAL_UNCERTAINTY_ASSIGNED_CONTEXT ( ( #13 ) ) GLOBAL_UNIT_ASSIGNED_CONTEXT ( ( #154, #280, #50 ) ) REPRESENTATION_CONTEXT ( 'NONE', 'WORKASPACE' ) );
#144 = DIRECTION ( 'NONE',  ( 6.243297407417877041E-17, 1.000000000000000000, -0.000000000000000000 ) ) ;
#145 = SURFACE_STYLE_FILL_AREA ( #185 ) ;
#146 = PRESENTATION_LAYER_ASSIGNMENT (  '', '', ( #267 ) ) ;
#147 = AXIS2_PLACEMENT_3D ( 'NONE', #225, #24, #118 ) ;
#148 = CARTESIAN_POINT ( 'NONE',  ( 0.000000000000000000, 11.99999999999999645, 0.000000000000000000 ) ) ;
#149 = EDGE_CURVE ( 'NONE', #221, #111, #7, .T. ) ;
#150 = CARTESIAN_POINT ( 'NONE',  ( -2.999999999999993783, 63.00000000000000000, 0.000000000000000000 ) ) ;
#151 = VECTOR ( 'NONE', #233, 1000.000000000000000 ) ;
#152 = FACE_OUTER_BOUND ( 'NONE', #240, .T. ) ;
#153 = DIRECTION ( 'NONE',  ( 0.000000000000000000, 0.000000000000000000, -1.000000000000000000 ) ) ;
#154 =( LENGTH_UNIT ( ) NAMED_UNIT ( * ) SI_UNIT ( .MILLI., .METRE. ) );
#155 = AXIS2_PLACEMENT_3D ( 'NONE', #85, #180, #243 ) ;
#156 = EDGE_LOOP ( 'NONE', ( #164, #270 ) ) ;
#157 = EDGE_CURVE ( 'NONE', #43, #136, #117, .T. ) ;
#158 = PRODUCT ( '59476', '59476', '', ( #219 ) ) ;
#159 = SURFACE_STYLE_FILL_AREA ( #132 ) ;
#160 = ADVANCED_FACE ( 'NONE', ( #152 ), #36, .F. ) ;
#161 = CARTESIAN_POINT ( 'NONE',  ( 0.000000000000000000, 0.000000000000000000, 0.000000000000000000 ) ) ;
#162 =( GEOMETRIC_REPRESENTATION_CONTEXT ( 3 ) GLOBAL_UNCERTAINTY_ASSIGNED_CONTEXT ( ( #45 ) ) GLOBAL_UNIT_ASSIGNED_CONTEXT ( ( #28, #205, #251 ) ) REPRESENTATION_CONTEXT ( 'NONE', 'WORKASPACE' ) );
#163 = ORIENTED_EDGE ( 'NONE', *, *, #114, .F. ) ;
#164 = ORIENTED_EDGE ( 'NONE', *, *, #259, .F. ) ;
#165 = FILL_AREA_STYLE ('',( #252 ) ) ;
#166 = COLOUR_RGB ( '',1.000000000000000000, 0.000000000000000000, 0.000000000000000000 ) ;
#167 = DIRECTION ( 'NONE',  ( 1.000000000000000000, -6.243297407417877041E-17, 0.000000000000000000 ) ) ;
#168 = ORIENTED_EDGE ( 'NONE', *, *, #149, .F. ) ;
#169 =( NAMED_UNIT ( * ) PLANE_ANGLE_UNIT ( ) SI_UNIT ( $, .RADIAN. ) );
#170 = CARTESIAN_POINT ( 'NONE',  ( 3.673940397442059868E-16, 0.000000000000000000, 3.000000000000000000 ) ) ;
#171 = FACE_OUTER_BOUND ( 'NONE', #4, .T. ) ;
#172 =( GEOMETRIC_REPRESENTATION_CONTEXT ( 3 ) GLOBAL_UNCERTAINTY_ASSIGNED_CONTEXT ( ( #195 ) ) GLOBAL_UNIT_ASSIGNED_CONTEXT ( ( #78, #274, #211 ) ) REPRESENTATION_CONTEXT ( 'NONE', 'WORKASPACE' ) );
#173 = LINE ( 'NONE', #255, #151 ) ;
#174 = CYLINDRICAL_SURFACE ( 'NONE', #155, 3.000000000000000000 ) ;
#175 = CIRCLE ( 'NONE', #212, 2.999999999999996891 ) ;
#176 = CARTESIAN_POINT ( 'NONE',  ( 3.184081677783117402E-15, 63.00000000000000000, 0.000000000000000000 ) ) ;
#177 = FILL_AREA_STYLE_COLOUR ( '', #258 ) ;
#178 = ORIENTED_EDGE ( 'NONE', *, *, #286, .F. ) ;
#179 = EDGE_CURVE ( 'NONE', #263, #202, #217, .T. ) ;
#180 = DIRECTION ( 'NONE',  ( -0.000000000000000000, -1.000000000000000000, -0.000000000000000000 ) ) ;
#181 =( GEOMETRIC_REPRESENTATION_CONTEXT ( 3 ) GLOBAL_UNCERTAINTY_ASSIGNED_CONTEXT ( ( #110 ) ) GLOBAL_UNIT_ASSIGNED_CONTEXT ( ( #246, #140, #115 ) ) REPRESENTATION_CONTEXT ( 'NONE', 'WORKASPACE' ) );
#182 = SURFACE_STYLE_FILL_AREA ( #91 ) ;
#183 = ORIENTED_EDGE ( 'NONE', *, *, #179, .T. ) ;
#184 = FACE_OUTER_BOUND ( 'NONE', #287, .T. ) ;
#185 = FILL_AREA_STYLE ('',( #247 ) ) ;
#186 = STYLED_ITEM ( 'NONE', ( #235 ), #55 ) ;
#187 =( LENGTH_UNIT ( ) NAMED_UNIT ( * ) SI_UNIT ( .MILLI., .METRE. ) );
#188 = EDGE_LOOP ( 'NONE', ( #21, #113, #284, #108 ) ) ;
#189 = CARTESIAN_POINT ( 'NONE',  ( -2.999999999999995115, 63.00000000000000000, 0.000000000000000000 ) ) ;
#190 = CIRCLE ( 'NONE', #67, 3.000000000000000000 ) ;
#191 = DIRECTION ( 'NONE',  ( -0.000000000000000000, -1.000000000000000000, -0.000000000000000000 ) ) ;
#192 = DIRECTION ( 'NONE',  ( 0.000000000000000000, 0.000000000000000000, -1.000000000000000000 ) ) ;
#193 = DIRECTION ( 'NONE',  ( 6.243297407417877041E-17, 1.000000000000000000, -0.000000000000000000 ) ) ;
#194 = DIRECTION ( 'NONE',  ( 6.243297407417877041E-17, 1.000000000000000000, -0.000000000000000000 ) ) ;
#195 = UNCERTAINTY_MEASURE_WITH_UNIT (LENGTH_MEASURE( 1.000000000000000082E-05 ), #78, 'distance_accuracy_value', 'NONE');
#196 = EDGE_CURVE ( 'NONE', #202, #111, #175, .T. ) ;
#197 = PRESENTATION_STYLE_ASSIGNMENT (( #106 ) ) ;
#198 = COLOUR_RGB ( '',1.000000000000000000, 0.000000000000000000, 0.000000000000000000 ) ;
#199 = ADVANCED_FACE ( 'NONE', ( #15 ), #174, .T. ) ;
#200 = EDGE_LOOP ( 'NONE', ( #72, #183, #69, #168 ) ) ;
#201 = PLANE ( 'NONE',  #23 ) ;
#202 = VERTEX_POINT ( 'NONE', #239 ) ;
#203 = VECTOR ( 'NONE', #79, 1000.000000000000000 ) ;
#204 = SURFACE_STYLE_USAGE ( .BOTH. , #206 ) ;
#205 =( NAMED_UNIT ( * ) PLANE_ANGLE_UNIT ( ) SI_UNIT ( $, .RADIAN. ) );
#206 = SURFACE_SIDE_STYLE ('',( #121 ) ) ;
#207 = MECHANICAL_DESIGN_GEOMETRIC_PRESENTATION_REPRESENTATION (  '', ( #63 ), #143 ) ;
#208 = AXIS2_PLACEMENT_3D ( 'NONE', #3, #27, #52 ) ;
#209 = VERTEX_POINT ( 'NONE', #42 ) ;
#210 = CARTESIAN_POINT ( 'NONE',  ( 0.000000000000000000, 0.000000000000000000, -3.000000000000000000 ) ) ;
#211 =( NAMED_UNIT ( * ) SI_UNIT ( $, .STERADIAN. ) SOLID_ANGLE_UNIT ( ) );
#212 = AXIS2_PLACEMENT_3D ( 'NONE', #285, #216, #20 ) ;
#213 = FILL_AREA_STYLE_COLOUR ( '', #93 ) ;
#214 = UNCERTAINTY_MEASURE_WITH_UNIT (LENGTH_MEASURE( 1.000000000000000082E-05 ), #16, 'distance_accuracy_value', 'NONE');
#215 = DIRECTION ( 'NONE',  ( -1.000000000000000000, 6.243297407417877041E-17, 0.000000000000000000 ) ) ;
#216 = DIRECTION ( 'NONE',  ( 6.243297407417877041E-17, 1.000000000000000000, -0.000000000000000000 ) ) ;
#217 = LINE ( 'NONE', #44, #17 ) ;
#218 = UNCERTAINTY_MEASURE_WITH_UNIT (LENGTH_MEASURE( 1.000000000000000082E-05 ), #60, 'distance_accuracy_value', 'NONE');
#219 = PRODUCT_CONTEXT ( 'NONE', #96, 'mechanical' ) ;
#220 = CARTESIAN_POINT ( 'NONE',  ( 0.000000000000000000, 12.00000000000000000, 0.000000000000000000 ) ) ;
#221 = VERTEX_POINT ( 'NONE', #134 ) ;
#222 = CARTESIAN_POINT ( 'NONE',  ( 3.000000000000000000, 63.00000000000000000, 0.000000000000000000 ) ) ;
#223 = FILL_AREA_STYLE_COLOUR ( '', #9 ) ;
#224 = PRODUCT_RELATED_PRODUCT_CATEGORY ( 'part', '', ( #158 ) ) ;
#225 = CARTESIAN_POINT ( 'NONE',  ( 0.000000000000000000, 0.000000000000000000, 0.000000000000000000 ) ) ;
#226 = AXIS2_PLACEMENT_3D ( 'NONE', #35, #191, #62 ) ;
#227 = ORIENTED_EDGE ( 'NONE', *, *, #236, .T. ) ;
#228 = CARTESIAN_POINT ( 'NONE',  ( 0.000000000000000000, 11.99999999999999645, 0.000000000000000000 ) ) ;
#229 = PLANE ( 'NONE',  #33 ) ;
#230 = ADVANCED_FACE ( 'NONE', ( #107 ), #201, .T. ) ;
#231 = SURFACE_SIDE_STYLE ('',( #145 ) ) ;
#232 = MECHANICAL_DESIGN_GEOMETRIC_PRESENTATION_REPRESENTATION (  '', ( #267 ), #172 ) ;
#233 = DIRECTION ( 'NONE',  ( -0.000000000000000000, -1.000000000000000000, -0.000000000000000000 ) ) ;
#234 = CIRCLE ( 'NONE', #98, 3.000000000000000000 ) ;
#235 = PRESENTATION_STYLE_ASSIGNMENT (( #12 ) ) ;
#236 = EDGE_CURVE ( 'NONE', #209, #141, #190, .T. ) ;
#237 = FACE_OUTER_BOUND ( 'NONE', #200, .T. ) ;
#238 = PRESENTATION_LAYER_ASSIGNMENT (  '', '', ( #5 ) ) ;
#239 = CARTESIAN_POINT ( 'NONE',  ( 3.000000000000000000, 63.00000000000000000, 3.673940397442058882E-16 ) ) ;
#240 = EDGE_LOOP ( 'NONE', ( #163, #178 ) ) ;
#241 = PRODUCT_DEFINITION_CONTEXT ( 'detailed design', #57, 'design' ) ;
#242 = ORIENTED_EDGE ( 'NONE', *, *, #102, .F. ) ;
#243 = DIRECTION ( 'NONE',  ( 0.000000000000000000, 0.000000000000000000, -1.000000000000000000 ) ) ;
#244 = ORIENTED_EDGE ( 'NONE', *, *, #124, .T. ) ;
#245 = ADVANCED_FACE ( 'NONE', ( #237 ), #39, .T. ) ;
#246 =( LENGTH_UNIT ( ) NAMED_UNIT ( * ) SI_UNIT ( .MILLI., .METRE. ) );
#247 = FILL_AREA_STYLE_COLOUR ( '', #198 ) ;
#248 = MECHANICAL_DESIGN_GEOMETRIC_PRESENTATION_REPRESENTATION (  '', ( #186 ), #257 ) ;
#249 = EDGE_CURVE ( 'NONE', #136, #43, #234, .T. ) ;
#250 = DIRECTION ( 'NONE',  ( -0.000000000000000000, -1.000000000000000000, -0.000000000000000000 ) ) ;
#251 =( NAMED_UNIT ( * ) SI_UNIT ( $, .STERADIAN. ) SOLID_ANGLE_UNIT ( ) );
#252 = FILL_AREA_STYLE_COLOUR ( '', #77 ) ;
#253 = FACE_OUTER_BOUND ( 'NONE', #188, .T. ) ;
#254 = PRODUCT_DEFINITION ( 'UNKNOWN', '', #10, #241 ) ;
#255 = CARTESIAN_POINT ( 'NONE',  ( 3.673940397442059868E-16, 0.000000000000000000, 3.000000000000000000 ) ) ;
#256 = SURFACE_STYLE_FILL_AREA ( #125 ) ;
#257 =( GEOMETRIC_REPRESENTATION_CONTEXT ( 3 ) GLOBAL_UNCERTAINTY_ASSIGNED_CONTEXT ( ( #218 ) ) GLOBAL_UNIT_ASSIGNED_CONTEXT ( ( #60, #169, #276 ) ) REPRESENTATION_CONTEXT ( 'NONE', 'WORKASPACE' ) );
#258 = COLOUR_RGB ( '',1.000000000000000000, 0.000000000000000000, 0.000000000000000000 ) ;
#259 = EDGE_CURVE ( 'NONE', #141, #209, #133, .T. ) ;
#260 = CARTESIAN_POINT ( 'NONE',  ( 5.846814377620617787E-33, 12.00000000000000000, 0.000000000000000000 ) ) ;
#261 =( NAMED_UNIT ( * ) SI_UNIT ( $, .STERADIAN. ) SOLID_ANGLE_UNIT ( ) );
#262 = DIRECTION ( 'NONE',  ( 6.243297407417877041E-17, 1.000000000000000000, -0.000000000000000000 ) ) ;
#263 = VERTEX_POINT ( 'NONE', #73 ) ;
#264 = SURFACE_STYLE_USAGE ( .BOTH. , #135 ) ;
#265 = PRESENTATION_STYLE_ASSIGNMENT (( #264 ) ) ;
#266 = ORIENTED_EDGE ( 'NONE', *, *, #249, .F. ) ;
#267 = STYLED_ITEM ( 'NONE', ( #95 ), #41 ) ;
#268 = AXIS2_PLACEMENT_3D ( 'NONE', #228, #1, #272 ) ;
#269 = DIRECTION ( 'NONE',  ( -6.243297407417877041E-17, -1.000000000000000000, 0.000000000000000000 ) ) ;
#270 = ORIENTED_EDGE ( 'NONE', *, *, #236, .F. ) ;
#271 = STYLED_ITEM ( 'NONE', ( #25 ), #29 ) ;
#272 = DIRECTION ( 'NONE',  ( -1.000000000000000000, 0.000000000000000000, 0.000000000000000000 ) ) ;
#273 = ORIENTED_EDGE ( 'NONE', *, *, #196, .T. ) ;
#274 =( NAMED_UNIT ( * ) PLANE_ANGLE_UNIT ( ) SI_UNIT ( $, .RADIAN. ) );
#275 = AXIS2_PLACEMENT_3D ( 'NONE', #92, #144, #116 ) ;
#276 =( NAMED_UNIT ( * ) SI_UNIT ( $, .STERADIAN. ) SOLID_ANGLE_UNIT ( ) );
#277 = ADVANCED_FACE ( 'NONE', ( #184 ), #229, .F. ) ;
#278 = AXIS2_PLACEMENT_3D ( 'NONE', #176, #193, #279 ) ;
#279 = DIRECTION ( 'NONE',  ( -1.000000000000000000, 0.000000000000000000, 0.000000000000000000 ) ) ;
#280 =( NAMED_UNIT ( * ) PLANE_ANGLE_UNIT ( ) SI_UNIT ( $, .RADIAN. ) );
#281 = FILL_AREA_STYLE ('',( #177 ) ) ;
#282 = AXIS2_PLACEMENT_3D ( 'NONE', #148, #100, #11 ) ;
#283 = DIRECTION ( 'NONE',  ( 0.000000000000000000, 0.000000000000000000, -1.000000000000000000 ) ) ;
#284 = ORIENTED_EDGE ( 'NONE', *, *, #149, .T. ) ;
#285 = CARTESIAN_POINT ( 'NONE',  ( 3.184081677783117402E-15, 63.00000000000000000, 0.000000000000000000 ) ) ;
#286 = EDGE_CURVE ( 'NONE', #263, #221, #14, .T. ) ;
#287 = EDGE_LOOP ( 'NONE', ( #88, #273 ) ) ;
#288 = CIRCLE ( 'NONE', #282, 3.000000000000000000 ) ;
ENDSEC;
END-ISO-10303-21;
