ISO-10303-21;
HEADER;
FILE_DESCRIPTION (( 'STEP AP214' ),
    '1' );
FILE_NAME ('Micro_GEM-031-4.STEP',
    '2021-09-01T18:48:52',
    ( '' ),
    ( '' ),
    'SwSTEP 2.0',
    'SolidWorks 2020',
    '' );
FILE_SCHEMA (( 'AUTOMOTIVE_DESIGN' ));
ENDSEC;

DATA;
#1 = VERTEX_POINT ( 'NONE', #142 ) ;
#2 = ORIENTED_EDGE ( 'NONE', *, *, #234, .T. ) ;
#3 =( NAMED_UNIT ( * ) SI_UNIT ( $, .STERADIAN. ) SOLID_ANGLE_UNIT ( ) );
#4 = EDGE_LOOP ( 'NONE', ( #249, #215, #103, #182 ) ) ;
#5 = SURFACE_STYLE_USAGE ( .BOTH. , #139 ) ;
#6 = AXIS2_PLACEMENT_3D ( 'NONE', #204, #12, #100 ) ;
#7 = AXIS2_PLACEMENT_3D ( 'NONE', #268, #241, #267 ) ;
#8 = CIRCLE ( 'NONE', #256, 0.06250000000000002776 ) ;
#9 = CARTESIAN_POINT ( 'NONE',  ( 0.01558440000000001560, 1.908538557663202632E-18, 0.0000000000000000000 ) ) ;
#10 = UNCERTAINTY_MEASURE_WITH_UNIT (LENGTH_MEASURE( 1.000000000000000082E-05 ), #112, 'distance_accuracy_value', 'NONE');
#11 = CIRCLE ( 'NONE', #62, 0.01558440000000000519 ) ;
#12 = DIRECTION ( 'NONE',  ( -1.224646799147353700E-16, -0.0000000000000000000, -1.000000000000000000 ) ) ;
#13 = DIRECTION ( 'NONE',  ( -1.224646799147353700E-16, -0.0000000000000000000, -1.000000000000000000 ) ) ;
#14 = CLOSED_SHELL ( 'NONE', ( #32, #48, #96, #168, #40, #152, #230, #213, #93, #67 ) ) ;
#15 = FACE_OUTER_BOUND ( 'NONE', #90, .T. ) ;
#16 = CARTESIAN_POINT ( 'NONE',  ( 0.0000000000000000000, 0.0000000000000000000, 1.485000000000000764 ) ) ;
#17 = CARTESIAN_POINT ( 'NONE',  ( 0.0000000000000000000, 0.0000000000000000000, 0.0000000000000000000 ) ) ;
#18 = ORIENTED_EDGE ( 'NONE', *, *, #117, .T. ) ;
#19 = DIRECTION ( 'NONE',  ( -1.000000000000000000, 0.0000000000000000000, 1.224646799147353700E-16 ) ) ;
#20 = DIRECTION ( 'NONE',  ( -0.0000000000000000000, -0.0000000000000000000, -1.000000000000000000 ) ) ;
#21 = EDGE_CURVE ( 'NONE', #1, #272, #151, .T. ) ;
#22 = FACE_OUTER_BOUND ( 'NONE', #157, .T. ) ;
#23 = AXIS2_PLACEMENT_3D ( 'NONE', #80, #171, #264 ) ;
#24 = DIRECTION ( 'NONE',  ( -1.000000000000000000, 0.0000000000000000000, 0.0000000000000000000 ) ) ;
#25 = EDGE_LOOP ( 'NONE', ( #275, #237, #228, #50 ) ) ;
#26 = ORIENTED_EDGE ( 'NONE', *, *, #165, .T. ) ;
#27 = EDGE_LOOP ( 'NONE', ( #114, #244 ) ) ;
#28 = DIRECTION ( 'NONE',  ( 1.000000000000000000, 0.0000000000000000000, 0.0000000000000000000 ) ) ;
#29 = ADVANCED_BREP_SHAPE_REPRESENTATION ( 'Micro_GEM-031-4', ( #260, #202 ), #154 ) ;
#30 = MECHANICAL_DESIGN_GEOMETRIC_PRESENTATION_REPRESENTATION (  '', ( #115 ), #251 ) ;
#31 = APPLICATION_PROTOCOL_DEFINITION ( 'draft international standard', 'automotive_design', 1998, #197 ) ;
#32 = ADVANCED_FACE ( 'NONE', ( #22 ), #221, .T. ) ;
#33 = VECTOR ( 'NONE', #122, 39.37007874015748854 ) ;
#34 = CYLINDRICAL_SURFACE ( 'NONE', #89, 0.01558440000000000866 ) ;
#35 = CARTESIAN_POINT ( 'NONE',  ( 0.0000000000000000000, 0.0000000000000000000, 1.500000000000000222 ) ) ;
#36 = VECTOR ( 'NONE', #163, 39.37007874015748143 ) ;
#37 = DIRECTION ( 'NONE',  ( -1.000000000000000000, 0.0000000000000000000, 1.224646799147353700E-16 ) ) ;
#38 = ORIENTED_EDGE ( 'NONE', *, *, #149, .F. ) ;
#39 = EDGE_CURVE ( 'NONE', #42, #252, #179, .T. ) ;
#40 = ADVANCED_FACE ( 'NONE', ( #127 ), #84, .T. ) ;
#41 = AXIS2_PLACEMENT_3D ( 'NONE', #198, #153, #170 ) ;
#42 = VERTEX_POINT ( 'NONE', #73 ) ;
#43 = FILL_AREA_STYLE ('',( #162 ) ) ;
#44 = LENGTH_MEASURE_WITH_UNIT ( LENGTH_MEASURE( 0.02539999999999999897 ), #210 );
#45 = EDGE_LOOP ( 'NONE', ( #189, #18, #111, #291 ) ) ;
#46 = CARTESIAN_POINT ( 'NONE',  ( 0.0000000000000000000, 0.0000000000000000000, 0.0000000000000000000 ) ) ;
#47 = EDGE_CURVE ( 'NONE', #42, #286, #76, .T. ) ;
#48 = ADVANCED_FACE ( 'NONE', ( #58 ), #113, .T. ) ;
#49 = AXIS2_PLACEMENT_3D ( 'NONE', #167, #20, #24 ) ;
#50 = ORIENTED_EDGE ( 'NONE', *, *, #288, .F. ) ;
#51 = PRODUCT_DEFINITION_SHAPE ( 'NONE', 'NONE',  #133 ) ;
#52 = CARTESIAN_POINT ( 'NONE',  ( 0.06250000000000002776, 7.654042494670959086E-18, 1.485000000000000764 ) ) ;
#53 = AXIS2_PLACEMENT_3D ( 'NONE', #17, #55, #294 ) ;
#54 = CONICAL_SURFACE ( 'NONE', #236, 0.01558440000000000519, 0.1745329251994339470 ) ;
#55 = DIRECTION ( 'NONE',  ( 0.0000000000000000000, 0.0000000000000000000, 1.000000000000000000 ) ) ;
#56 = DIRECTION ( 'NONE',  ( 0.7071067811865462405, 8.659560562354916834E-17, -0.7071067811865486830 ) ) ;
#57 = DIRECTION ( 'NONE',  ( 1.000000000000000000, 0.0000000000000000000, 0.0000000000000000000 ) ) ;
#58 = FACE_OUTER_BOUND ( 'NONE', #131, .T. ) ;
#59 = PRODUCT_RELATED_PRODUCT_CATEGORY ( 'part', '', ( #266 ) ) ;
#60 = CARTESIAN_POINT ( 'NONE',  ( -0.06249999999999997918, 0.0000000000000000000, 0.3440715893364552080 ) ) ;
#61 = CYLINDRICAL_SURFACE ( 'NONE', #49, 0.06250000000000002776 ) ;
#62 = AXIS2_PLACEMENT_3D ( 'NONE', #194, #13, #98 ) ;
#63 = ORIENTED_EDGE ( 'NONE', *, *, #173, .F. ) ;
#64 = CARTESIAN_POINT ( 'NONE',  ( 0.0000000000000000000, 0.0000000000000000000, 1.500000000000000222 ) ) ;
#65 = SURFACE_STYLE_USAGE ( .BOTH. , #263 ) ;
#66 = PRESENTATION_STYLE_ASSIGNMENT (( #5 ) ) ;
#67 = ADVANCED_FACE ( 'NONE', ( #15 ), #124, .F. ) ;
#68 =( GEOMETRIC_REPRESENTATION_CONTEXT ( 3 ) GLOBAL_UNCERTAINTY_ASSIGNED_CONTEXT ( ( #143 ) ) GLOBAL_UNIT_ASSIGNED_CONTEXT ( ( #188, #209, #190 ) ) REPRESENTATION_CONTEXT ( 'NONE', 'WORKASPACE' ) );
#69 = ORIENTED_EDGE ( 'NONE', *, *, #101, .T. ) ;
#70 = CIRCLE ( 'NONE', #169, 0.01558440000000001387 ) ;
#71 = CONICAL_SURFACE ( 'NONE', #7, 0.04750000000000064587, 0.7853981633974466137 ) ;
#72 = EDGE_CURVE ( 'NONE', #231, #201, #148, .T. ) ;
#73 = CARTESIAN_POINT ( 'NONE',  ( 0.04750000000000064587, 6.735557395310483192E-18, 1.500000000000000222 ) ) ;
#74 = FACE_OUTER_BOUND ( 'NONE', #45, .T. ) ;
#75 = DIRECTION ( 'NONE',  ( 0.0000000000000000000, 0.0000000000000000000, -1.000000000000000000 ) ) ;
#76 = LINE ( 'NONE', #258, #253 ) ;
#77 = FILL_AREA_STYLE_COLOUR ( '', #128 ) ;
#78 = DIMENSIONAL_EXPONENTS ( 1.000000000000000000, 0.0000000000000000000, 0.0000000000000000000, 0.0000000000000000000, 0.0000000000000000000, 0.0000000000000000000, 0.0000000000000000000 ) ;
#79 = PRESENTATION_LAYER_ASSIGNMENT (  '', '', ( #115 ) ) ;
#80 = CARTESIAN_POINT ( 'NONE',  ( 9.552245033349369302E-18, 0.0000000000000000000, 0.07800000000000009703 ) ) ;
#81 = EDGE_LOOP ( 'NONE', ( #226, #219, #248, #207 ) ) ;
#82 = PRESENTATION_STYLE_ASSIGNMENT (( #65 ) ) ;
#83 = DIRECTION ( 'NONE',  ( -1.224646799147353700E-16, -0.0000000000000000000, -1.000000000000000000 ) ) ;
#84 = CYLINDRICAL_SURFACE ( 'NONE', #298, 0.06250000000000002776 ) ;
#85 = CARTESIAN_POINT ( 'NONE',  ( 0.0000000000000000000, 0.0000000000000000000, 1.485000000000000764 ) ) ;
#86 = DIRECTION ( 'NONE',  ( 1.000000000000000000, 0.0000000000000000000, 0.0000000000000000000 ) ) ;
#87 = EDGE_LOOP ( 'NONE', ( #130, #2, #270, #38 ) ) ;
#88 =( CONVERSION_BASED_UNIT ( 'INCH', #297 ) LENGTH_UNIT ( ) NAMED_UNIT ( #78 ) );
#89 = AXIS2_PLACEMENT_3D ( 'NONE', #195, #83, #290 ) ;
#90 = EDGE_LOOP ( 'NONE', ( #26, #134 ) ) ;
#91 = SURFACE_STYLE_FILL_AREA ( #43 ) ;
#92 = DIRECTION ( 'NONE',  ( 0.0000000000000000000, 0.0000000000000000000, 1.000000000000000000 ) ) ;
#93 = ADVANCED_FACE ( 'NONE', ( #243 ), #34, .T. ) ;
#94 = AXIS2_PLACEMENT_3D ( 'NONE', #64, #155, #232 ) ;
#95 = LINE ( 'NONE', #177, #132 ) ;
#96 = ADVANCED_FACE ( 'NONE', ( #175 ), #223, .T. ) ;
#97 = AXIS2_PLACEMENT_3D ( 'NONE', #85, #277, #233 ) ;
#98 = DIRECTION ( 'NONE',  ( -1.000000000000000000, 0.0000000000000000000, 0.0000000000000000000 ) ) ;
#99 = CARTESIAN_POINT ( 'NONE',  ( -0.01558440000000000866, 0.0000000000000000000, 1.908538557663203017E-18 ) ) ;
#100 = DIRECTION ( 'NONE',  ( -1.000000000000000000, 0.0000000000000000000, 1.224646799147353700E-16 ) ) ;
#101 = EDGE_CURVE ( 'NONE', #1, #231, #211, .T. ) ;
#102 = DIRECTION ( 'NONE',  ( -0.1736481776669312194, 2.126576849575783625E-17, 0.9848077530122077983 ) ) ;
#103 = ORIENTED_EDGE ( 'NONE', *, *, #21, .T. ) ;
#104 = DIMENSIONAL_EXPONENTS ( 1.000000000000000000, 0.0000000000000000000, 0.0000000000000000000, 0.0000000000000000000, 0.0000000000000000000, 0.0000000000000000000, 0.0000000000000000000 ) ;
#105 = AXIS2_PLACEMENT_3D ( 'NONE', #235, #281, #166 ) ;
#106 = LINE ( 'NONE', #271, #146 ) ;
#107 = CARTESIAN_POINT ( 'NONE',  ( 9.552245033349369302E-18, 0.0000000000000000000, 0.07800000000000009703 ) ) ;
#108 = DIRECTION ( 'NONE',  ( 1.224646799147353700E-16, 0.0000000000000000000, 1.000000000000000000 ) ) ;
#109 = APPLICATION_CONTEXT ( 'automotive_design' ) ;
#110 = EDGE_CURVE ( 'NONE', #144, #286, #262, .T. ) ;
#111 = ORIENTED_EDGE ( 'NONE', *, *, #208, .F. ) ;
#112 =( CONVERSION_BASED_UNIT ( 'INCH', #44 ) LENGTH_UNIT ( ) NAMED_UNIT ( #283 ) );
#113 = CONICAL_SURFACE ( 'NONE', #191, 0.01558440000000000519, 0.1745329251994339470 ) ;
#114 = ORIENTED_EDGE ( 'NONE', *, *, #125, .T. ) ;
#115 = STYLED_ITEM ( 'NONE', ( #82 ), #260 ) ;
#116 = ORIENTED_EDGE ( 'NONE', *, *, #214, .T. ) ;
#117 = EDGE_CURVE ( 'NONE', #286, #272, #185, .T. ) ;
#118 = MECHANICAL_DESIGN_GEOMETRIC_PRESENTATION_REPRESENTATION (  '', ( #192 ), #68 ) ;
#119 = UNCERTAINTY_MEASURE_WITH_UNIT (LENGTH_MEASURE( 1.000000000000000082E-05 ), #88, 'distance_accuracy_value', 'NONE');
#120 = CARTESIAN_POINT ( 'NONE',  ( -0.06250000000000002776, 0.0000000000000000000, 1.485000000000000764 ) ) ;
#121 = CIRCLE ( 'NONE', #279, 0.06250000000000002776 ) ;
#122 = DIRECTION ( 'NONE',  ( -0.7071067811865462405, 0.0000000000000000000, -0.7071067811865486830 ) ) ;
#123 = DIRECTION ( 'NONE',  ( -1.224646799147353700E-16, -0.0000000000000000000, -1.000000000000000000 ) ) ;
#124 = PLANE ( 'NONE',  #53 ) ;
#125 = EDGE_CURVE ( 'NONE', #252, #42, #254, .T. ) ;
#126 = FACE_OUTER_BOUND ( 'NONE', #4, .T. ) ;
#127 = FACE_OUTER_BOUND ( 'NONE', #87, .T. ) ;
#128 = COLOUR_RGB ( '',0.7921568627450980005, 0.8196078431372548767, 0.9333333333333333481 ) ;
#129 = FILL_AREA_STYLE ('',( #77 ) ) ;
#130 = ORIENTED_EDGE ( 'NONE', *, *, #117, .F. ) ;
#131 = EDGE_LOOP ( 'NONE', ( #63, #180, #274, #265 ) ) ;
#132 = VECTOR ( 'NONE', #145, 39.37007874015748143 ) ;
#133 = PRODUCT_DEFINITION ( 'UNKNOWN', '', #160, #218 ) ;
#134 = ORIENTED_EDGE ( 'NONE', *, *, #255, .T. ) ;
#135 = DIRECTION ( 'NONE',  ( 1.000000000000000000, 0.0000000000000000000, 0.0000000000000000000 ) ) ;
#136 = DIRECTION ( 'NONE',  ( -1.224646799147353700E-16, -0.0000000000000000000, -1.000000000000000000 ) ) ;
#137 = SHAPE_DEFINITION_REPRESENTATION ( #51, #29 ) ;
#138 = VERTEX_POINT ( 'NONE', #9 ) ;
#139 = SURFACE_SIDE_STYLE ('',( #91 ) ) ;
#140 = EDGE_CURVE ( 'NONE', #144, #280, #95, .T. ) ;
#141 = ORIENTED_EDGE ( 'NONE', *, *, #255, .F. ) ;
#142 = CARTESIAN_POINT ( 'NONE',  ( 0.01558440000000001387, 0.0000000000000000000, 0.07800000000000009703 ) ) ;
#143 = UNCERTAINTY_MEASURE_WITH_UNIT (LENGTH_MEASURE( 1.000000000000000082E-05 ), #188, 'distance_accuracy_value', 'NONE');
#144 = VERTEX_POINT ( 'NONE', #120 ) ;
#145 = DIRECTION ( 'NONE',  ( -0.0000000000000000000, -0.0000000000000000000, -1.000000000000000000 ) ) ;
#146 = VECTOR ( 'NONE', #102, 39.37007874015748143 ) ;
#147 = CARTESIAN_POINT ( 'NONE',  ( -0.04750000000000064587, 0.0000000000000000000, 1.500000000000000222 ) ) ;
#148 = LINE ( 'NONE', #99, #239 ) ;
#149 = EDGE_CURVE ( 'NONE', #272, #280, #8, .T. ) ;
#150 =( LENGTH_UNIT ( ) NAMED_UNIT ( * ) SI_UNIT ( $, .METRE. ) );
#151 = LINE ( 'NONE', #196, #183 ) ;
#152 = ADVANCED_FACE ( 'NONE', ( #220 ), #292, .T. ) ;
#153 = DIRECTION ( 'NONE',  ( -1.224646799147353700E-16, -0.0000000000000000000, -1.000000000000000000 ) ) ;
#154 =( GEOMETRIC_REPRESENTATION_CONTEXT ( 3 ) GLOBAL_UNCERTAINTY_ASSIGNED_CONTEXT ( ( #10 ) ) GLOBAL_UNIT_ASSIGNED_CONTEXT ( ( #112, #229, #3 ) ) REPRESENTATION_CONTEXT ( 'NONE', 'WORKASPACE' ) );
#155 = DIRECTION ( 'NONE',  ( 0.0000000000000000000, 0.0000000000000000000, 1.000000000000000000 ) ) ;
#156 = CARTESIAN_POINT ( 'NONE',  ( -0.01558439999999999652, 4.781290526167081051E-18, 0.07800000000000009703 ) ) ;
#157 = EDGE_LOOP ( 'NONE', ( #187, #116, #227, #238 ) ) ;
#158 = EDGE_LOOP ( 'NONE', ( #186, #69, #161, #141 ) ) ;
#159 =( LENGTH_UNIT ( ) NAMED_UNIT ( * ) SI_UNIT ( $, .METRE. ) );
#160 = PRODUCT_DEFINITION_FORMATION_WITH_SPECIFIED_SOURCE ( 'ANY', '', #266, .NOT_KNOWN. ) ;
#161 = ORIENTED_EDGE ( 'NONE', *, *, #72, .T. ) ;
#162 = FILL_AREA_STYLE_COLOUR ( '', #269 ) ;
#163 = DIRECTION ( 'NONE',  ( -0.0000000000000000000, -0.0000000000000000000, -1.000000000000000000 ) ) ;
#164 = CARTESIAN_POINT ( 'NONE',  ( 2.337285635691549169E-34, 0.0000000000000000000, 1.908538557663203788E-18 ) ) ;
#165 = EDGE_CURVE ( 'NONE', #201, #138, #70, .T. ) ;
#166 = DIRECTION ( 'NONE',  ( 1.000000000000000000, 0.0000000000000000000, 0.0000000000000000000 ) ) ;
#167 = CARTESIAN_POINT ( 'NONE',  ( 0.0000000000000000000, 0.0000000000000000000, 1.500000000000000222 ) ) ;
#168 = ADVANCED_FACE ( 'NONE', ( #74 ), #61, .T. ) ;
#169 = AXIS2_PLACEMENT_3D ( 'NONE', #164, #136, #19 ) ;
#170 = DIRECTION ( 'NONE',  ( 1.000000000000000000, 0.0000000000000000000, 0.0000000000000000000 ) ) ;
#171 = DIRECTION ( 'NONE',  ( -1.224646799147353700E-16, -0.0000000000000000000, -1.000000000000000000 ) ) ;
#172 = DIRECTION ( 'NONE',  ( -0.0000000000000000000, -0.0000000000000000000, -1.000000000000000000 ) ) ;
#173 = EDGE_CURVE ( 'NONE', #231, #1, #11, .T. ) ;
#174 = DIRECTION ( 'NONE',  ( 1.000000000000000000, 0.0000000000000000000, 0.0000000000000000000 ) ) ;
#175 = FACE_OUTER_BOUND ( 'NONE', #25, .T. ) ;
#176 = CARTESIAN_POINT ( 'NONE',  ( -0.04750000000000064587, 0.0000000000000000000, 1.500000000000000222 ) ) ;
#177 = CARTESIAN_POINT ( 'NONE',  ( -0.06250000000000002776, 0.0000000000000000000, 1.500000000000000222 ) ) ;
#178 = DIRECTION ( 'NONE',  ( 1.224646799147353700E-16, 0.0000000000000000000, 1.000000000000000000 ) ) ;
#179 = CIRCLE ( 'NONE', #222, 0.04750000000000064587 ) ;
#180 = ORIENTED_EDGE ( 'NONE', *, *, #199, .T. ) ;
#181 =( NAMED_UNIT ( * ) SI_UNIT ( $, .STERADIAN. ) SOLID_ANGLE_UNIT ( ) );
#182 = ORIENTED_EDGE ( 'NONE', *, *, #149, .T. ) ;
#183 = VECTOR ( 'NONE', #257, 39.37007874015748143 ) ;
#184 = APPLICATION_PROTOCOL_DEFINITION ( 'draft international standard', 'automotive_design', 1998, #109 ) ;
#185 = LINE ( 'NONE', #273, #36 ) ;
#186 = ORIENTED_EDGE ( 'NONE', *, *, #214, .F. ) ;
#187 = ORIENTED_EDGE ( 'NONE', *, *, #173, .T. ) ;
#188 =( CONVERSION_BASED_UNIT ( 'INCH', #250 ) LENGTH_UNIT ( ) NAMED_UNIT ( #104 ) );
#189 = ORIENTED_EDGE ( 'NONE', *, *, #110, .T. ) ;
#190 =( NAMED_UNIT ( * ) SI_UNIT ( $, .STERADIAN. ) SOLID_ANGLE_UNIT ( ) );
#191 = AXIS2_PLACEMENT_3D ( 'NONE', #107, #178, #135 ) ;
#192 = STYLED_ITEM ( 'NONE', ( #66 ), #29 ) ;
#193 = DIRECTION ( 'NONE',  ( -1.000000000000000000, 0.0000000000000000000, 0.0000000000000000000 ) ) ;
#194 = CARTESIAN_POINT ( 'NONE',  ( 9.552245033349369302E-18, 0.0000000000000000000, 0.07800000000000009703 ) ) ;
#195 = CARTESIAN_POINT ( 'NONE',  ( 0.0000000000000000000, 0.0000000000000000000, 0.0000000000000000000 ) ) ;
#196 = CARTESIAN_POINT ( 'NONE',  ( 0.01558440000000001387, 0.0000000000000000000, 0.07800000000000009703 ) ) ;
#197 = APPLICATION_CONTEXT ( 'automotive_design' ) ;
#198 = CARTESIAN_POINT ( 'NONE',  ( 4.213661705584326685E-17, 0.0000000000000000000, 0.3440715893364552080 ) ) ;
#199 = EDGE_CURVE ( 'NONE', #231, #280, #106, .T. ) ;
#200 = DIRECTION ( 'NONE',  ( -1.224646799147353700E-16, -0.0000000000000000000, -1.000000000000000000 ) ) ;
#201 = VERTEX_POINT ( 'NONE', #245 ) ;
#202 = AXIS2_PLACEMENT_3D ( 'NONE', #46, #92, #28 ) ;
#203 = DIRECTION ( 'NONE',  ( -1.224646799147353700E-16, -0.0000000000000000000, -1.000000000000000000 ) ) ;
#204 = CARTESIAN_POINT ( 'NONE',  ( 0.0000000000000000000, 0.0000000000000000000, 0.0000000000000000000 ) ) ;
#205 = LINE ( 'NONE', #147, #33 ) ;
#206 = LINE ( 'NONE', #293, #212 ) ;
#207 = ORIENTED_EDGE ( 'NONE', *, *, #234, .F. ) ;
#208 = EDGE_CURVE ( 'NONE', #280, #272, #240, .T. ) ;
#209 =( NAMED_UNIT ( * ) PLANE_ANGLE_UNIT ( ) SI_UNIT ( $, .RADIAN. ) );
#210 =( LENGTH_UNIT ( ) NAMED_UNIT ( * ) SI_UNIT ( $, .METRE. ) );
#211 = CIRCLE ( 'NONE', #23, 0.01558440000000000519 ) ;
#212 = VECTOR ( 'NONE', #287, 39.37007874015748143 ) ;
#213 = ADVANCED_FACE ( 'NONE', ( #126 ), #54, .T. ) ;
#214 = EDGE_CURVE ( 'NONE', #1, #138, #206, .T. ) ;
#215 = ORIENTED_EDGE ( 'NONE', *, *, #101, .F. ) ;
#216 = CIRCLE ( 'NONE', #246, 0.01558440000000001387 ) ;
#217 = CARTESIAN_POINT ( 'NONE',  ( 0.0000000000000000000, 0.0000000000000000000, 1.500000000000000222 ) ) ;
#218 = PRODUCT_DEFINITION_CONTEXT ( 'detailed design', #109, 'design' ) ;
#219 = ORIENTED_EDGE ( 'NONE', *, *, #125, .F. ) ;
#220 = FACE_OUTER_BOUND ( 'NONE', #27, .T. ) ;
#221 = CYLINDRICAL_SURFACE ( 'NONE', #6, 0.01558440000000000866 ) ;
#222 = AXIS2_PLACEMENT_3D ( 'NONE', #35, #282, #295 ) ;
#223 = CONICAL_SURFACE ( 'NONE', #278, 0.04750000000000064587, 0.7853981633974466137 ) ;
#224 = CARTESIAN_POINT ( 'NONE',  ( 9.552245033349369302E-18, 0.0000000000000000000, 0.07800000000000009703 ) ) ;
#225 = SURFACE_STYLE_FILL_AREA ( #129 ) ;
#226 = ORIENTED_EDGE ( 'NONE', *, *, #47, .F. ) ;
#227 = ORIENTED_EDGE ( 'NONE', *, *, #165, .F. ) ;
#228 = ORIENTED_EDGE ( 'NONE', *, *, #110, .F. ) ;
#229 =( NAMED_UNIT ( * ) PLANE_ANGLE_UNIT ( ) SI_UNIT ( $, .RADIAN. ) );
#230 = ADVANCED_FACE ( 'NONE', ( #296 ), #71, .T. ) ;
#231 = VERTEX_POINT ( 'NONE', #156 ) ;
#232 = DIRECTION ( 'NONE',  ( 1.000000000000000000, 0.0000000000000000000, -0.0000000000000000000 ) ) ;
#233 = DIRECTION ( 'NONE',  ( 1.000000000000000000, 0.0000000000000000000, 0.0000000000000000000 ) ) ;
#234 = EDGE_CURVE ( 'NONE', #286, #144, #121, .T. ) ;
#235 = CARTESIAN_POINT ( 'NONE',  ( 0.0000000000000000000, 0.0000000000000000000, 1.500000000000000222 ) ) ;
#236 = AXIS2_PLACEMENT_3D ( 'NONE', #224, #108, #174 ) ;
#237 = ORIENTED_EDGE ( 'NONE', *, *, #47, .T. ) ;
#238 = ORIENTED_EDGE ( 'NONE', *, *, #72, .F. ) ;
#239 = VECTOR ( 'NONE', #200, 39.37007874015748143 ) ;
#240 = CIRCLE ( 'NONE', #41, 0.06250000000000002776 ) ;
#241 = DIRECTION ( 'NONE',  ( 0.0000000000000000000, 0.0000000000000000000, -1.000000000000000000 ) ) ;
#242 =( NAMED_UNIT ( * ) PLANE_ANGLE_UNIT ( ) SI_UNIT ( $, .RADIAN. ) );
#243 = FACE_OUTER_BOUND ( 'NONE', #158, .T. ) ;
#244 = ORIENTED_EDGE ( 'NONE', *, *, #39, .T. ) ;
#245 = CARTESIAN_POINT ( 'NONE',  ( -0.01558440000000001387, 0.0000000000000000000, 3.817077115326407575E-18 ) ) ;
#246 = AXIS2_PLACEMENT_3D ( 'NONE', #259, #203, #37 ) ;
#247 = DIRECTION ( 'NONE',  ( 0.0000000000000000000, 0.0000000000000000000, -1.000000000000000000 ) ) ;
#248 = ORIENTED_EDGE ( 'NONE', *, *, #288, .T. ) ;
#249 = ORIENTED_EDGE ( 'NONE', *, *, #199, .F. ) ;
#250 = LENGTH_MEASURE_WITH_UNIT ( LENGTH_MEASURE( 0.02539999999999999897 ), #159 );
#251 =( GEOMETRIC_REPRESENTATION_CONTEXT ( 3 ) GLOBAL_UNCERTAINTY_ASSIGNED_CONTEXT ( ( #119 ) ) GLOBAL_UNIT_ASSIGNED_CONTEXT ( ( #88, #242, #181 ) ) REPRESENTATION_CONTEXT ( 'NONE', 'WORKASPACE' ) );
#252 = VERTEX_POINT ( 'NONE', #176 ) ;
#253 = VECTOR ( 'NONE', #56, 39.37007874015748854 ) ;
#254 = CIRCLE ( 'NONE', #105, 0.04750000000000064587 ) ;
#255 = EDGE_CURVE ( 'NONE', #138, #201, #216, .T. ) ;
#256 = AXIS2_PLACEMENT_3D ( 'NONE', #289, #123, #57 ) ;
#257 = DIRECTION ( 'NONE',  ( 0.1736481776669314414, 0.0000000000000000000, 0.9848077530122077983 ) ) ;
#258 = CARTESIAN_POINT ( 'NONE',  ( 0.04750000000000064587, 5.817072295950006528E-18, 1.500000000000000222 ) ) ;
#259 = CARTESIAN_POINT ( 'NONE',  ( 2.337285635691549169E-34, 0.0000000000000000000, 1.908538557663203788E-18 ) ) ;
#260 = MANIFOLD_SOLID_BREP ( 'Cut-Revolve1', #14 ) ;
#261 = DIRECTION ( 'NONE',  ( -1.000000000000000000, 0.0000000000000000000, 0.0000000000000000000 ) ) ;
#262 = CIRCLE ( 'NONE', #97, 0.06250000000000002776 ) ;
#263 = SURFACE_SIDE_STYLE ('',( #225 ) ) ;
#264 = DIRECTION ( 'NONE',  ( -1.000000000000000000, 0.0000000000000000000, 0.0000000000000000000 ) ) ;
#265 = ORIENTED_EDGE ( 'NONE', *, *, #21, .F. ) ;
#266 = PRODUCT ( 'Micro_GEM-031-4', 'Micro_GEM-031-4', '', ( #276 ) ) ;
#267 = DIRECTION ( 'NONE',  ( -1.000000000000000000, 0.0000000000000000000, 0.0000000000000000000 ) ) ;
#268 = CARTESIAN_POINT ( 'NONE',  ( 0.0000000000000000000, 0.0000000000000000000, 1.500000000000000222 ) ) ;
#269 = COLOUR_RGB ( '',0.7921568627450980005, 0.8196078431372548767, 0.9333333333333333481 ) ;
#270 = ORIENTED_EDGE ( 'NONE', *, *, #140, .T. ) ;
#271 = CARTESIAN_POINT ( 'NONE',  ( -0.01558439999999999652, 1.908538557663201862E-18, 0.07800000000000009703 ) ) ;
#272 = VERTEX_POINT ( 'NONE', #284 ) ;
#273 = CARTESIAN_POINT ( 'NONE',  ( 0.06250000000000002776, 7.654042494670959086E-18, 1.500000000000000222 ) ) ;
#274 = ORIENTED_EDGE ( 'NONE', *, *, #208, .T. ) ;
#275 = ORIENTED_EDGE ( 'NONE', *, *, #39, .F. ) ;
#276 = PRODUCT_CONTEXT ( 'NONE', #197, 'mechanical' ) ;
#277 = DIRECTION ( 'NONE',  ( 0.0000000000000000000, 0.0000000000000000000, -1.000000000000000000 ) ) ;
#278 = AXIS2_PLACEMENT_3D ( 'NONE', #285, #75, #261 ) ;
#279 = AXIS2_PLACEMENT_3D ( 'NONE', #16, #247, #86 ) ;
#280 = VERTEX_POINT ( 'NONE', #60 ) ;
#281 = DIRECTION ( 'NONE',  ( 0.0000000000000000000, 0.0000000000000000000, 1.000000000000000000 ) ) ;
#282 = DIRECTION ( 'NONE',  ( 0.0000000000000000000, 0.0000000000000000000, 1.000000000000000000 ) ) ;
#283 = DIMENSIONAL_EXPONENTS ( 1.000000000000000000, 0.0000000000000000000, 0.0000000000000000000, 0.0000000000000000000, 0.0000000000000000000, 0.0000000000000000000, 0.0000000000000000000 ) ;
#284 = CARTESIAN_POINT ( 'NONE',  ( 0.06250000000000006939, 7.654042494670963708E-18, 0.3440715893364552080 ) ) ;
#285 = CARTESIAN_POINT ( 'NONE',  ( 0.0000000000000000000, 0.0000000000000000000, 1.500000000000000222 ) ) ;
#286 = VERTEX_POINT ( 'NONE', #52 ) ;
#287 = DIRECTION ( 'NONE',  ( -1.224646799147353700E-16, -0.0000000000000000000, -1.000000000000000000 ) ) ;
#288 = EDGE_CURVE ( 'NONE', #252, #144, #205, .T. ) ;
#289 = CARTESIAN_POINT ( 'NONE',  ( 4.213661705584326685E-17, 0.0000000000000000000, 0.3440715893364552080 ) ) ;
#290 = DIRECTION ( 'NONE',  ( -1.000000000000000000, 0.0000000000000000000, 1.224646799147353700E-16 ) ) ;
#291 = ORIENTED_EDGE ( 'NONE', *, *, #140, .F. ) ;
#292 = PLANE ( 'NONE',  #94 ) ;
#293 = CARTESIAN_POINT ( 'NONE',  ( 0.01558440000000000866, 1.908538557663202247E-18, -1.908538557663203017E-18 ) ) ;
#294 = DIRECTION ( 'NONE',  ( 1.000000000000000000, 0.0000000000000000000, -0.0000000000000000000 ) ) ;
#295 = DIRECTION ( 'NONE',  ( 1.000000000000000000, 0.0000000000000000000, 0.0000000000000000000 ) ) ;
#296 = FACE_OUTER_BOUND ( 'NONE', #81, .T. ) ;
#297 = LENGTH_MEASURE_WITH_UNIT ( LENGTH_MEASURE( 0.02539999999999999897 ), #150 );
#298 = AXIS2_PLACEMENT_3D ( 'NONE', #217, #172, #193 ) ;
#299 = PRESENTATION_LAYER_ASSIGNMENT (  '', '', ( #192 ) ) ;
ENDSEC;
END-ISO-10303-21;
