ISO-10303-21;
HEADER;
FILE_DESCRIPTION (( 'STEP AP214' ),
    '1' );
FILE_NAME ('Micro_DM-750-4120.STEP',
    '2021-09-02T16:12:17',
    ( '' ),
    ( '' ),
    'SwSTEP 2.0',
    'SolidWorks 2020',
    '' );
FILE_SCHEMA (( 'AUTOMOTIVE_DESIGN' ));
ENDSEC;

DATA;
#1 = DIRECTION ( 'NONE',  ( -0.0000000000000000000, -0.0000000000000000000, -1.000000000000000000 ) ) ;
#2 = AXIS2_PLACEMENT_3D ( 'NONE', #260, #103, #191 ) ;
#3 = DIRECTION ( 'NONE',  ( -0.0000000000000000000, -0.0000000000000000000, -1.000000000000000000 ) ) ;
#4 = EDGE_LOOP ( 'NONE', ( #281, #49, #171, #42 ) ) ;
#5 = ORIENTED_EDGE ( 'NONE', *, *, #249, .T. ) ;
#6 = CARTESIAN_POINT ( 'NONE',  ( -0.007499999999999999722, 2.341830841669526008E-17, 1.707404996040164512E-17 ) ) ;
#7 = LENGTH_MEASURE_WITH_UNIT ( LENGTH_MEASURE( 0.02539999999999999897 ), #121 );
#8 = ORIENTED_EDGE ( 'NONE', *, *, #235, .T. ) ;
#9 = CIRCLE ( 'NONE', #221, 0.007499999999999999722 ) ;
#10 = FACE_OUTER_BOUND ( 'NONE', #96, .T. ) ;
#11 = ORIENTED_EDGE ( 'NONE', *, *, #300, .F. ) ;
#12 = ADVANCED_FACE ( 'NONE', ( #243 ), #239, .T. ) ;
#13 = EDGE_LOOP ( 'NONE', ( #255, #14 ) ) ;
#14 = ORIENTED_EDGE ( 'NONE', *, *, #51, .T. ) ;
#15 = VECTOR ( 'NONE', #65, 39.37007874015748143 ) ;
#16 = CIRCLE ( 'NONE', #201, 0.3750000000000000555 ) ;
#17 = MANIFOLD_SOLID_BREP ( 'Cut-Revolve4', #68 ) ;
#18 =( LENGTH_UNIT ( ) NAMED_UNIT ( * ) SI_UNIT ( $, .METRE. ) );
#19 =( NAMED_UNIT ( * ) SI_UNIT ( $, .STERADIAN. ) SOLID_ANGLE_UNIT ( ) );
#20 = LINE ( 'NONE', #45, #292 ) ;
#21 = AXIS2_PLACEMENT_3D ( 'NONE', #97, #90, #133 ) ;
#22 = EDGE_CURVE ( 'NONE', #277, #145, #100, .T. ) ;
#23 =( CONVERSION_BASED_UNIT ( 'INCH', #148 ) LENGTH_UNIT ( ) NAMED_UNIT ( #58 ) );
#24 = FACE_OUTER_BOUND ( 'NONE', #35, .T. ) ;
#25 = EDGE_CURVE ( 'NONE', #184, #197, #20, .T. ) ;
#26 = COLOUR_RGB ( '',0.7921568627450980005, 0.8196078431372548767, 0.9333333333333333481 ) ;
#27 = DIRECTION ( 'NONE',  ( 1.000000000000000000, 0.0000000000000000000, 0.0000000000000000000 ) ) ;
#28 = PRESENTATION_STYLE_ASSIGNMENT (( #107 ) ) ;
#29 = DIRECTION ( 'NONE',  ( -1.000000000000000000, 0.0000000000000000000, 0.0000000000000000000 ) ) ;
#30 = DIRECTION ( 'NONE',  ( 0.8660254037844400399, 0.0000000000000000000, 0.4999999999999976685 ) ) ;
#31 = VECTOR ( 'NONE', #30, 39.37007874015748143 ) ;
#32 = PRODUCT_DEFINITION_CONTEXT ( 'detailed design', #69, 'design' ) ;
#33 = ORIENTED_EDGE ( 'NONE', *, *, #249, .F. ) ;
#34 = CARTESIAN_POINT ( 'NONE',  ( -0.3750000000000000555, 0.0000000000000000000, 4.000000000000000000 ) ) ;
#35 = EDGE_LOOP ( 'NONE', ( #39, #127, #44, #189 ) ) ;
#36 = ADVANCED_BREP_SHAPE_REPRESENTATION ( 'Micro_DM-750-4120', ( #17, #72 ), #92 ) ;
#37 =( CONVERSION_BASED_UNIT ( 'INCH', #310 ) LENGTH_UNIT ( ) NAMED_UNIT ( #141 ) );
#38 = DIRECTION ( 'NONE',  ( 1.000000000000000000, 0.0000000000000000000, 0.0000000000000000000 ) ) ;
#39 = ORIENTED_EDGE ( 'NONE', *, *, #222, .F. ) ;
#40 = AXIS2_PLACEMENT_3D ( 'NONE', #136, #313, #157 ) ;
#41 = FACE_BOUND ( 'NONE', #98, .T. ) ;
#42 = ORIENTED_EDGE ( 'NONE', *, *, #282, .F. ) ;
#43 = EDGE_CURVE ( 'NONE', #145, #210, #195, .T. ) ;
#44 = ORIENTED_EDGE ( 'NONE', *, *, #120, .F. ) ;
#45 = CARTESIAN_POINT ( 'NONE',  ( -0.3599999999999994316, 0.0000000000000000000, 4.000000000000000000 ) ) ;
#46 = ORIENTED_EDGE ( 'NONE', *, *, #43, .F. ) ;
#47 = VECTOR ( 'NONE', #54, 39.37007874015748143 ) ;
#48 = PRESENTATION_LAYER_ASSIGNMENT (  '', '', ( #190 ) ) ;
#49 = ORIENTED_EDGE ( 'NONE', *, *, #128, .F. ) ;
#50 = SURFACE_SIDE_STYLE ('',( #217 ) ) ;
#51 = EDGE_CURVE ( 'NONE', #307, #311, #267, .T. ) ;
#52 =( GEOMETRIC_REPRESENTATION_CONTEXT ( 3 ) GLOBAL_UNCERTAINTY_ASSIGNED_CONTEXT ( ( #276 ) ) GLOBAL_UNIT_ASSIGNED_CONTEXT ( ( #23, #264, #19 ) ) REPRESENTATION_CONTEXT ( 'NONE', 'WORKASPACE' ) );
#53 = CARTESIAN_POINT ( 'NONE',  ( 0.0000000000000000000, 0.0000000000000000000, 0.0000000000000000000 ) ) ;
#54 = DIRECTION ( 'NONE',  ( -0.8660254037844400399, 1.060575238724908640E-16, 0.4999999999999976685 ) ) ;
#55 = DIRECTION ( 'NONE',  ( -0.0000000000000000000, -0.0000000000000000000, -1.000000000000000000 ) ) ;
#56 = DIRECTION ( 'NONE',  ( -1.000000000000000000, 0.0000000000000000000, 0.0000000000000000000 ) ) ;
#57 = DIRECTION ( 'NONE',  ( -0.0000000000000000000, -0.0000000000000000000, -1.000000000000000000 ) ) ;
#58 = DIMENSIONAL_EXPONENTS ( 1.000000000000000000, 0.0000000000000000000, 0.0000000000000000000, 0.0000000000000000000, 0.0000000000000000000, 0.0000000000000000000, 0.0000000000000000000 ) ;
#59 = AXIS2_PLACEMENT_3D ( 'NONE', #229, #115, #188 ) ;
#60 = EDGE_LOOP ( 'NONE', ( #257, #309, #284, #46 ) ) ;
#61 = CARTESIAN_POINT ( 'NONE',  ( 0.3599999999999994316, 4.500576986866520466E-17, 4.000000000000000000 ) ) ;
#62 = SHAPE_DEFINITION_REPRESENTATION ( #108, #36 ) ;
#63 = ORIENTED_EDGE ( 'NONE', *, *, #147, .T. ) ;
#64 = STYLED_ITEM ( 'NONE', ( #28 ), #36 ) ;
#65 = DIRECTION ( 'NONE',  ( -0.0000000000000000000, -0.0000000000000000000, -1.000000000000000000 ) ) ;
#66 =( NAMED_UNIT ( * ) PLANE_ANGLE_UNIT ( ) SI_UNIT ( $, .RADIAN. ) );
#67 = ORIENTED_EDGE ( 'NONE', *, *, #235, .F. ) ;
#68 = CLOSED_SHELL ( 'NONE', ( #124, #185, #200, #288, #259, #142, #325, #245, #12, #149, #265 ) ) ;
#69 = APPLICATION_CONTEXT ( 'automotive_design' ) ;
#70 = DIRECTION ( 'NONE',  ( -0.0000000000000000000, -0.0000000000000000000, -1.000000000000000000 ) ) ;
#71 = EDGE_LOOP ( 'NONE', ( #253, #94 ) ) ;
#72 = AXIS2_PLACEMENT_3D ( 'NONE', #314, #234, #38 ) ;
#73 = DIRECTION ( 'NONE',  ( -1.000000000000000000, 0.0000000000000000000, 0.0000000000000000000 ) ) ;
#74 = CIRCLE ( 'NONE', #104, 0.3599999999999994316 ) ;
#75 = PRODUCT_DEFINITION ( 'UNKNOWN', '', #126, #32 ) ;
#76 = SURFACE_STYLE_USAGE ( .BOTH. , #50 ) ;
#77 = FILL_AREA_STYLE_COLOUR ( '', #26 ) ;
#78 = EDGE_CURVE ( 'NONE', #210, #140, #297, .T. ) ;
#79 = DIRECTION ( 'NONE',  ( 0.7071067811865426878, 8.659560562354873694E-17, -0.7071067811865523467 ) ) ;
#80 = AXIS2_PLACEMENT_3D ( 'NONE', #324, #70, #169 ) ;
#81 = CARTESIAN_POINT ( 'NONE',  ( -0.3749500000000001165, 4.591813173403003194E-17, 0.2121473564137267009 ) ) ;
#82 = CYLINDRICAL_SURFACE ( 'NONE', #86, 0.3749500000000001165 ) ;
#83 = AXIS2_PLACEMENT_3D ( 'NONE', #306, #1, #206 ) ;
#84 =( NAMED_UNIT ( * ) PLANE_ANGLE_UNIT ( ) SI_UNIT ( $, .RADIAN. ) );
#85 = EDGE_CURVE ( 'NONE', #145, #277, #160, .T. ) ;
#86 = AXIS2_PLACEMENT_3D ( 'NONE', #132, #55, #223 ) ;
#87 = CARTESIAN_POINT ( 'NONE',  ( 0.3599999999999994316, 4.408728476930464865E-17, 4.000000000000000000 ) ) ;
#88 = CARTESIAN_POINT ( 'NONE',  ( 0.3749500000000001720, 4.591813173403003194E-17, 1.500000000000000222 ) ) ;
#89 = ORIENTED_EDGE ( 'NONE', *, *, #43, .T. ) ;
#90 = DIRECTION ( 'NONE',  ( 0.0000000000000000000, 0.0000000000000000000, -1.000000000000000000 ) ) ;
#91 = ORIENTED_EDGE ( 'NONE', *, *, #300, .T. ) ;
#92 =( GEOMETRIC_REPRESENTATION_CONTEXT ( 3 ) GLOBAL_UNCERTAINTY_ASSIGNED_CONTEXT ( ( #316 ) ) GLOBAL_UNIT_ASSIGNED_CONTEXT ( ( #37, #84, #170 ) ) REPRESENTATION_CONTEXT ( 'NONE', 'WORKASPACE' ) );
#93 = DIRECTION ( 'NONE',  ( -1.000000000000000000, 0.0000000000000000000, 0.0000000000000000000 ) ) ;
#94 = ORIENTED_EDGE ( 'NONE', *, *, #222, .T. ) ;
#95 = LINE ( 'NONE', #34, #172 ) ;
#96 = EDGE_LOOP ( 'NONE', ( #63, #5 ) ) ;
#97 = CARTESIAN_POINT ( 'NONE',  ( 0.0000000000000000000, 0.0000000000000000000, 3.984999999999998987 ) ) ;
#98 = EDGE_LOOP ( 'NONE', ( #321, #158 ) ) ;
#99 = CARTESIAN_POINT ( 'NONE',  ( -0.3749500000000001165, 0.0000000000000000000, 0.0000000000000000000 ) ) ;
#100 = CIRCLE ( 'NONE', #174, 0.3749500000000001720 ) ;
#101 = DIRECTION ( 'NONE',  ( -0.7071067811865426878, 0.0000000000000000000, -0.7071067811865523467 ) ) ;
#102 = DIRECTION ( 'NONE',  ( -1.000000000000000000, 0.0000000000000000000, 0.0000000000000000000 ) ) ;
#103 = DIRECTION ( 'NONE',  ( 0.0000000000000000000, 0.0000000000000000000, 1.000000000000000000 ) ) ;
#104 = AXIS2_PLACEMENT_3D ( 'NONE', #156, #301, #329 ) ;
#105 = ORIENTED_EDGE ( 'NONE', *, *, #231, .F. ) ;
#106 = CARTESIAN_POINT ( 'NONE',  ( 0.0000000000000000000, 0.0000000000000000000, 4.000000000000000000 ) ) ;
#107 = SURFACE_STYLE_USAGE ( .BOTH. , #193 ) ;
#108 = PRODUCT_DEFINITION_SHAPE ( 'NONE', 'NONE',  #75 ) ;
#109 = CARTESIAN_POINT ( 'NONE',  ( -0.3749500000000001720, 0.0000000000000000000, 1.500000000000000222 ) ) ;
#110 = VECTOR ( 'NONE', #57, 39.37007874015748143 ) ;
#111 = MECHANICAL_DESIGN_GEOMETRIC_PRESENTATION_REPRESENTATION (  '', ( #190 ), #52 ) ;
#112 = EDGE_CURVE ( 'NONE', #311, #307, #16, .T. ) ;
#113 = EDGE_LOOP ( 'NONE', ( #163, #91, #116, #67 ) ) ;
#114 = LINE ( 'NONE', #285, #15 ) ;
#115 = DIRECTION ( 'NONE',  ( -0.0000000000000000000, -0.0000000000000000000, -1.000000000000000000 ) ) ;
#116 = ORIENTED_EDGE ( 'NONE', *, *, #112, .F. ) ;
#117 = FACE_OUTER_BOUND ( 'NONE', #13, .T. ) ;
#118 = APPLICATION_CONTEXT ( 'automotive_design' ) ;
#119 = ORIENTED_EDGE ( 'NONE', *, *, #315, .F. ) ;
#120 = EDGE_CURVE ( 'NONE', #197, #143, #196, .T. ) ;
#121 =( LENGTH_UNIT ( ) NAMED_UNIT ( * ) SI_UNIT ( $, .METRE. ) );
#122 = EDGE_LOOP ( 'NONE', ( #119, #261, #89, #165 ) ) ;
#123 = DIRECTION ( 'NONE',  ( -0.0000000000000000000, -0.0000000000000000000, -1.000000000000000000 ) ) ;
#124 = ADVANCED_FACE ( 'NONE', ( #181 ), #273, .T. ) ;
#125 = DIRECTION ( 'NONE',  ( -0.0000000000000000000, -0.0000000000000000000, -1.000000000000000000 ) ) ;
#126 = PRODUCT_DEFINITION_FORMATION_WITH_SPECIFIED_SOURCE ( 'ANY', '', #247, .NOT_KNOWN. ) ;
#127 = ORIENTED_EDGE ( 'NONE', *, *, #155, .T. ) ;
#128 = EDGE_CURVE ( 'NONE', #184, #286, #74, .T. ) ;
#129 = DIRECTION ( 'NONE',  ( 1.000000000000000000, 0.0000000000000000000, -0.0000000000000000000 ) ) ;
#130 = PLANE ( 'NONE',  #153 ) ;
#131 = LINE ( 'NONE', #164, #31 ) ;
#132 = CARTESIAN_POINT ( 'NONE',  ( 0.0000000000000000000, 0.0000000000000000000, 0.0000000000000000000 ) ) ;
#133 = DIRECTION ( 'NONE',  ( 1.000000000000000000, 0.0000000000000000000, 0.0000000000000000000 ) ) ;
#134 = CIRCLE ( 'NONE', #21, 0.3750000000000000555 ) ;
#135 = ORIENTED_EDGE ( 'NONE', *, *, #213, .F. ) ;
#136 = CARTESIAN_POINT ( 'NONE',  ( 0.0000000000000000000, 0.0000000000000000000, 0.0000000000000000000 ) ) ;
#137 = ORIENTED_EDGE ( 'NONE', *, *, #213, .T. ) ;
#138 = EDGE_LOOP ( 'NONE', ( #33, #137, #220, #105 ) ) ;
#139 = FACE_OUTER_BOUND ( 'NONE', #294, .T. ) ;
#140 = VERTEX_POINT ( 'NONE', #202 ) ;
#141 = DIMENSIONAL_EXPONENTS ( 1.000000000000000000, 0.0000000000000000000, 0.0000000000000000000, 0.0000000000000000000, 0.0000000000000000000, 0.0000000000000000000, 0.0000000000000000000 ) ;
#142 = ADVANCED_FACE ( 'NONE', ( #304 ), #130, .T. ) ;
#143 = VERTEX_POINT ( 'NONE', #228 ) ;
#144 = AXIS2_PLACEMENT_3D ( 'NONE', #152, #248, #27 ) ;
#145 = VERTEX_POINT ( 'NONE', #109 ) ;
#146 = PRESENTATION_STYLE_ASSIGNMENT (( #76 ) ) ;
#147 = EDGE_CURVE ( 'NONE', #312, #237, #9, .T. ) ;
#148 = LENGTH_MEASURE_WITH_UNIT ( LENGTH_MEASURE( 0.02539999999999999897 ), #18 );
#149 = ADVANCED_FACE ( 'NONE', ( #328 ), #82, .T. ) ;
#150 = LINE ( 'NONE', #87, #305 ) ;
#151 = EDGE_CURVE ( 'NONE', #140, #210, #323, .T. ) ;
#152 = CARTESIAN_POINT ( 'NONE',  ( 0.0000000000000000000, 0.0000000000000000000, 4.000000000000000000 ) ) ;
#153 = AXIS2_PLACEMENT_3D ( 'NONE', #106, #299, #129 ) ;
#154 = DIRECTION ( 'NONE',  ( -0.0000000000000000000, -0.0000000000000000000, -1.000000000000000000 ) ) ;
#155 = EDGE_CURVE ( 'NONE', #286, #143, #150, .T. ) ;
#156 = CARTESIAN_POINT ( 'NONE',  ( 0.0000000000000000000, 0.0000000000000000000, 4.000000000000000000 ) ) ;
#157 = DIRECTION ( 'NONE',  ( 1.000000000000000000, 0.0000000000000000000, -0.0000000000000000000 ) ) ;
#158 = ORIENTED_EDGE ( 'NONE', *, *, #22, .F. ) ;
#159 = CIRCLE ( 'NONE', #318, 0.007499999999999999722 ) ;
#160 = CIRCLE ( 'NONE', #227, 0.3749500000000001720 ) ;
#161 = DIMENSIONAL_EXPONENTS ( 1.000000000000000000, 0.0000000000000000000, 0.0000000000000000000, 0.0000000000000000000, 0.0000000000000000000, 0.0000000000000000000, 0.0000000000000000000 ) ;
#162 =( LENGTH_UNIT ( ) NAMED_UNIT ( * ) SI_UNIT ( $, .METRE. ) );
#163 = ORIENTED_EDGE ( 'NONE', *, *, #120, .T. ) ;
#164 = CARTESIAN_POINT ( 'NONE',  ( 0.007499999999999999722, 0.0000000000000000000, 1.707404996040164512E-17 ) ) ;
#165 = ORIENTED_EDGE ( 'NONE', *, *, #151, .F. ) ;
#166 = CONICAL_SURFACE ( 'NONE', #296, 0.007499999999999999722, 1.047197551196600518 ) ;
#167 = DIRECTION ( 'NONE',  ( -1.000000000000000000, 0.0000000000000000000, 0.0000000000000000000 ) ) ;
#168 = ORIENTED_EDGE ( 'NONE', *, *, #147, .F. ) ;
#169 = DIRECTION ( 'NONE',  ( -1.000000000000000000, 0.0000000000000000000, 0.0000000000000000000 ) ) ;
#170 =( NAMED_UNIT ( * ) SI_UNIT ( $, .STERADIAN. ) SOLID_ANGLE_UNIT ( ) );
#171 = ORIENTED_EDGE ( 'NONE', *, *, #25, .T. ) ;
#172 = VECTOR ( 'NONE', #240, 39.37007874015748143 ) ;
#173 = CARTESIAN_POINT ( 'NONE',  ( 0.0000000000000000000, 0.0000000000000000000, 3.984999999999998987 ) ) ;
#174 = AXIS2_PLACEMENT_3D ( 'NONE', #320, #125, #102 ) ;
#175 = CARTESIAN_POINT ( 'NONE',  ( -0.3599999999999994316, 0.0000000000000000000, 4.000000000000000000 ) ) ;
#176 = LINE ( 'NONE', #270, #47 ) ;
#177 = CARTESIAN_POINT ( 'NONE',  ( 0.0000000000000000000, 0.0000000000000000000, 1.707404996040164512E-17 ) ) ;
#178 = UNCERTAINTY_MEASURE_WITH_UNIT (LENGTH_MEASURE( 1.000000000000000082E-05 ), #215, 'distance_accuracy_value', 'NONE');
#179 = APPLICATION_PROTOCOL_DEFINITION ( 'draft international standard', 'automotive_design', 1998, #69 ) ;
#180 = CONICAL_SURFACE ( 'NONE', #216, 0.3599999999999994316, 0.7853981633974415066 ) ;
#181 = FACE_OUTER_BOUND ( 'NONE', #60, .T. ) ;
#182 = LINE ( 'NONE', #183, #110 ) ;
#183 = CARTESIAN_POINT ( 'NONE',  ( 0.3749500000000001165, 4.591813173403002577E-17, 0.0000000000000000000 ) ) ;
#184 = VERTEX_POINT ( 'NONE', #175 ) ;
#185 = ADVANCED_FACE ( 'NONE', ( #298 ), #166, .T. ) ;
#186 = VECTOR ( 'NONE', #194, 39.37007874015748143 ) ;
#187 = CARTESIAN_POINT ( 'NONE',  ( 0.007499999999999999722, 0.0000000000000000000, 1.707404996040164512E-17 ) ) ;
#188 = DIRECTION ( 'NONE',  ( -1.000000000000000000, 0.0000000000000000000, 0.0000000000000000000 ) ) ;
#189 = ORIENTED_EDGE ( 'NONE', *, *, #25, .F. ) ;
#190 = STYLED_ITEM ( 'NONE', ( #146 ), #17 ) ;
#191 = DIRECTION ( 'NONE',  ( 1.000000000000000000, 0.0000000000000000000, 0.0000000000000000000 ) ) ;
#192 = FILL_AREA_STYLE_COLOUR ( '', #322 ) ;
#193 = SURFACE_SIDE_STYLE ('',( #218 ) ) ;
#194 = DIRECTION ( 'NONE',  ( -0.0000000000000000000, -0.0000000000000000000, -1.000000000000000000 ) ) ;
#195 = LINE ( 'NONE', #99, #186 ) ;
#196 = CIRCLE ( 'NONE', #262, 0.3750000000000000555 ) ;
#197 = VERTEX_POINT ( 'NONE', #327 ) ;
#198 = MECHANICAL_DESIGN_GEOMETRIC_PRESENTATION_REPRESENTATION (  '', ( #64 ), #252 ) ;
#199 = DIRECTION ( 'NONE',  ( -1.000000000000000000, 0.0000000000000000000, 0.0000000000000000000 ) ) ;
#200 = ADVANCED_FACE ( 'NONE', ( #24 ), #180, .T. ) ;
#201 = AXIS2_PLACEMENT_3D ( 'NONE', #244, #289, #73 ) ;
#202 = CARTESIAN_POINT ( 'NONE',  ( 0.3749500000000001165, 0.0000000000000000000, 0.2121473564137267009 ) ) ;
#203 = DIRECTION ( 'NONE',  ( 1.000000000000000000, 0.0000000000000000000, 0.0000000000000000000 ) ) ;
#204 = CARTESIAN_POINT ( 'NONE',  ( 0.0000000000000000000, 0.0000000000000000000, 0.2121473564137267009 ) ) ;
#205 = PLANE ( 'NONE',  #303 ) ;
#206 = DIRECTION ( 'NONE',  ( -1.000000000000000000, 0.0000000000000000000, 0.0000000000000000000 ) ) ;
#207 = ORIENTED_EDGE ( 'NONE', *, *, #282, .T. ) ;
#208 = CARTESIAN_POINT ( 'NONE',  ( 0.3750000000000000555, 4.592425496802575451E-17, 1.499999999999999778 ) ) ;
#209 = PRODUCT_CONTEXT ( 'NONE', #118, 'mechanical' ) ;
#210 = VERTEX_POINT ( 'NONE', #81 ) ;
#211 = CYLINDRICAL_SURFACE ( 'NONE', #59, 0.3750000000000000555 ) ;
#212 = EDGE_LOOP ( 'NONE', ( #135, #168, #241, #219 ) ) ;
#213 = EDGE_CURVE ( 'NONE', #237, #210, #176, .T. ) ;
#214 = DIRECTION ( 'NONE',  ( -0.0000000000000000000, 0.0000000000000000000, -1.000000000000000000 ) ) ;
#215 =( CONVERSION_BASED_UNIT ( 'INCH', #7 ) LENGTH_UNIT ( ) NAMED_UNIT ( #161 ) );
#216 = AXIS2_PLACEMENT_3D ( 'NONE', #224, #326, #199 ) ;
#217 = SURFACE_STYLE_FILL_AREA ( #293 ) ;
#218 = SURFACE_STYLE_FILL_AREA ( #238 ) ;
#219 = ORIENTED_EDGE ( 'NONE', *, *, #151, .T. ) ;
#220 = ORIENTED_EDGE ( 'NONE', *, *, #78, .T. ) ;
#221 = AXIS2_PLACEMENT_3D ( 'NONE', #295, #154, #269 ) ;
#222 = EDGE_CURVE ( 'NONE', #286, #184, #266, .T. ) ;
#223 = DIRECTION ( 'NONE',  ( -1.000000000000000000, 0.0000000000000000000, 0.0000000000000000000 ) ) ;
#224 = CARTESIAN_POINT ( 'NONE',  ( 0.0000000000000000000, 0.0000000000000000000, 4.000000000000000000 ) ) ;
#225 = AXIS2_PLACEMENT_3D ( 'NONE', #204, #274, #56 ) ;
#226 = DIRECTION ( 'NONE',  ( 1.000000000000000000, 0.0000000000000000000, 0.0000000000000000000 ) ) ;
#227 = AXIS2_PLACEMENT_3D ( 'NONE', #242, #123, #319 ) ;
#228 = CARTESIAN_POINT ( 'NONE',  ( 0.3750000000000000555, 4.592425496802575451E-17, 3.984999999999998987 ) ) ;
#229 = CARTESIAN_POINT ( 'NONE',  ( 0.0000000000000000000, 0.0000000000000000000, 4.000000000000000000 ) ) ;
#230 = APPLICATION_PROTOCOL_DEFINITION ( 'draft international standard', 'automotive_design', 1998, #118 ) ;
#231 = EDGE_CURVE ( 'NONE', #312, #140, #131, .T. ) ;
#232 = FACE_OUTER_BOUND ( 'NONE', #113, .T. ) ;
#233 = ORIENTED_EDGE ( 'NONE', *, *, #51, .F. ) ;
#234 = DIRECTION ( 'NONE',  ( 0.0000000000000000000, 0.0000000000000000000, 1.000000000000000000 ) ) ;
#235 = EDGE_CURVE ( 'NONE', #197, #311, #95, .T. ) ;
#236 = CARTESIAN_POINT ( 'NONE',  ( 0.0000000000000000000, 0.0000000000000000000, 4.000000000000000000 ) ) ;
#237 = VERTEX_POINT ( 'NONE', #6 ) ;
#238 = FILL_AREA_STYLE ('',( #192 ) ) ;
#239 = CONICAL_SURFACE ( 'NONE', #2, 0.007499999999999999722, 1.047197551196600518 ) ;
#240 = DIRECTION ( 'NONE',  ( -0.0000000000000000000, -0.0000000000000000000, -1.000000000000000000 ) ) ;
#241 = ORIENTED_EDGE ( 'NONE', *, *, #231, .T. ) ;
#242 = CARTESIAN_POINT ( 'NONE',  ( 0.0000000000000000000, 0.0000000000000000000, 1.500000000000000222 ) ) ;
#243 = FACE_OUTER_BOUND ( 'NONE', #212, .T. ) ;
#244 = CARTESIAN_POINT ( 'NONE',  ( 0.0000000000000000000, 0.0000000000000000000, 1.499999999999999778 ) ) ;
#245 = ADVANCED_FACE ( 'NONE', ( #41, #117 ), #205, .T. ) ;
#246 = DIRECTION ( 'NONE',  ( 0.0000000000000000000, 0.0000000000000000000, 1.000000000000000000 ) ) ;
#247 = PRODUCT ( 'Micro_DM-750-4120', 'Micro_DM-750-4120', '', ( #209 ) ) ;
#248 = DIRECTION ( 'NONE',  ( 0.0000000000000000000, 0.0000000000000000000, 1.000000000000000000 ) ) ;
#249 = EDGE_CURVE ( 'NONE', #237, #312, #159, .T. ) ;
#250 = AXIS2_PLACEMENT_3D ( 'NONE', #53, #268, #29 ) ;
#251 = DIRECTION ( 'NONE',  ( 0.0000000000000000000, 0.0000000000000000000, -1.000000000000000000 ) ) ;
#252 =( GEOMETRIC_REPRESENTATION_CONTEXT ( 3 ) GLOBAL_UNCERTAINTY_ASSIGNED_CONTEXT ( ( #178 ) ) GLOBAL_UNIT_ASSIGNED_CONTEXT ( ( #215, #66, #302 ) ) REPRESENTATION_CONTEXT ( 'NONE', 'WORKASPACE' ) );
#253 = ORIENTED_EDGE ( 'NONE', *, *, #128, .T. ) ;
#254 = CYLINDRICAL_SURFACE ( 'NONE', #83, 0.3750000000000000555 ) ;
#255 = ORIENTED_EDGE ( 'NONE', *, *, #112, .T. ) ;
#256 = FACE_OUTER_BOUND ( 'NONE', #4, .T. ) ;
#257 = ORIENTED_EDGE ( 'NONE', *, *, #85, .T. ) ;
#258 = AXIS2_PLACEMENT_3D ( 'NONE', #317, #290, #287 ) ;
#259 = ADVANCED_FACE ( 'NONE', ( #139 ), #254, .T. ) ;
#260 = CARTESIAN_POINT ( 'NONE',  ( 0.0000000000000000000, 0.0000000000000000000, 1.707404996040164512E-17 ) ) ;
#261 = ORIENTED_EDGE ( 'NONE', *, *, #22, .T. ) ;
#262 = AXIS2_PLACEMENT_3D ( 'NONE', #173, #263, #203 ) ;
#263 = DIRECTION ( 'NONE',  ( 0.0000000000000000000, 0.0000000000000000000, -1.000000000000000000 ) ) ;
#264 =( NAMED_UNIT ( * ) PLANE_ANGLE_UNIT ( ) SI_UNIT ( $, .RADIAN. ) );
#265 = ADVANCED_FACE ( 'NONE', ( #10 ), #280, .F. ) ;
#266 = CIRCLE ( 'NONE', #144, 0.3599999999999994316 ) ;
#267 = CIRCLE ( 'NONE', #258, 0.3750000000000000555 ) ;
#268 = DIRECTION ( 'NONE',  ( -0.0000000000000000000, -0.0000000000000000000, -1.000000000000000000 ) ) ;
#269 = DIRECTION ( 'NONE',  ( -1.000000000000000000, 0.0000000000000000000, 0.0000000000000000000 ) ) ;
#270 = CARTESIAN_POINT ( 'NONE',  ( -0.007499999999999999722, 9.184850993605147975E-19, 1.707404996040164512E-17 ) ) ;
#271 = PRESENTATION_LAYER_ASSIGNMENT (  '', '', ( #64 ) ) ;
#272 = PRODUCT_RELATED_PRODUCT_CATEGORY ( 'part', '', ( #247 ) ) ;
#273 = CYLINDRICAL_SURFACE ( 'NONE', #250, 0.3749500000000001165 ) ;
#274 = DIRECTION ( 'NONE',  ( -0.0000000000000000000, -0.0000000000000000000, -1.000000000000000000 ) ) ;
#275 = CARTESIAN_POINT ( 'NONE',  ( -0.3750000000000000555, 0.0000000000000000000, 1.499999999999999778 ) ) ;
#276 = UNCERTAINTY_MEASURE_WITH_UNIT (LENGTH_MEASURE( 1.000000000000000082E-05 ), #23, 'distance_accuracy_value', 'NONE');
#277 = VERTEX_POINT ( 'NONE', #88 ) ;
#278 = DIRECTION ( 'NONE',  ( -1.000000000000000000, 0.0000000000000000000, 0.0000000000000000000 ) ) ;
#279 = AXIS2_PLACEMENT_3D ( 'NONE', #236, #251, #278 ) ;
#280 = PLANE ( 'NONE',  #40 ) ;
#281 = ORIENTED_EDGE ( 'NONE', *, *, #155, .F. ) ;
#282 = EDGE_CURVE ( 'NONE', #143, #197, #134, .T. ) ;
#283 = CARTESIAN_POINT ( 'NONE',  ( 0.3749500000000001720, 0.0000000000000000000, 1.500000000000000222 ) ) ;
#284 = ORIENTED_EDGE ( 'NONE', *, *, #78, .F. ) ;
#285 = CARTESIAN_POINT ( 'NONE',  ( 0.3750000000000000555, 4.592425496802575451E-17, 4.000000000000000000 ) ) ;
#286 = VERTEX_POINT ( 'NONE', #61 ) ;
#287 = DIRECTION ( 'NONE',  ( -1.000000000000000000, 0.0000000000000000000, 0.0000000000000000000 ) ) ;
#288 = ADVANCED_FACE ( 'NONE', ( #232 ), #211, .T. ) ;
#289 = DIRECTION ( 'NONE',  ( -0.0000000000000000000, -0.0000000000000000000, -1.000000000000000000 ) ) ;
#290 = DIRECTION ( 'NONE',  ( -0.0000000000000000000, -0.0000000000000000000, -1.000000000000000000 ) ) ;
#291 = CONICAL_SURFACE ( 'NONE', #279, 0.3599999999999994316, 0.7853981633974415066 ) ;
#292 = VECTOR ( 'NONE', #101, 39.37007874015748143 ) ;
#293 = FILL_AREA_STYLE ('',( #77 ) ) ;
#294 = EDGE_LOOP ( 'NONE', ( #11, #207, #8, #233 ) ) ;
#295 = CARTESIAN_POINT ( 'NONE',  ( 0.0000000000000000000, 0.0000000000000000000, 1.707404996040164512E-17 ) ) ;
#296 = AXIS2_PLACEMENT_3D ( 'NONE', #177, #246, #226 ) ;
#297 = CIRCLE ( 'NONE', #80, 0.3749500000000000610 ) ;
#298 = FACE_OUTER_BOUND ( 'NONE', #138, .T. ) ;
#299 = DIRECTION ( 'NONE',  ( 0.0000000000000000000, 0.0000000000000000000, 1.000000000000000000 ) ) ;
#300 = EDGE_CURVE ( 'NONE', #143, #307, #114, .T. ) ;
#301 = DIRECTION ( 'NONE',  ( 0.0000000000000000000, 0.0000000000000000000, 1.000000000000000000 ) ) ;
#302 =( NAMED_UNIT ( * ) SI_UNIT ( $, .STERADIAN. ) SOLID_ANGLE_UNIT ( ) );
#303 = AXIS2_PLACEMENT_3D ( 'NONE', #283, #214, #93 ) ;
#304 = FACE_OUTER_BOUND ( 'NONE', #71, .T. ) ;
#305 = VECTOR ( 'NONE', #79, 39.37007874015748143 ) ;
#306 = CARTESIAN_POINT ( 'NONE',  ( 0.0000000000000000000, 0.0000000000000000000, 4.000000000000000000 ) ) ;
#307 = VERTEX_POINT ( 'NONE', #208 ) ;
#308 = CARTESIAN_POINT ( 'NONE',  ( 0.0000000000000000000, 0.0000000000000000000, 1.707404996040164512E-17 ) ) ;
#309 = ORIENTED_EDGE ( 'NONE', *, *, #315, .T. ) ;
#310 = LENGTH_MEASURE_WITH_UNIT ( LENGTH_MEASURE( 0.02539999999999999897 ), #162 );
#311 = VERTEX_POINT ( 'NONE', #275 ) ;
#312 = VERTEX_POINT ( 'NONE', #187 ) ;
#313 = DIRECTION ( 'NONE',  ( 0.0000000000000000000, 0.0000000000000000000, 1.000000000000000000 ) ) ;
#314 = CARTESIAN_POINT ( 'NONE',  ( 0.0000000000000000000, 0.0000000000000000000, 0.0000000000000000000 ) ) ;
#315 = EDGE_CURVE ( 'NONE', #277, #140, #182, .T. ) ;
#316 = UNCERTAINTY_MEASURE_WITH_UNIT (LENGTH_MEASURE( 1.000000000000000082E-05 ), #37, 'distance_accuracy_value', 'NONE');
#317 = CARTESIAN_POINT ( 'NONE',  ( 0.0000000000000000000, 0.0000000000000000000, 1.499999999999999778 ) ) ;
#318 = AXIS2_PLACEMENT_3D ( 'NONE', #308, #3, #167 ) ;
#319 = DIRECTION ( 'NONE',  ( -1.000000000000000000, 0.0000000000000000000, 0.0000000000000000000 ) ) ;
#320 = CARTESIAN_POINT ( 'NONE',  ( 0.0000000000000000000, 0.0000000000000000000, 1.500000000000000222 ) ) ;
#321 = ORIENTED_EDGE ( 'NONE', *, *, #85, .F. ) ;
#322 = COLOUR_RGB ( '',0.7921568627450980005, 0.8196078431372548767, 0.9333333333333333481 ) ;
#323 = CIRCLE ( 'NONE', #225, 0.3749500000000000610 ) ;
#324 = CARTESIAN_POINT ( 'NONE',  ( 0.0000000000000000000, 0.0000000000000000000, 0.2121473564137267009 ) ) ;
#325 = ADVANCED_FACE ( 'NONE', ( #256 ), #291, .T. ) ;
#326 = DIRECTION ( 'NONE',  ( 0.0000000000000000000, 0.0000000000000000000, -1.000000000000000000 ) ) ;
#327 = CARTESIAN_POINT ( 'NONE',  ( -0.3750000000000000555, 0.0000000000000000000, 3.984999999999998987 ) ) ;
#328 = FACE_OUTER_BOUND ( 'NONE', #122, .T. ) ;
#329 = DIRECTION ( 'NONE',  ( 1.000000000000000000, 0.0000000000000000000, 0.0000000000000000000 ) ) ;
ENDSEC;
END-ISO-10303-21;
