ISO-10303-21;
HEADER;
FILE_DESCRIPTION (( 'STEP AP214' ),
    '1' );
FILE_NAME ('83810.STEP',
    '2023-07-05T16:09:52',
    ( '' ),
    ( '' ),
    'SwSTEP 2.0',
    'SolidWorks 2023',
    '' );
FILE_SCHEMA (( 'AUTOMOTIVE_DESIGN' ));
ENDSEC;

DATA;
#1 = STYLED_ITEM ( 'NONE', ( #160 ), #42 ) ;
#2 =( NAMED_UNIT ( * ) PLANE_ANGLE_UNIT ( ) SI_UNIT ( $, .RADIAN. ) );
#3 = CYLINDRICAL_SURFACE ( 'NONE', #86, 0.1874999999999998890 ) ;
#4 = FILL_AREA_STYLE ('',( #62 ) ) ;
#5 = CARTESIAN_POINT ( 'NONE',  ( -6.123233995736766036E-17, 2.500000000000000000, 0.000000000000000000 ) ) ;
#6 = CARTESIAN_POINT ( 'NONE',  ( 0.000000000000000000, 0.000000000000000000, 0.000000000000000000 ) ) ;
#7 = FACE_OUTER_BOUND ( 'NONE', #119, .T. ) ;
#8 = CLOSED_SHELL ( 'NONE', ( #27, #20, #165 ) ) ;
#9 = APPLICATION_PROTOCOL_DEFINITION ( 'draft international standard', 'automotive_design', 1998, #136 ) ;
#10 = ORIENTED_EDGE ( 'NONE', *, *, #205, .F. ) ;
#11 =( NAMED_UNIT ( * ) SI_UNIT ( $, .STERADIAN. ) SOLID_ANGLE_UNIT ( ) );
#12 = LINE ( 'NONE', #125, #43 ) ;
#13 = CARTESIAN_POINT ( 'NONE',  ( -0.1874999999999994449, 0.1874999999999992506, 0.000000000000000000 ) ) ;
#14 =( GEOMETRIC_REPRESENTATION_CONTEXT ( 3 ) GLOBAL_UNCERTAINTY_ASSIGNED_CONTEXT ( ( #41 ) ) GLOBAL_UNIT_ASSIGNED_CONTEXT ( ( #161, #2, #207 ) ) REPRESENTATION_CONTEXT ( 'NONE', 'WORKASPACE' ) );
#15 = VERTEX_POINT ( 'NONE', #51 ) ;
#16 = PRODUCT_DEFINITION_FORMATION_WITH_SPECIFIED_SOURCE ( 'ANY', '', #46, .NOT_KNOWN. ) ;
#17 =( LENGTH_UNIT ( ) NAMED_UNIT ( * ) SI_UNIT ( $, .METRE. ) );
#18 = FILL_AREA_STYLE ('',( #100 ) ) ;
#19 = DIMENSIONAL_EXPONENTS ( 1.000000000000000000, 0.000000000000000000, 0.000000000000000000, 0.000000000000000000, 0.000000000000000000, 0.000000000000000000, 0.000000000000000000 ) ;
#20 = ADVANCED_FACE ( 'NONE', ( #96 ), #32, .T. ) ;
#21 = FILL_AREA_STYLE_COLOUR ( '', #148 ) ;
#22 =( LENGTH_UNIT ( ) NAMED_UNIT ( * ) SI_UNIT ( $, .METRE. ) );
#23 = COLOUR_RGB ( '',0.7921568627450980005, 0.8196078431372548767, 0.9333333333333333481 ) ;
#24 = DIRECTION ( 'NONE',  ( -1.000000000000000000, 0.000000000000000000, 0.000000000000000000 ) ) ;
#25 = MECHANICAL_DESIGN_GEOMETRIC_PRESENTATION_REPRESENTATION (  '', ( #167 ), #14 ) ;
#26 = AXIS2_PLACEMENT_3D ( 'NONE', #156, #93, #68 ) ;
#27 = ADVANCED_FACE ( 'NONE', ( #242 ), #39, .T. ) ;
#28 = LINE ( 'NONE', #170, #153 ) ;
#29 = AXIS2_PLACEMENT_3D ( 'NONE', #5, #61, #206 ) ;
#30 =( GEOMETRIC_REPRESENTATION_CONTEXT ( 3 ) GLOBAL_UNCERTAINTY_ASSIGNED_CONTEXT ( ( #106 ) ) GLOBAL_UNIT_ASSIGNED_CONTEXT ( ( #181, #173, #11 ) ) REPRESENTATION_CONTEXT ( 'NONE', 'WORKASPACE' ) );
#31 = EDGE_CURVE ( 'NONE', #223, #88, #105, .T. ) ;
#32 = PLANE ( 'NONE',  #159 ) ;
#33 = CARTESIAN_POINT ( 'NONE',  ( -0.1875000000000001110, 2.500000000000000000, 0.000000000000000000 ) ) ;
#34 = DIMENSIONAL_EXPONENTS ( 1.000000000000000000, 0.000000000000000000, 0.000000000000000000, 0.000000000000000000, 0.000000000000000000, 0.000000000000000000, 0.000000000000000000 ) ;
#35 = CLOSED_SHELL ( 'NONE', ( #263, #252, #258, #112 ) ) ;
#36 =( LENGTH_UNIT ( ) NAMED_UNIT ( * ) SI_UNIT ( $, .METRE. ) );
#37 = PRESENTATION_STYLE_ASSIGNMENT (( #75 ) ) ;
#38 = FILL_AREA_STYLE_COLOUR ( '', #218 ) ;
#39 = CONICAL_SURFACE ( 'NONE', #65, 39.37007874015762354, 0.7853981633974501664 ) ;
#40 = MANIFOLD_SOLID_BREP ( 'Revolve - Tool Body (Pointed)', #35 ) ;
#41 = UNCERTAINTY_MEASURE_WITH_UNIT (LENGTH_MEASURE( 1.000000000000000082E-05 ), #161, 'distance_accuracy_value', 'NONE');
#42 = MANIFOLD_SOLID_BREP ( 'Revolve - Cutting Edge', #8 ) ;
#43 = VECTOR ( 'NONE', #219, 39.37007874015748143 ) ;
#44 = DIRECTION ( 'NONE',  ( 0.000000000000000000, 0.000000000000000000, 1.000000000000000000 ) ) ;
#45 = AXIS2_PLACEMENT_3D ( 'NONE', #185, #80, #121 ) ;
#46 = PRODUCT ( '83810', '83810', '', ( #154 ) ) ;
#47 = VERTEX_POINT ( 'NONE', #13 ) ;
#48 = EDGE_CURVE ( 'NONE', #88, #129, #69, .T. ) ;
#49 = MECHANICAL_DESIGN_GEOMETRIC_PRESENTATION_REPRESENTATION (  '', ( #123 ), #78 ) ;
#50 = VERTEX_POINT ( 'NONE', #33 ) ;
#51 = CARTESIAN_POINT ( 'NONE',  ( 0.1874999999999999722, 0.1874999999999993339, 2.296212748401286801E-17 ) ) ;
#52 = DIRECTION ( 'NONE',  ( -1.483045034828085136E-16, 1.000000000000000000, -0.000000000000000000 ) ) ;
#53 = PRESENTATION_STYLE_ASSIGNMENT (( #245 ) ) ;
#54 = SURFACE_SIDE_STYLE ('',( #91 ) ) ;
#55 = LENGTH_MEASURE_WITH_UNIT ( LENGTH_MEASURE( 0.02539999999999999897 ), #17 );
#56 = PRESENTATION_LAYER_ASSIGNMENT (  '', '', ( #123 ) ) ;
#57 = SURFACE_SIDE_STYLE ('',( #118 ) ) ;
#58 = ORIENTED_EDGE ( 'NONE', *, *, #205, .T. ) ;
#59 =( NAMED_UNIT ( * ) SI_UNIT ( $, .STERADIAN. ) SOLID_ANGLE_UNIT ( ) );
#60 =( NAMED_UNIT ( * ) PLANE_ANGLE_UNIT ( ) SI_UNIT ( $, .RADIAN. ) );
#61 = DIRECTION ( 'NONE',  ( -1.483045034828085136E-16, 1.000000000000000000, -0.000000000000000000 ) ) ;
#62 = FILL_AREA_STYLE_COLOUR ( '', #23 ) ;
#63 = UNCERTAINTY_MEASURE_WITH_UNIT (LENGTH_MEASURE( 1.000000000000000082E-05 ), #231, 'distance_accuracy_value', 'NONE');
#64 = DIRECTION ( 'NONE',  ( -1.483045034828085136E-16, 1.000000000000000000, -0.000000000000000000 ) ) ;
#65 = AXIS2_PLACEMENT_3D ( 'NONE', #199, #82, #24 ) ;
#66 = EDGE_CURVE ( 'NONE', #47, #15, #212, .T. ) ;
#67 = CIRCLE ( 'NONE', #249, 0.1875000000000000555 ) ;
#68 = DIRECTION ( 'NONE',  ( 1.000000000000000000, 0.000000000000000000, 0.000000000000000000 ) ) ;
#69 = CIRCLE ( 'NONE', #144, 0.1874999999999999722 ) ;
#70 = LENGTH_MEASURE_WITH_UNIT ( LENGTH_MEASURE( 0.02539999999999999897 ), #113 );
#71 = FILL_AREA_STYLE_COLOUR ( '', #103 ) ;
#72 = DIRECTION ( 'NONE',  ( -1.000000000000000000, -1.821231995776178437E-16, 0.000000000000000000 ) ) ;
#73 = ORIENTED_EDGE ( 'NONE', *, *, #31, .T. ) ;
#74 = PLANE ( 'NONE',  #204 ) ;
#75 = SURFACE_STYLE_USAGE ( .BOTH. , #98 ) ;
#76 = CYLINDRICAL_SURFACE ( 'NONE', #29, 0.1874999999999998890 ) ;
#77 =( CONVERSION_BASED_UNIT ( 'INCH', #55 ) LENGTH_UNIT ( ) NAMED_UNIT ( #19 ) );
#78 =( GEOMETRIC_REPRESENTATION_CONTEXT ( 3 ) GLOBAL_UNCERTAINTY_ASSIGNED_CONTEXT ( ( #208 ) ) GLOBAL_UNIT_ASSIGNED_CONTEXT ( ( #163, #60, #233 ) ) REPRESENTATION_CONTEXT ( 'NONE', 'WORKASPACE' ) );
#79 = LENGTH_MEASURE_WITH_UNIT ( LENGTH_MEASURE( 0.02539999999999999897 ), #202 );
#80 = DIRECTION ( 'NONE',  ( -1.483045034828085136E-16, 1.000000000000000000, 0.000000000000000000 ) ) ;
#81 = SURFACE_SIDE_STYLE ('',( #111 ) ) ;
#82 = DIRECTION ( 'NONE',  ( 4.197443628821319441E-18, 1.000000000000000000, 0.000000000000000000 ) ) ;
#83 = DIRECTION ( 'NONE',  ( -1.483045034828085136E-16, 1.000000000000000000, -0.000000000000000000 ) ) ;
#84 = DIRECTION ( 'NONE',  ( -1.483045034828085136E-16, 1.000000000000000000, -0.000000000000000000 ) ) ;
#85 = DIRECTION ( 'NONE',  ( -0.7071067811865487940, 0.7071067811865462405, 0.000000000000000000 ) ) ;
#86 = AXIS2_PLACEMENT_3D ( 'NONE', #139, #83, #255 ) ;
#87 = STYLED_ITEM ( 'NONE', ( #53 ), #165 ) ;
#88 = VERTEX_POINT ( 'NONE', #116 ) ;
#89 = STYLED_ITEM ( 'NONE', ( #131 ), #20 ) ;
#90 = ORIENTED_EDGE ( 'NONE', *, *, #31, .F. ) ;
#91 = SURFACE_STYLE_FILL_AREA ( #240 ) ;
#92 = PRODUCT_DEFINITION_CONTEXT ( 'detailed design', #239, 'design' ) ;
#93 = DIRECTION ( 'NONE',  ( -4.197443628821319441E-18, -1.000000000000000000, -0.000000000000000000 ) ) ;
#94 = ORIENTED_EDGE ( 'NONE', *, *, #142, .T. ) ;
#95 = SURFACE_STYLE_USAGE ( .BOTH. , #57 ) ;
#96 = FACE_OUTER_BOUND ( 'NONE', #172, .T. ) ;
#97 = PRODUCT_DEFINITION ( 'UNKNOWN', '', #16, #92 ) ;
#98 = SURFACE_SIDE_STYLE ('',( #134 ) ) ;
#99 = DIMENSIONAL_EXPONENTS ( 1.000000000000000000, 0.000000000000000000, 0.000000000000000000, 0.000000000000000000, 0.000000000000000000, 0.000000000000000000, 0.000000000000000000 ) ;
#100 = FILL_AREA_STYLE_COLOUR ( '', #107 ) ;
#101 =( LENGTH_UNIT ( ) NAMED_UNIT ( * ) SI_UNIT ( $, .METRE. ) );
#102 = CARTESIAN_POINT ( 'NONE',  ( 1.652536861740677006E-16, 39.37007874015748143, 0.000000000000000000 ) ) ;
#103 = COLOUR_RGB ( '',1.000000000000000000, 0.000000000000000000, 0.000000000000000000 ) ;
#104 = LENGTH_MEASURE_WITH_UNIT ( LENGTH_MEASURE( 0.02539999999999999897 ), #22 );
#105 = LINE ( 'NONE', #6, #171 ) ;
#106 = UNCERTAINTY_MEASURE_WITH_UNIT (LENGTH_MEASURE( 1.000000000000000082E-05 ), #181, 'distance_accuracy_value', 'NONE');
#107 = COLOUR_RGB ( '',1.000000000000000000, 0.000000000000000000, 0.000000000000000000 ) ;
#108 = ORIENTED_EDGE ( 'NONE', *, *, #244, .F. ) ;
#109 = LINE ( 'NONE', #152, #114 ) ;
#110 = ORIENTED_EDGE ( 'NONE', *, *, #66, .F. ) ;
#111 = SURFACE_STYLE_FILL_AREA ( #253 ) ;
#112 = ADVANCED_FACE ( 'NONE', ( #137 ), #74, .F. ) ;
#113 =( LENGTH_UNIT ( ) NAMED_UNIT ( * ) SI_UNIT ( $, .METRE. ) );
#114 = VECTOR ( 'NONE', #52, 39.37007874015748143 ) ;
#115 = CARTESIAN_POINT ( 'NONE',  ( 7.870206804039943619E-19, 0.1874999999999993061, 0.000000000000000000 ) ) ;
#116 = CARTESIAN_POINT ( 'NONE',  ( -0.1874999999999999722, 0.1874999999999993061, 0.000000000000000000 ) ) ;
#117 = SURFACE_STYLE_USAGE ( .BOTH. , #54 ) ;
#118 = SURFACE_STYLE_FILL_AREA ( #174 ) ;
#119 = EDGE_LOOP ( 'NONE', ( #110, #226 ) ) ;
#120 = DIRECTION ( 'NONE',  ( -4.197443628821319441E-18, -1.000000000000000000, -0.000000000000000000 ) ) ;
#121 = DIRECTION ( 'NONE',  ( -1.000000000000000000, -1.483045034828085136E-16, 0.000000000000000000 ) ) ;
#122 = DIRECTION ( 'NONE',  ( 0.7071067811865487940, 0.7071067811865462405, 8.659560562354948882E-17 ) ) ;
#123 = STYLED_ITEM ( 'NONE', ( #203 ), #40 ) ;
#124 = ORIENTED_EDGE ( 'NONE', *, *, #194, .T. ) ;
#125 = CARTESIAN_POINT ( 'NONE',  ( -0.1874999999999999445, 2.500000000000000000, 0.000000000000000000 ) ) ;
#126 = SHAPE_DEFINITION_REPRESENTATION ( #150, #191 ) ;
#127 = ORIENTED_EDGE ( 'NONE', *, *, #194, .F. ) ;
#128 = DIRECTION ( 'NONE',  ( 1.000000000000000000, 0.000000000000000000, 0.000000000000000000 ) ) ;
#129 = VERTEX_POINT ( 'NONE', #247 ) ;
#130 = CARTESIAN_POINT ( 'NONE',  ( 2.817218243466271259E-16, 0.1874999999999993061, 0.000000000000000000 ) ) ;
#131 = PRESENTATION_STYLE_ASSIGNMENT (( #117 ) ) ;
#132 = PRESENTATION_LAYER_ASSIGNMENT (  '', '', ( #167 ) ) ;
#133 =( NAMED_UNIT ( * ) PLANE_ANGLE_UNIT ( ) SI_UNIT ( $, .RADIAN. ) );
#134 = SURFACE_STYLE_FILL_AREA ( #18 ) ;
#135 = DIRECTION ( 'NONE',  ( -1.000000000000000000, 0.000000000000000000, 0.000000000000000000 ) ) ;
#136 = APPLICATION_CONTEXT ( 'automotive_design' ) ;
#137 = FACE_OUTER_BOUND ( 'NONE', #246, .T. ) ;
#138 = ORIENTED_EDGE ( 'NONE', *, *, #244, .T. ) ;
#139 = CARTESIAN_POINT ( 'NONE',  ( -6.123233995736766036E-17, 2.500000000000000000, 0.000000000000000000 ) ) ;
#140 = CARTESIAN_POINT ( 'NONE',  ( 0.000000000000000000, 0.000000000000000000, 0.000000000000000000 ) ) ;
#141 = MECHANICAL_DESIGN_GEOMETRIC_PRESENTATION_REPRESENTATION (  '', ( #87 ), #147 ) ;
#142 = EDGE_CURVE ( 'NONE', #15, #47, #254, .T. ) ;
#143 = SURFACE_STYLE_FILL_AREA ( #4 ) ;
#144 = AXIS2_PLACEMENT_3D ( 'NONE', #198, #120, #128 ) ;
#145 = ORIENTED_EDGE ( 'NONE', *, *, #190, .F. ) ;
#146 = CARTESIAN_POINT ( 'NONE',  ( 0.000000000000000000, 0.000000000000000000, 0.000000000000000000 ) ) ;
#147 =( GEOMETRIC_REPRESENTATION_CONTEXT ( 3 ) GLOBAL_UNCERTAINTY_ASSIGNED_CONTEXT ( ( #234 ) ) GLOBAL_UNIT_ASSIGNED_CONTEXT ( ( #77, #133, #59 ) ) REPRESENTATION_CONTEXT ( 'NONE', 'WORKASPACE' ) );
#148 = COLOUR_RGB ( '',1.000000000000000000, 0.000000000000000000, 0.000000000000000000 ) ;
#149 = AXIS2_PLACEMENT_3D ( 'NONE', #182, #84, #135 ) ;
#150 = PRODUCT_DEFINITION_SHAPE ( 'NONE', 'NONE',  #97 ) ;
#151 = DIRECTION ( 'NONE',  ( -1.000000000000000000, 0.000000000000000000, 0.000000000000000000 ) ) ;
#152 = CARTESIAN_POINT ( 'NONE',  ( 0.1874999999999998057, 2.500000000000000000, 2.296212748401285877E-17 ) ) ;
#153 = VECTOR ( 'NONE', #122, 39.37007874015748143 ) ;
#154 = PRODUCT_CONTEXT ( 'NONE', #136, 'mechanical' ) ;
#155 = DIRECTION ( 'NONE',  ( -1.000000000000000000, 4.197443628821319441E-18, 0.000000000000000000 ) ) ;
#156 = CARTESIAN_POINT ( 'NONE',  ( 7.870206804039944582E-19, 0.1874999999999993061, 0.000000000000000000 ) ) ;
#157 = FACE_OUTER_BOUND ( 'NONE', #262, .T. ) ;
#158 = ORIENTED_EDGE ( 'NONE', *, *, #211, .T. ) ;
#159 = AXIS2_PLACEMENT_3D ( 'NONE', #115, #179, #155 ) ;
#160 = PRESENTATION_STYLE_ASSIGNMENT (( #95 ) ) ;
#161 =( CONVERSION_BASED_UNIT ( 'INCH', #79 ) LENGTH_UNIT ( ) NAMED_UNIT ( #228 ) );
#162 = LENGTH_MEASURE_WITH_UNIT ( LENGTH_MEASURE( 0.02539999999999999897 ), #101 );
#163 =( CONVERSION_BASED_UNIT ( 'INCH', #104 ) LENGTH_UNIT ( ) NAMED_UNIT ( #260 ) );
#164 =( NAMED_UNIT ( * ) PLANE_ANGLE_UNIT ( ) SI_UNIT ( $, .RADIAN. ) );
#165 = ADVANCED_FACE ( 'NONE', ( #157 ), #224, .T. ) ;
#166 = DIRECTION ( 'NONE',  ( -1.000000000000000000, 0.000000000000000000, 0.000000000000000000 ) ) ;
#167 = STYLED_ITEM ( 'NONE', ( #37 ), #27 ) ;
#168 = SURFACE_SIDE_STYLE ('',( #143 ) ) ;
#169 = UNCERTAINTY_MEASURE_WITH_UNIT (LENGTH_MEASURE( 1.000000000000000082E-05 ), #183, 'distance_accuracy_value', 'NONE');
#170 = CARTESIAN_POINT ( 'NONE',  ( 0.000000000000000000, 0.000000000000000000, 0.000000000000000000 ) ) ;
#171 = VECTOR ( 'NONE', #85, 39.37007874015748143 ) ;
#172 = EDGE_LOOP ( 'NONE', ( #259, #127 ) ) ;
#173 =( NAMED_UNIT ( * ) PLANE_ANGLE_UNIT ( ) SI_UNIT ( $, .RADIAN. ) );
#174 = FILL_AREA_STYLE ('',( #38 ) ) ;
#175 = ORIENTED_EDGE ( 'NONE', *, *, #190, .T. ) ;
#176 = DIRECTION ( 'NONE',  ( -1.483045034828085136E-16, 1.000000000000000000, -0.000000000000000000 ) ) ;
#177 = EDGE_LOOP ( 'NONE', ( #10, #94, #175, #215 ) ) ;
#178 = DIRECTION ( 'NONE',  ( -1.000000000000000000, -1.821231995776178437E-16, 0.000000000000000000 ) ) ;
#179 = DIRECTION ( 'NONE',  ( 4.197443628821319441E-18, 1.000000000000000000, 0.000000000000000000 ) ) ;
#180 = PLANE ( 'NONE',  #45 ) ;
#181 =( CONVERSION_BASED_UNIT ( 'INCH', #221 ) LENGTH_UNIT ( ) NAMED_UNIT ( #265 ) );
#182 = CARTESIAN_POINT ( 'NONE',  ( -6.123233995736764803E-17, 2.500000000000000000, 0.000000000000000000 ) ) ;
#183 =( CONVERSION_BASED_UNIT ( 'INCH', #70 ) LENGTH_UNIT ( ) NAMED_UNIT ( #99 ) );
#184 = EDGE_CURVE ( 'NONE', #195, #50, #67, .T. ) ;
#185 = CARTESIAN_POINT ( 'NONE',  ( 2.817218243466271259E-16, 0.1874999999999993061, 0.000000000000000000 ) ) ;
#186 = DIRECTION ( 'NONE',  ( 4.197443628821319441E-18, 1.000000000000000000, 0.000000000000000000 ) ) ;
#187 =( GEOMETRIC_REPRESENTATION_CONTEXT ( 3 ) GLOBAL_UNCERTAINTY_ASSIGNED_CONTEXT ( ( #63 ) ) GLOBAL_UNIT_ASSIGNED_CONTEXT ( ( #231, #164, #209 ) ) REPRESENTATION_CONTEXT ( 'NONE', 'WORKASPACE' ) );
#188 = CARTESIAN_POINT ( 'NONE',  ( -6.123233995736764803E-17, 2.500000000000000000, 0.000000000000000000 ) ) ;
#189 = PRESENTATION_LAYER_ASSIGNMENT (  '', '', ( #1 ) ) ;
#190 = EDGE_CURVE ( 'NONE', #47, #50, #12, .T. ) ;
#191 = ADVANCED_BREP_SHAPE_REPRESENTATION ( '83810', ( #42, #40, #257 ), #187 ) ;
#192 = CIRCLE ( 'NONE', #26, 0.1874999999999999722 ) ;
#193 = ORIENTED_EDGE ( 'NONE', *, *, #48, .T. ) ;
#194 = EDGE_CURVE ( 'NONE', #129, #88, #192, .T. ) ;
#195 = VERTEX_POINT ( 'NONE', #243 ) ;
#196 = EDGE_LOOP ( 'NONE', ( #217, #58, #108, #145 ) ) ;
#197 = MECHANICAL_DESIGN_GEOMETRIC_PRESENTATION_REPRESENTATION (  '', ( #89 ), #30 ) ;
#198 = CARTESIAN_POINT ( 'NONE',  ( 7.870206804039944582E-19, 0.1874999999999993061, 0.000000000000000000 ) ) ;
#199 = CARTESIAN_POINT ( 'NONE',  ( 1.652536861740677006E-16, 39.37007874015748143, 0.000000000000000000 ) ) ;
#200 = FACE_OUTER_BOUND ( 'NONE', #196, .T. ) ;
#201 = CARTESIAN_POINT ( 'NONE',  ( 0.1874999999999999722, 2.500000000000000000, 0.000000000000000000 ) ) ;
#202 =( LENGTH_UNIT ( ) NAMED_UNIT ( * ) SI_UNIT ( $, .METRE. ) );
#203 = PRESENTATION_STYLE_ASSIGNMENT (( #230 ) ) ;
#204 = AXIS2_PLACEMENT_3D ( 'NONE', #201, #220, #229 ) ;
#205 = EDGE_CURVE ( 'NONE', #15, #195, #109, .T. ) ;
#206 = DIRECTION ( 'NONE',  ( -1.000000000000000000, 0.000000000000000000, 0.000000000000000000 ) ) ;
#207 =( NAMED_UNIT ( * ) SI_UNIT ( $, .STERADIAN. ) SOLID_ANGLE_UNIT ( ) );
#208 = UNCERTAINTY_MEASURE_WITH_UNIT (LENGTH_MEASURE( 1.000000000000000082E-05 ), #163, 'distance_accuracy_value', 'NONE');
#209 =( NAMED_UNIT ( * ) SI_UNIT ( $, .STERADIAN. ) SOLID_ANGLE_UNIT ( ) );
#210 = AXIS2_PLACEMENT_3D ( 'NONE', #102, #186, #166 ) ;
#211 = EDGE_CURVE ( 'NONE', #223, #129, #28, .T. ) ;
#212 = CIRCLE ( 'NONE', #235, 0.1874999999999996947 ) ;
#213 = CIRCLE ( 'NONE', #149, 0.1875000000000000555 ) ;
#214 = DIRECTION ( 'NONE',  ( 1.000000000000000000, 0.000000000000000000, 0.000000000000000000 ) ) ;
#215 = ORIENTED_EDGE ( 'NONE', *, *, #184, .F. ) ;
#216 = APPLICATION_PROTOCOL_DEFINITION ( 'draft international standard', 'automotive_design', 1998, #239 ) ;
#217 = ORIENTED_EDGE ( 'NONE', *, *, #66, .T. ) ;
#218 = COLOUR_RGB ( '',0.7921568627450980005, 0.8196078431372548767, 0.9333333333333333481 ) ;
#219 = DIRECTION ( 'NONE',  ( -1.483045034828085136E-16, 1.000000000000000000, -0.000000000000000000 ) ) ;
#220 = DIRECTION ( 'NONE',  ( 1.483045034828085136E-16, -1.000000000000000000, 0.000000000000000000 ) ) ;
#221 = LENGTH_MEASURE_WITH_UNIT ( LENGTH_MEASURE( 0.02539999999999999897 ), #36 );
#222 = PRODUCT_RELATED_PRODUCT_CATEGORY ( 'part', '', ( #46 ) ) ;
#223 = VERTEX_POINT ( 'NONE', #140 ) ;
#224 = CONICAL_SURFACE ( 'NONE', #210, 39.37007874015762354, 0.7853981633974501664 ) ;
#225 = DIRECTION ( 'NONE',  ( -1.483045034828085136E-16, 1.000000000000000000, -0.000000000000000000 ) ) ;
#226 = ORIENTED_EDGE ( 'NONE', *, *, #142, .F. ) ;
#227 = FACE_OUTER_BOUND ( 'NONE', #177, .T. ) ;
#228 = DIMENSIONAL_EXPONENTS ( 1.000000000000000000, 0.000000000000000000, 0.000000000000000000, 0.000000000000000000, 0.000000000000000000, 0.000000000000000000, 0.000000000000000000 ) ;
#229 = DIRECTION ( 'NONE',  ( 1.000000000000000000, 1.483045034828085136E-16, 0.000000000000000000 ) ) ;
#230 = SURFACE_STYLE_USAGE ( .BOTH. , #168 ) ;
#231 =( CONVERSION_BASED_UNIT ( 'INCH', #162 ) LENGTH_UNIT ( ) NAMED_UNIT ( #34 ) );
#232 = AXIS2_PLACEMENT_3D ( 'NONE', #130, #176, #72 ) ;
#233 =( NAMED_UNIT ( * ) SI_UNIT ( $, .STERADIAN. ) SOLID_ANGLE_UNIT ( ) );
#234 = UNCERTAINTY_MEASURE_WITH_UNIT (LENGTH_MEASURE( 1.000000000000000082E-05 ), #77, 'distance_accuracy_value', 'NONE');
#235 = AXIS2_PLACEMENT_3D ( 'NONE', #264, #225, #178 ) ;
#236 = EDGE_LOOP ( 'NONE', ( #90, #158, #124 ) ) ;
#237 = MECHANICAL_DESIGN_GEOMETRIC_PRESENTATION_REPRESENTATION (  '', ( #1 ), #261 ) ;
#238 = PRESENTATION_LAYER_ASSIGNMENT (  '', '', ( #87 ) ) ;
#239 = APPLICATION_CONTEXT ( 'automotive_design' ) ;
#240 = FILL_AREA_STYLE ('',( #71 ) ) ;
#241 =( NAMED_UNIT ( * ) SI_UNIT ( $, .STERADIAN. ) SOLID_ANGLE_UNIT ( ) );
#242 = FACE_OUTER_BOUND ( 'NONE', #236, .T. ) ;
#243 = CARTESIAN_POINT ( 'NONE',  ( 0.1874999999999999722, 2.500000000000000000, 2.296212748401286801E-17 ) ) ;
#244 = EDGE_CURVE ( 'NONE', #50, #195, #213, .T. ) ;
#245 = SURFACE_STYLE_USAGE ( .BOTH. , #81 ) ;
#246 = EDGE_LOOP ( 'NONE', ( #138, #251 ) ) ;
#247 = CARTESIAN_POINT ( 'NONE',  ( 0.1874999999999999722, 0.1874999999999993061, 2.296212748401287109E-17 ) ) ;
#248 = ORIENTED_EDGE ( 'NONE', *, *, #211, .F. ) ;
#249 = AXIS2_PLACEMENT_3D ( 'NONE', #188, #64, #151 ) ;
#250 =( NAMED_UNIT ( * ) PLANE_ANGLE_UNIT ( ) SI_UNIT ( $, .RADIAN. ) );
#251 = ORIENTED_EDGE ( 'NONE', *, *, #184, .T. ) ;
#252 = ADVANCED_FACE ( 'NONE', ( #7 ), #180, .F. ) ;
#253 = FILL_AREA_STYLE ('',( #21 ) ) ;
#254 = CIRCLE ( 'NONE', #232, 0.1874999999999996947 ) ;
#255 = DIRECTION ( 'NONE',  ( -1.000000000000000000, 0.000000000000000000, 0.000000000000000000 ) ) ;
#256 = PRESENTATION_LAYER_ASSIGNMENT (  '', '', ( #89 ) ) ;
#257 = AXIS2_PLACEMENT_3D ( 'NONE', #146, #44, #214 ) ;
#258 = ADVANCED_FACE ( 'NONE', ( #227 ), #3, .T. ) ;
#259 = ORIENTED_EDGE ( 'NONE', *, *, #48, .F. ) ;
#260 = DIMENSIONAL_EXPONENTS ( 1.000000000000000000, 0.000000000000000000, 0.000000000000000000, 0.000000000000000000, 0.000000000000000000, 0.000000000000000000, 0.000000000000000000 ) ;
#261 =( GEOMETRIC_REPRESENTATION_CONTEXT ( 3 ) GLOBAL_UNCERTAINTY_ASSIGNED_CONTEXT ( ( #169 ) ) GLOBAL_UNIT_ASSIGNED_CONTEXT ( ( #183, #250, #241 ) ) REPRESENTATION_CONTEXT ( 'NONE', 'WORKASPACE' ) );
#262 = EDGE_LOOP ( 'NONE', ( #248, #73, #193 ) ) ;
#263 = ADVANCED_FACE ( 'NONE', ( #200 ), #76, .T. ) ;
#264 = CARTESIAN_POINT ( 'NONE',  ( 2.817218243466271259E-16, 0.1874999999999993061, 0.000000000000000000 ) ) ;
#265 = DIMENSIONAL_EXPONENTS ( 1.000000000000000000, 0.000000000000000000, 0.000000000000000000, 0.000000000000000000, 0.000000000000000000, 0.000000000000000000, 0.000000000000000000 ) ;
ENDSEC;
END-ISO-10303-21;
