ISO-10303-21;
HEADER;
FILE_DESCRIPTION (( 'STEP AP214' ),
    '1' );
FILE_NAME ('Micro_AEMM-035-4X.STEP',
    '2022-03-15T14:24:58',
    ( '' ),
    ( '' ),
    'SwSTEP 2.0',
    'SolidWorks 2022',
    '' );
FILE_SCHEMA (( 'AUTOMOTIVE_DESIGN' ));
ENDSEC;

DATA;
#1 = ORIENTED_EDGE ( 'NONE', *, *, #168, .F. ) ;
#2 = ORIENTED_EDGE ( 'NONE', *, *, #107, .T. ) ;
#3 = EDGE_CURVE ( 'NONE', #232, #67, #145, .T. ) ;
#4 = CARTESIAN_POINT ( 'NONE',  ( 8.244196035928968872E-17, 0.000000000000000000, 0.6731896936871021309 ) ) ;
#5 = DIRECTION ( 'NONE',  ( 1.000000000000000000, 0.000000000000000000, 0.000000000000000000 ) ) ;
#6 = ORIENTED_EDGE ( 'NONE', *, *, #31, .T. ) ;
#7 = CARTESIAN_POINT ( 'NONE',  ( -0.1031100000000002570, 0.000000000000000000, 2.244094000000000033 ) ) ;
#8 = DIRECTION ( 'NONE',  ( -1.000000000000000000, 0.000000000000000000, 0.000000000000000000 ) ) ;
#9 = DIRECTION ( 'NONE',  ( -1.224646799147353207E-16, -0.000000000000000000, -1.000000000000000000 ) ) ;
#10 = DIRECTION ( 'NONE',  ( -0.000000000000000000, -0.000000000000000000, -1.000000000000000000 ) ) ;
#11 = CARTESIAN_POINT ( 'NONE',  ( 0.000000000000000000, 0.000000000000000000, 2.229093999999999465 ) ) ;
#12 = CARTESIAN_POINT ( 'NONE',  ( -0.06882860249999996072, 1.144668805943522018E-17, 0.3937009999999999676 ) ) ;
#13 =( CONVERSION_BASED_UNIT ( 'INCH', #204 ) LENGTH_UNIT ( ) NAMED_UNIT ( #203 ) );
#14 = FACE_OUTER_BOUND ( 'NONE', #299, .T. ) ;
#15 =( NAMED_UNIT ( * ) PLANE_ANGLE_UNIT ( ) SI_UNIT ( $, .RADIAN. ) );
#16 = ADVANCED_BREP_SHAPE_REPRESENTATION ( 'Micro_AEMM-035-4X', ( #254, #222 ), #72 ) ;
#17 = CIRCLE ( 'NONE', #150, 0.06882860250000000235 ) ;
#18 = CIRCLE ( 'NONE', #292, 0.06882860250000000235 ) ;
#19 = SURFACE_STYLE_FILL_AREA ( #158 ) ;
#20 = DIRECTION ( 'NONE',  ( 0.7071067811865358044, 8.659560562354788645E-17, -0.7071067811865590080 ) ) ;
#21 = ORIENTED_EDGE ( 'NONE', *, *, #3, .T. ) ;
#22 = CONICAL_SURFACE ( 'NONE', #33, 0.06882860250000000235, 0.1745329251994338360 ) ;
#23 = VERTEX_POINT ( 'NONE', #136 ) ;
#24 = DIRECTION ( 'NONE',  ( -1.224646799147353207E-16, -0.000000000000000000, -1.000000000000000000 ) ) ;
#25 = CARTESIAN_POINT ( 'NONE',  ( 1.032263699263193969E-33, 0.000000000000000000, 8.429072774141052587E-18 ) ) ;
#26 = VECTOR ( 'NONE', #106, 39.37007874015748854 ) ;
#27 = AXIS2_PLACEMENT_3D ( 'NONE', #295, #267, #248 ) ;
#28 = CARTESIAN_POINT ( 'NONE',  ( 0.1181100000000000066, 1.446430334472939084E-17, 2.229093999999999465 ) ) ;
#29 = CARTESIAN_POINT ( 'NONE',  ( 0.000000000000000000, 0.000000000000000000, 2.244094000000000033 ) ) ;
#30 = EDGE_CURVE ( 'NONE', #271, #163, #54, .T. ) ;
#31 = EDGE_CURVE ( 'NONE', #210, #163, #187, .T. ) ;
#32 = CARTESIAN_POINT ( 'NONE',  ( -0.1181100000000000066, 0.000000000000000000, 2.244094000000000033 ) ) ;
#33 = AXIS2_PLACEMENT_3D ( 'NONE', #34, #173, #215 ) ;
#34 = CARTESIAN_POINT ( 'NONE',  ( 4.821446694711121291E-17, 0.000000000000000000, 0.3937009999999999676 ) ) ;
#35 = CIRCLE ( 'NONE', #188, 0.1181100000000000066 ) ;
#36 = DIRECTION ( 'NONE',  ( 1.224646799147353207E-16, 0.000000000000000000, 1.000000000000000000 ) ) ;
#37 = ORIENTED_EDGE ( 'NONE', *, *, #161, .T. ) ;
#38 = APPLICATION_CONTEXT ( 'automotive_design' ) ;
#39 = PRODUCT_RELATED_PRODUCT_CATEGORY ( 'part', '', ( #115 ) ) ;
#40 = CARTESIAN_POINT ( 'NONE',  ( -0.1031100000000002570, 0.000000000000000000, 2.244094000000000033 ) ) ;
#41 = AXIS2_PLACEMENT_3D ( 'NONE', #293, #132, #157 ) ;
#42 = EDGE_CURVE ( 'NONE', #212, #92, #17, .T. ) ;
#43 =( CONVERSION_BASED_UNIT ( 'INCH', #231 ) LENGTH_UNIT ( ) NAMED_UNIT ( #159 ) );
#44 = CARTESIAN_POINT ( 'NONE',  ( 0.1031100000000002570, 1.262733314600838667E-17, 2.244094000000000033 ) ) ;
#45 = APPLICATION_PROTOCOL_DEFINITION ( 'draft international standard', 'automotive_design', 1998, #211 ) ;
#46 = ORIENTED_EDGE ( 'NONE', *, *, #128, .F. ) ;
#47 = EDGE_LOOP ( 'NONE', ( #184, #167, #223, #61 ) ) ;
#48 = AXIS2_PLACEMENT_3D ( 'NONE', #135, #112, #197 ) ;
#49 = CARTESIAN_POINT ( 'NONE',  ( 1.032263699263193969E-33, 0.000000000000000000, 8.429072774141052587E-18 ) ) ;
#50 = EDGE_CURVE ( 'NONE', #92, #212, #90, .T. ) ;
#51 = ORIENTED_EDGE ( 'NONE', *, *, #62, .F. ) ;
#52 = UNCERTAINTY_MEASURE_WITH_UNIT (LENGTH_MEASURE( 1.000000000000000082E-05 ), #13, 'distance_accuracy_value', 'NONE');
#53 = CARTESIAN_POINT ( 'NONE',  ( -0.1181100000000000066, 0.000000000000000000, 2.229093999999999465 ) ) ;
#54 = CIRCLE ( 'NONE', #219, 0.1181100000000000066 ) ;
#55 = FACE_OUTER_BOUND ( 'NONE', #296, .T. ) ;
#56 = CARTESIAN_POINT ( 'NONE',  ( 4.821446694711121291E-17, 0.000000000000000000, 0.3937009999999999676 ) ) ;
#57 = CYLINDRICAL_SURFACE ( 'NONE', #102, 0.06882860250000000235 ) ;
#58 = AXIS2_PLACEMENT_3D ( 'NONE', #78, #291, #169 ) ;
#59 = DIRECTION ( 'NONE',  ( 1.000000000000000000, 0.000000000000000000, -0.000000000000000000 ) ) ;
#60 = CARTESIAN_POINT ( 'NONE',  ( -0.1181099999999999234, 0.000000000000000000, 0.6731896936871021309 ) ) ;
#61 = ORIENTED_EDGE ( 'NONE', *, *, #50, .F. ) ;
#62 = EDGE_CURVE ( 'NONE', #253, #212, #213, .T. ) ;
#63 = SURFACE_STYLE_USAGE ( .BOTH. , #64 ) ;
#64 = SURFACE_SIDE_STYLE ('',( #86 ) ) ;
#65 = EDGE_CURVE ( 'NONE', #253, #271, #189, .T. ) ;
#66 = LINE ( 'NONE', #44, #139 ) ;
#67 = VERTEX_POINT ( 'NONE', #7 ) ;
#68 = EDGE_LOOP ( 'NONE', ( #277, #37, #164, #51 ) ) ;
#69 =( LENGTH_UNIT ( ) NAMED_UNIT ( * ) SI_UNIT ( $, .METRE. ) );
#70 = CARTESIAN_POINT ( 'NONE',  ( 0.000000000000000000, 0.000000000000000000, 2.244094000000000033 ) ) ;
#71 = AXIS2_PLACEMENT_3D ( 'NONE', #242, #266, #194 ) ;
#72 =( GEOMETRIC_REPRESENTATION_CONTEXT ( 3 ) GLOBAL_UNCERTAINTY_ASSIGNED_CONTEXT ( ( #238 ) ) GLOBAL_UNIT_ASSIGNED_CONTEXT ( ( #250, #15, #89 ) ) REPRESENTATION_CONTEXT ( 'NONE', 'WORKASPACE' ) );
#73 = CIRCLE ( 'NONE', #71, 0.1031100000000002570 ) ;
#74 = ORIENTED_EDGE ( 'NONE', *, *, #119, .F. ) ;
#75 = FACE_OUTER_BOUND ( 'NONE', #68, .T. ) ;
#76 = DIRECTION ( 'NONE',  ( -1.000000000000000000, 0.000000000000000000, 0.000000000000000000 ) ) ;
#77 = FACE_OUTER_BOUND ( 'NONE', #201, .T. ) ;
#78 = CARTESIAN_POINT ( 'NONE',  ( 8.244196035928968872E-17, 0.000000000000000000, 0.6731896936871021309 ) ) ;
#79 = DIRECTION ( 'NONE',  ( -1.000000000000000000, 0.000000000000000000, 1.224646799147353454E-16 ) ) ;
#80 = CIRCLE ( 'NONE', #58, 0.1181100000000000066 ) ;
#81 =( NAMED_UNIT ( * ) PLANE_ANGLE_UNIT ( ) SI_UNIT ( $, .RADIAN. ) );
#82 = FILL_AREA_STYLE_COLOUR ( '', #282 ) ;
#83 = ORIENTED_EDGE ( 'NONE', *, *, #84, .T. ) ;
#84 = EDGE_CURVE ( 'NONE', #232, #210, #66, .T. ) ;
#85 = EDGE_CURVE ( 'NONE', #253, #23, #234, .T. ) ;
#86 = SURFACE_STYLE_FILL_AREA ( #272 ) ;
#87 = ORIENTED_EDGE ( 'NONE', *, *, #42, .T. ) ;
#88 = AXIS2_PLACEMENT_3D ( 'NONE', #289, #36, #103 ) ;
#89 =( NAMED_UNIT ( * ) SI_UNIT ( $, .STERADIAN. ) SOLID_ANGLE_UNIT ( ) );
#90 = CIRCLE ( 'NONE', #270, 0.06882860250000000235 ) ;
#91 = EDGE_LOOP ( 'NONE', ( #160, #21 ) ) ;
#92 = VERTEX_POINT ( 'NONE', #104 ) ;
#93 = DIRECTION ( 'NONE',  ( -1.000000000000000000, 0.000000000000000000, 1.224646799147353454E-16 ) ) ;
#94 = DIRECTION ( 'NONE',  ( -1.224646799147353207E-16, -0.000000000000000000, -1.000000000000000000 ) ) ;
#95 = CARTESIAN_POINT ( 'NONE',  ( -0.06882860250000000235, 0.000000000000000000, 8.429072774141052587E-18 ) ) ;
#96 = VECTOR ( 'NONE', #10, 39.37007874015748143 ) ;
#97 = ORIENTED_EDGE ( 'NONE', *, *, #30, .T. ) ;
#98 = ADVANCED_FACE ( 'NONE', ( #75 ), #57, .T. ) ;
#99 = FACE_OUTER_BOUND ( 'NONE', #91, .T. ) ;
#100 = CARTESIAN_POINT ( 'NONE',  ( 0.000000000000000000, 0.000000000000000000, 2.229093999999999465 ) ) ;
#101 =( GEOMETRIC_REPRESENTATION_CONTEXT ( 3 ) GLOBAL_UNCERTAINTY_ASSIGNED_CONTEXT ( ( #52 ) ) GLOBAL_UNIT_ASSIGNED_CONTEXT ( ( #13, #81, #127 ) ) REPRESENTATION_CONTEXT ( 'NONE', 'WORKASPACE' ) );
#102 = AXIS2_PLACEMENT_3D ( 'NONE', #174, #143, #79 ) ;
#103 = DIRECTION ( 'NONE',  ( 1.000000000000000000, 0.000000000000000000, 0.000000000000000000 ) ) ;
#104 = CARTESIAN_POINT ( 'NONE',  ( 0.06882860250000000235, 8.429072774141052587E-18, 0.000000000000000000 ) ) ;
#105 = CARTESIAN_POINT ( 'NONE',  ( 0.000000000000000000, 0.000000000000000000, 2.244094000000000033 ) ) ;
#106 = DIRECTION ( 'NONE',  ( -0.7071067811865358044, 0.000000000000000000, -0.7071067811865590080 ) ) ;
#107 = EDGE_CURVE ( 'NONE', #163, #271, #80, .T. ) ;
#108 = AXIS2_PLACEMENT_3D ( 'NONE', #221, #287, #76 ) ;
#109 = COLOUR_RGB ( '',0.7921568627450980005, 0.8196078431372548767, 0.9333333333333333481 ) ;
#110 =( NAMED_UNIT ( * ) SI_UNIT ( $, .STERADIAN. ) SOLID_ANGLE_UNIT ( ) );
#111 = ORIENTED_EDGE ( 'NONE', *, *, #85, .F. ) ;
#112 = DIRECTION ( 'NONE',  ( -1.224646799147353207E-16, -0.000000000000000000, -1.000000000000000000 ) ) ;
#113 = STYLED_ITEM ( 'NONE', ( #255 ), #16 ) ;
#114 = EDGE_LOOP ( 'NONE', ( #87, #166 ) ) ;
#115 = PRODUCT ( 'Micro_AEMM-035-4X', 'Micro_AEMM-035-4X', '', ( #134 ) ) ;
#116 = DIRECTION ( 'NONE',  ( 0.000000000000000000, 0.000000000000000000, 1.000000000000000000 ) ) ;
#117 = DIRECTION ( 'NONE',  ( -1.000000000000000000, 0.000000000000000000, 1.224646799147353454E-16 ) ) ;
#118 = DIRECTION ( 'NONE',  ( -1.224646799147353207E-16, -0.000000000000000000, -1.000000000000000000 ) ) ;
#119 = EDGE_CURVE ( 'NONE', #67, #232, #73, .T. ) ;
#120 = UNCERTAINTY_MEASURE_WITH_UNIT (LENGTH_MEASURE( 1.000000000000000082E-05 ), #43, 'distance_accuracy_value', 'NONE');
#121 = CARTESIAN_POINT ( 'NONE',  ( 0.06882860250000005786, 0.000000000000000000, 0.3937009999999999676 ) ) ;
#122 = PLANE ( 'NONE',  #27 ) ;
#123 = PLANE ( 'NONE',  #246 ) ;
#124 = CONICAL_SURFACE ( 'NONE', #108, 0.1031100000000002570, 0.7853981633974318477 ) ;
#125 = DIRECTION ( 'NONE',  ( 0.000000000000000000, 0.000000000000000000, -1.000000000000000000 ) ) ;
#126 = DIRECTION ( 'NONE',  ( 0.1736481776669313304, 0.000000000000000000, 0.9848077530122077983 ) ) ;
#127 =( NAMED_UNIT ( * ) SI_UNIT ( $, .STERADIAN. ) SOLID_ANGLE_UNIT ( ) );
#128 = EDGE_CURVE ( 'NONE', #208, #210, #35, .T. ) ;
#129 = ORIENTED_EDGE ( 'NONE', *, *, #128, .T. ) ;
#130 = DIRECTION ( 'NONE',  ( -0.000000000000000000, -0.000000000000000000, -1.000000000000000000 ) ) ;
#131 =( GEOMETRIC_REPRESENTATION_CONTEXT ( 3 ) GLOBAL_UNCERTAINTY_ASSIGNED_CONTEXT ( ( #120 ) ) GLOBAL_UNIT_ASSIGNED_CONTEXT ( ( #43, #162, #110 ) ) REPRESENTATION_CONTEXT ( 'NONE', 'WORKASPACE' ) );
#132 = DIRECTION ( 'NONE',  ( -0.000000000000000000, -0.000000000000000000, -1.000000000000000000 ) ) ;
#133 = ORIENTED_EDGE ( 'NONE', *, *, #168, .T. ) ;
#134 = PRODUCT_CONTEXT ( 'NONE', #38, 'mechanical' ) ;
#135 = CARTESIAN_POINT ( 'NONE',  ( 4.821446694711121291E-17, 0.000000000000000000, 0.3937009999999999676 ) ) ;
#136 = CARTESIAN_POINT ( 'NONE',  ( 0.06882860250000005786, 0.000000000000000000, 0.3937009999999999676 ) ) ;
#137 = CONICAL_SURFACE ( 'NONE', #226, 0.1031100000000002570, 0.7853981633974318477 ) ;
#138 = EDGE_LOOP ( 'NONE', ( #129, #6, #178, #1 ) ) ;
#139 = VECTOR ( 'NONE', #20, 39.37007874015748854 ) ;
#140 = SHAPE_DEFINITION_REPRESENTATION ( #243, #16 ) ;
#141 = ORIENTED_EDGE ( 'NONE', *, *, #65, .T. ) ;
#142 = CARTESIAN_POINT ( 'NONE',  ( 0.1181100000000000066, 1.446430334472939084E-17, 2.244094000000000033 ) ) ;
#143 = DIRECTION ( 'NONE',  ( -1.224646799147353207E-16, -0.000000000000000000, -1.000000000000000000 ) ) ;
#144 = PRODUCT_DEFINITION_FORMATION_WITH_SPECIFIED_SOURCE ( 'ANY', '', #115, .NOT_KNOWN. ) ;
#145 = CIRCLE ( 'NONE', #183, 0.1031100000000002570 ) ;
#146 = DIRECTION ( 'NONE',  ( 0.000000000000000000, 0.000000000000000000, -1.000000000000000000 ) ) ;
#147 = CARTESIAN_POINT ( 'NONE',  ( -0.06882860250000000235, 0.000000000000000000, 1.685814554828210517E-17 ) ) ;
#148 = LINE ( 'NONE', #171, #244 ) ;
#149 = VECTOR ( 'NONE', #126, 39.37007874015748143 ) ;
#150 = AXIS2_PLACEMENT_3D ( 'NONE', #25, #94, #93 ) ;
#151 = DIRECTION ( 'NONE',  ( -1.000000000000000000, 0.000000000000000000, 0.000000000000000000 ) ) ;
#152 = ADVANCED_FACE ( 'NONE', ( #217 ), #137, .T. ) ;
#153 = PRESENTATION_STYLE_ASSIGNMENT (( #63 ) ) ;
#154 = CARTESIAN_POINT ( 'NONE',  ( 0.000000000000000000, 0.000000000000000000, 2.244094000000000033 ) ) ;
#155 = VECTOR ( 'NONE', #214, 39.37007874015747433 ) ;
#156 = FACE_OUTER_BOUND ( 'NONE', #138, .T. ) ;
#157 = DIRECTION ( 'NONE',  ( -1.000000000000000000, 0.000000000000000000, 0.000000000000000000 ) ) ;
#158 = FILL_AREA_STYLE ('',( #273 ) ) ;
#159 = DIMENSIONAL_EXPONENTS ( 1.000000000000000000, 0.000000000000000000, 0.000000000000000000, 0.000000000000000000, 0.000000000000000000, 0.000000000000000000, 0.000000000000000000 ) ;
#160 = ORIENTED_EDGE ( 'NONE', *, *, #119, .T. ) ;
#161 = EDGE_CURVE ( 'NONE', #23, #92, #148, .T. ) ;
#162 =( NAMED_UNIT ( * ) PLANE_ANGLE_UNIT ( ) SI_UNIT ( $, .RADIAN. ) );
#163 = VERTEX_POINT ( 'NONE', #286 ) ;
#164 = ORIENTED_EDGE ( 'NONE', *, *, #42, .F. ) ;
#165 = VECTOR ( 'NONE', #118, 39.37007874015748143 ) ;
#166 = ORIENTED_EDGE ( 'NONE', *, *, #50, .T. ) ;
#167 = ORIENTED_EDGE ( 'NONE', *, *, #176, .T. ) ;
#168 = EDGE_CURVE ( 'NONE', #208, #271, #264, .T. ) ;
#169 = DIRECTION ( 'NONE',  ( 1.000000000000000000, 0.000000000000000000, 0.000000000000000000 ) ) ;
#170 = DIRECTION ( 'NONE',  ( 0.000000000000000000, 0.000000000000000000, 1.000000000000000000 ) ) ;
#171 = CARTESIAN_POINT ( 'NONE',  ( 0.06882860250000000235, 8.429072774141052587E-18, -8.429072774141052587E-18 ) ) ;
#172 = ADVANCED_FACE ( 'NONE', ( #99 ), #123, .T. ) ;
#173 = DIRECTION ( 'NONE',  ( 1.224646799147353207E-16, 0.000000000000000000, 1.000000000000000000 ) ) ;
#174 = CARTESIAN_POINT ( 'NONE',  ( 0.000000000000000000, 0.000000000000000000, 0.000000000000000000 ) ) ;
#175 = MECHANICAL_DESIGN_GEOMETRIC_PRESENTATION_REPRESENTATION (  '', ( #113 ), #131 ) ;
#176 = EDGE_CURVE ( 'NONE', #23, #253, #18, .T. ) ;
#177 = LINE ( 'NONE', #40, #26 ) ;
#178 = ORIENTED_EDGE ( 'NONE', *, *, #30, .F. ) ;
#179 =( LENGTH_UNIT ( ) NAMED_UNIT ( * ) SI_UNIT ( $, .METRE. ) );
#180 = AXIS2_PLACEMENT_3D ( 'NONE', #11, #191, #241 ) ;
#181 =( LENGTH_UNIT ( ) NAMED_UNIT ( * ) SI_UNIT ( $, .METRE. ) );
#182 = SURFACE_STYLE_USAGE ( .BOTH. , #275 ) ;
#183 = AXIS2_PLACEMENT_3D ( 'NONE', #70, #116, #185 ) ;
#184 = ORIENTED_EDGE ( 'NONE', *, *, #161, .F. ) ;
#185 = DIRECTION ( 'NONE',  ( 1.000000000000000000, 0.000000000000000000, 0.000000000000000000 ) ) ;
#186 = PRODUCT_DEFINITION_CONTEXT ( 'detailed design', #211, 'design' ) ;
#187 = LINE ( 'NONE', #142, #233 ) ;
#188 = AXIS2_PLACEMENT_3D ( 'NONE', #100, #146, #262 ) ;
#189 = LINE ( 'NONE', #285, #155 ) ;
#190 = ORIENTED_EDGE ( 'NONE', *, *, #176, .F. ) ;
#191 = DIRECTION ( 'NONE',  ( 0.000000000000000000, 0.000000000000000000, -1.000000000000000000 ) ) ;
#192 = ADVANCED_FACE ( 'NONE', ( #247 ), #218, .T. ) ;
#193 = ADVANCED_FACE ( 'NONE', ( #77 ), #265, .T. ) ;
#194 = DIRECTION ( 'NONE',  ( 1.000000000000000000, 0.000000000000000000, 0.000000000000000000 ) ) ;
#195 = STYLED_ITEM ( 'NONE', ( #153 ), #254 ) ;
#196 = FACE_OUTER_BOUND ( 'NONE', #276, .T. ) ;
#197 = DIRECTION ( 'NONE',  ( -1.000000000000000000, 0.000000000000000000, 0.000000000000000000 ) ) ;
#198 = AXIS2_PLACEMENT_3D ( 'NONE', #154, #130, #298 ) ;
#199 = CLOSED_SHELL ( 'NONE', ( #98, #216, #249, #279, #278, #172, #152, #193, #192, #260 ) ) ;
#200 = CYLINDRICAL_SURFACE ( 'NONE', #41, 0.1181100000000000066 ) ;
#201 = EDGE_LOOP ( 'NONE', ( #228, #190, #236, #2 ) ) ;
#202 = ORIENTED_EDGE ( 'NONE', *, *, #224, .F. ) ;
#203 = DIMENSIONAL_EXPONENTS ( 1.000000000000000000, 0.000000000000000000, 0.000000000000000000, 0.000000000000000000, 0.000000000000000000, 0.000000000000000000, 0.000000000000000000 ) ;
#204 = LENGTH_MEASURE_WITH_UNIT ( LENGTH_MEASURE( 0.02539999999999999897 ), #181 );
#205 = PRESENTATION_LAYER_ASSIGNMENT (  '', '', ( #195 ) ) ;
#206 = APPLICATION_PROTOCOL_DEFINITION ( 'draft international standard', 'automotive_design', 1998, #38 ) ;
#207 = CARTESIAN_POINT ( 'NONE',  ( 0.000000000000000000, 0.000000000000000000, 0.000000000000000000 ) ) ;
#208 = VERTEX_POINT ( 'NONE', #53 ) ;
#209 = DIRECTION ( 'NONE',  ( -1.224646799147353207E-16, -0.000000000000000000, -1.000000000000000000 ) ) ;
#210 = VERTEX_POINT ( 'NONE', #28 ) ;
#211 = APPLICATION_CONTEXT ( 'automotive_design' ) ;
#212 = VERTEX_POINT ( 'NONE', #147 ) ;
#213 = LINE ( 'NONE', #95, #165 ) ;
#214 = DIRECTION ( 'NONE',  ( -0.1736481776669311639, 2.126576849575782392E-17, 0.9848077530122080203 ) ) ;
#215 = DIRECTION ( 'NONE',  ( 1.000000000000000000, 0.000000000000000000, 0.000000000000000000 ) ) ;
#216 = ADVANCED_FACE ( 'NONE', ( #196 ), #22, .T. ) ;
#217 = FACE_OUTER_BOUND ( 'NONE', #256, .T. ) ;
#218 = CYLINDRICAL_SURFACE ( 'NONE', #257, 0.06882860250000000235 ) ;
#219 = AXIS2_PLACEMENT_3D ( 'NONE', #4, #209, #5 ) ;
#220 = LINE ( 'NONE', #121, #149 ) ;
#221 = CARTESIAN_POINT ( 'NONE',  ( 0.000000000000000000, 0.000000000000000000, 2.244094000000000033 ) ) ;
#222 = AXIS2_PLACEMENT_3D ( 'NONE', #207, #229, #283 ) ;
#223 = ORIENTED_EDGE ( 'NONE', *, *, #62, .T. ) ;
#224 = EDGE_CURVE ( 'NONE', #23, #163, #220, .T. ) ;
#225 = DIMENSIONAL_EXPONENTS ( 1.000000000000000000, 0.000000000000000000, 0.000000000000000000, 0.000000000000000000, 0.000000000000000000, 0.000000000000000000, 0.000000000000000000 ) ;
#226 = AXIS2_PLACEMENT_3D ( 'NONE', #105, #125, #8 ) ;
#227 = CYLINDRICAL_SURFACE ( 'NONE', #198, 0.1181100000000000066 ) ;
#228 = ORIENTED_EDGE ( 'NONE', *, *, #65, .F. ) ;
#229 = DIRECTION ( 'NONE',  ( 0.000000000000000000, 0.000000000000000000, 1.000000000000000000 ) ) ;
#230 = ORIENTED_EDGE ( 'NONE', *, *, #3, .F. ) ;
#231 = LENGTH_MEASURE_WITH_UNIT ( LENGTH_MEASURE( 0.02539999999999999897 ), #69 );
#232 = VERTEX_POINT ( 'NONE', #290 ) ;
#233 = VECTOR ( 'NONE', #258, 39.37007874015748143 ) ;
#234 = CIRCLE ( 'NONE', #48, 0.06882860250000000235 ) ;
#235 = ORIENTED_EDGE ( 'NONE', *, *, #31, .F. ) ;
#236 = ORIENTED_EDGE ( 'NONE', *, *, #224, .T. ) ;
#237 = ORIENTED_EDGE ( 'NONE', *, *, #84, .F. ) ;
#238 = UNCERTAINTY_MEASURE_WITH_UNIT (LENGTH_MEASURE( 1.000000000000000082E-05 ), #250, 'distance_accuracy_value', 'NONE');
#239 = EDGE_CURVE ( 'NONE', #210, #208, #284, .T. ) ;
#240 = DIRECTION ( 'NONE',  ( -1.224646799147353207E-16, -0.000000000000000000, -1.000000000000000000 ) ) ;
#241 = DIRECTION ( 'NONE',  ( 1.000000000000000000, 0.000000000000000000, 0.000000000000000000 ) ) ;
#242 = CARTESIAN_POINT ( 'NONE',  ( 0.000000000000000000, 0.000000000000000000, 2.244094000000000033 ) ) ;
#243 = PRODUCT_DEFINITION_SHAPE ( 'NONE', 'NONE',  #274 ) ;
#244 = VECTOR ( 'NONE', #240, 39.37007874015748143 ) ;
#245 = CARTESIAN_POINT ( 'NONE',  ( 0.000000000000000000, 0.000000000000000000, 0.000000000000000000 ) ) ;
#246 = AXIS2_PLACEMENT_3D ( 'NONE', #29, #170, #59 ) ;
#247 = FACE_OUTER_BOUND ( 'NONE', #47, .T. ) ;
#248 = DIRECTION ( 'NONE',  ( 1.000000000000000000, 0.000000000000000000, -0.000000000000000000 ) ) ;
#249 = ADVANCED_FACE ( 'NONE', ( #55 ), #124, .T. ) ;
#250 =( CONVERSION_BASED_UNIT ( 'INCH', #251 ) LENGTH_UNIT ( ) NAMED_UNIT ( #225 ) );
#251 = LENGTH_MEASURE_WITH_UNIT ( LENGTH_MEASURE( 0.02539999999999999897 ), #179 );
#252 = ORIENTED_EDGE ( 'NONE', *, *, #268, .F. ) ;
#253 = VERTEX_POINT ( 'NONE', #12 ) ;
#254 = MANIFOLD_SOLID_BREP ( 'Cut-Revolve1', #199 ) ;
#255 = PRESENTATION_STYLE_ASSIGNMENT (( #182 ) ) ;
#256 = EDGE_LOOP ( 'NONE', ( #237, #74, #259, #294 ) ) ;
#257 = AXIS2_PLACEMENT_3D ( 'NONE', #245, #9, #261 ) ;
#258 = DIRECTION ( 'NONE',  ( -0.000000000000000000, -0.000000000000000000, -1.000000000000000000 ) ) ;
#259 = ORIENTED_EDGE ( 'NONE', *, *, #268, .T. ) ;
#260 = ADVANCED_FACE ( 'NONE', ( #269 ), #122, .F. ) ;
#261 = DIRECTION ( 'NONE',  ( -1.000000000000000000, 0.000000000000000000, 1.224646799147353454E-16 ) ) ;
#262 = DIRECTION ( 'NONE',  ( 1.000000000000000000, 0.000000000000000000, 0.000000000000000000 ) ) ;
#263 = DIRECTION ( 'NONE',  ( -1.224646799147353207E-16, -0.000000000000000000, -1.000000000000000000 ) ) ;
#264 = LINE ( 'NONE', #32, #96 ) ;
#265 = CONICAL_SURFACE ( 'NONE', #88, 0.06882860250000000235, 0.1745329251994338360 ) ;
#266 = DIRECTION ( 'NONE',  ( 0.000000000000000000, 0.000000000000000000, 1.000000000000000000 ) ) ;
#267 = DIRECTION ( 'NONE',  ( 0.000000000000000000, 0.000000000000000000, 1.000000000000000000 ) ) ;
#268 = EDGE_CURVE ( 'NONE', #67, #208, #177, .T. ) ;
#269 = FACE_OUTER_BOUND ( 'NONE', #114, .T. ) ;
#270 = AXIS2_PLACEMENT_3D ( 'NONE', #49, #24, #117 ) ;
#271 = VERTEX_POINT ( 'NONE', #60 ) ;
#272 = FILL_AREA_STYLE ('',( #82 ) ) ;
#273 = FILL_AREA_STYLE_COLOUR ( '', #109 ) ;
#274 = PRODUCT_DEFINITION ( 'UNKNOWN', '', #144, #186 ) ;
#275 = SURFACE_SIDE_STYLE ('',( #19 ) ) ;
#276 = EDGE_LOOP ( 'NONE', ( #111, #141, #97, #202 ) ) ;
#277 = ORIENTED_EDGE ( 'NONE', *, *, #85, .T. ) ;
#278 = ADVANCED_FACE ( 'NONE', ( #14 ), #200, .T. ) ;
#279 = ADVANCED_FACE ( 'NONE', ( #156 ), #227, .T. ) ;
#280 = ORIENTED_EDGE ( 'NONE', *, *, #239, .T. ) ;
#281 = ORIENTED_EDGE ( 'NONE', *, *, #107, .F. ) ;
#282 = COLOUR_RGB ( '',0.7921568627450980005, 0.8196078431372548767, 0.9333333333333333481 ) ;
#283 = DIRECTION ( 'NONE',  ( 1.000000000000000000, 0.000000000000000000, 0.000000000000000000 ) ) ;
#284 = CIRCLE ( 'NONE', #180, 0.1181100000000000066 ) ;
#285 = CARTESIAN_POINT ( 'NONE',  ( -0.06882860249999996072, 8.429072774141052587E-18, 0.3937009999999999676 ) ) ;
#286 = CARTESIAN_POINT ( 'NONE',  ( 0.1181100000000000899, 1.446430334472940009E-17, 0.6731896936871021309 ) ) ;
#287 = DIRECTION ( 'NONE',  ( 0.000000000000000000, 0.000000000000000000, -1.000000000000000000 ) ) ;
#288 = PRESENTATION_LAYER_ASSIGNMENT (  '', '', ( #113 ) ) ;
#289 = CARTESIAN_POINT ( 'NONE',  ( 4.821446694711121291E-17, 0.000000000000000000, 0.3937009999999999676 ) ) ;
#290 = CARTESIAN_POINT ( 'NONE',  ( 0.1031100000000002570, 1.354581824536888722E-17, 2.244094000000000033 ) ) ;
#291 = DIRECTION ( 'NONE',  ( -1.224646799147353207E-16, -0.000000000000000000, -1.000000000000000000 ) ) ;
#292 = AXIS2_PLACEMENT_3D ( 'NONE', #56, #263, #151 ) ;
#293 = CARTESIAN_POINT ( 'NONE',  ( 0.000000000000000000, 0.000000000000000000, 2.244094000000000033 ) ) ;
#294 = ORIENTED_EDGE ( 'NONE', *, *, #239, .F. ) ;
#295 = CARTESIAN_POINT ( 'NONE',  ( 0.000000000000000000, 0.000000000000000000, 0.000000000000000000 ) ) ;
#296 = EDGE_LOOP ( 'NONE', ( #230, #83, #46, #252 ) ) ;
#297 = MECHANICAL_DESIGN_GEOMETRIC_PRESENTATION_REPRESENTATION (  '', ( #195 ), #101 ) ;
#298 = DIRECTION ( 'NONE',  ( -1.000000000000000000, 0.000000000000000000, 0.000000000000000000 ) ) ;
#299 = EDGE_LOOP ( 'NONE', ( #235, #280, #133, #281 ) ) ;
ENDSEC;
END-ISO-10303-21;
