ISO-10303-21;
HEADER;
FILE_DESCRIPTION (( 'STEP AP214' ),
    '1' );
FILE_NAME ('84412.STEP',
    '2023-06-30T23:28:09',
    ( '' ),
    ( '' ),
    'SwSTEP 2.0',
    'SolidWorks 2023',
    '' );
FILE_SCHEMA (( 'AUTOMOTIVE_DESIGN' ));
ENDSEC;

DATA;
#1 = DIRECTION ( 'NONE',  ( -1.000000000000000000, 0.000000000000000000, 0.000000000000000000 ) ) ;
#2 = PRESENTATION_STYLE_ASSIGNMENT (( #242 ) ) ;
#3 = VERTEX_POINT ( 'NONE', #99 ) ;
#4 = SURFACE_SIDE_STYLE ('',( #176 ) ) ;
#5 = AXIS2_PLACEMENT_3D ( 'NONE', #246, #182, #338 ) ;
#6 = ORIENTED_EDGE ( 'NONE', *, *, #318, .F. ) ;
#7 = SURFACE_STYLE_FILL_AREA ( #72 ) ;
#8 = DIMENSIONAL_EXPONENTS ( 1.000000000000000000, 0.000000000000000000, 0.000000000000000000, 0.000000000000000000, 0.000000000000000000, 0.000000000000000000, 0.000000000000000000 ) ;
#9 = EDGE_LOOP ( 'NONE', ( #249, #320, #33, #127 ) ) ;
#10 = CARTESIAN_POINT ( 'NONE',  ( 0.000000000000000000, 0.5625000000000000000, 0.000000000000000000 ) ) ;
#11 = DIRECTION ( 'NONE',  ( 0.000000000000000000, 0.000000000000000000, -1.000000000000000000 ) ) ;
#12 = DIMENSIONAL_EXPONENTS ( 1.000000000000000000, 0.000000000000000000, 0.000000000000000000, 0.000000000000000000, 0.000000000000000000, 0.000000000000000000, 0.000000000000000000 ) ;
#13 = CYLINDRICAL_SURFACE ( 'NONE', #122, 0.09374999999999995837 ) ;
#14 =( CONVERSION_BASED_UNIT ( 'INCH', #79 ) LENGTH_UNIT ( ) NAMED_UNIT ( #346 ) );
#15 = DIRECTION ( 'NONE',  ( -1.224646799147353207E-16, 1.000000000000000000, -0.000000000000000000 ) ) ;
#16 = CARTESIAN_POINT ( 'NONE',  ( 0.000000000000000000, 0.09375000000000001388, 0.000000000000000000 ) ) ;
#17 = SURFACE_STYLE_FILL_AREA ( #321 ) ;
#18 = DIRECTION ( 'NONE',  ( -1.224646799147353207E-16, 1.000000000000000000, 0.000000000000000000 ) ) ;
#19 =( NAMED_UNIT ( * ) PLANE_ANGLE_UNIT ( ) SI_UNIT ( $, .RADIAN. ) );
#20 = PRODUCT_DEFINITION_CONTEXT ( 'detailed design', #143, 'design' ) ;
#21 = DIRECTION ( 'NONE',  ( -1.224646799147353207E-16, 1.000000000000000000, -0.000000000000000000 ) ) ;
#22 = ADVANCED_FACE ( 'NONE', ( #104 ), #205, .F. ) ;
#23 = CIRCLE ( 'NONE', #76, 0.09374999999999998612 ) ;
#24 = ORIENTED_EDGE ( 'NONE', *, *, #219, .T. ) ;
#25 = PRODUCT_DEFINITION ( 'UNKNOWN', '', #371, #20 ) ;
#26 = DIRECTION ( 'NONE',  ( 0.000000000000000000, 0.000000000000000000, 1.000000000000000000 ) ) ;
#27 = CIRCLE ( 'NONE', #231, 0.09374999999999994449 ) ;
#28 = CIRCLE ( 'NONE', #45, 0.09374999999999998612 ) ;
#29 =( LENGTH_UNIT ( ) NAMED_UNIT ( * ) SI_UNIT ( $, .METRE. ) );
#30 = DIRECTION ( 'NONE',  ( 0.000000000000000000, 0.000000000000000000, -1.000000000000000000 ) ) ;
#31 = STYLED_ITEM ( 'NONE', ( #175 ), #98 ) ;
#32 =( NAMED_UNIT ( * ) PLANE_ANGLE_UNIT ( ) SI_UNIT ( $, .RADIAN. ) );
#33 = ORIENTED_EDGE ( 'NONE', *, *, #132, .F. ) ;
#34 = SPHERICAL_SURFACE ( 'NONE', #165, 0.09374999999999998612 ) ;
#35 = ORIENTED_EDGE ( 'NONE', *, *, #244, .F. ) ;
#36 = EDGE_CURVE ( 'NONE', #63, #309, #188, .T. ) ;
#37 = DIMENSIONAL_EXPONENTS ( 1.000000000000000000, 0.000000000000000000, 0.000000000000000000, 0.000000000000000000, 0.000000000000000000, 0.000000000000000000, 0.000000000000000000 ) ;
#38 = ORIENTED_EDGE ( 'NONE', *, *, #36, .F. ) ;
#39 = UNCERTAINTY_MEASURE_WITH_UNIT (LENGTH_MEASURE( 1.000000000000000082E-05 ), #202, 'distance_accuracy_value', 'NONE');
#40 = ORIENTED_EDGE ( 'NONE', *, *, #60, .F. ) ;
#41 = DIRECTION ( 'NONE',  ( 1.000000000000000000, 1.224646799147353207E-16, 0.000000000000000000 ) ) ;
#42 = EDGE_LOOP ( 'NONE', ( #53, #329 ) ) ;
#43 =( LENGTH_UNIT ( ) NAMED_UNIT ( * ) SI_UNIT ( $, .METRE. ) );
#44 = DIMENSIONAL_EXPONENTS ( 1.000000000000000000, 0.000000000000000000, 0.000000000000000000, 0.000000000000000000, 0.000000000000000000, 0.000000000000000000, 0.000000000000000000 ) ;
#45 = AXIS2_PLACEMENT_3D ( 'NONE', #266, #366, #119 ) ;
#46 = STYLED_ITEM ( 'NONE', ( #258 ), #341 ) ;
#47 = DIRECTION ( 'NONE',  ( -0.000000000000000000, -1.000000000000000000, -0.000000000000000000 ) ) ;
#48 = EDGE_CURVE ( 'NONE', #239, #63, #272, .T. ) ;
#49 =( LENGTH_UNIT ( ) NAMED_UNIT ( * ) SI_UNIT ( $, .METRE. ) );
#50 = CYLINDRICAL_SURFACE ( 'NONE', #223, 0.09374999999999988898 ) ;
#51 =( NAMED_UNIT ( * ) PLANE_ANGLE_UNIT ( ) SI_UNIT ( $, .RADIAN. ) );
#52 = PRODUCT_CONTEXT ( 'NONE', #331, 'mechanical' ) ;
#53 = ORIENTED_EDGE ( 'NONE', *, *, #132, .T. ) ;
#54 = DIRECTION ( 'NONE',  ( 1.000000000000000000, 0.000000000000000000, 0.000000000000000000 ) ) ;
#55 = FILL_AREA_STYLE ('',( #116 ) ) ;
#56 = CARTESIAN_POINT ( 'NONE',  ( 0.000000000000000000, 0.000000000000000000, 0.000000000000000000 ) ) ;
#57 = CARTESIAN_POINT ( 'NONE',  ( -6.123233995736766036E-17, 2.500000000000000000, 0.000000000000000000 ) ) ;
#58 = CLOSED_SHELL ( 'NONE', ( #341, #97, #89, #257, #117 ) ) ;
#59 = DIRECTION ( 'NONE',  ( -0.000000000000000000, -1.000000000000000000, -0.000000000000000000 ) ) ;
#60 = EDGE_CURVE ( 'NONE', #183, #345, #101, .T. ) ;
#61 = CARTESIAN_POINT ( 'NONE',  ( -6.123233995736766036E-17, 2.500000000000000000, 0.000000000000000000 ) ) ;
#62 =( NAMED_UNIT ( * ) PLANE_ANGLE_UNIT ( ) SI_UNIT ( $, .RADIAN. ) );
#63 = VERTEX_POINT ( 'NONE', #369 ) ;
#64 = FACE_OUTER_BOUND ( 'NONE', #133, .T. ) ;
#65 = PRESENTATION_LAYER_ASSIGNMENT (  '', '', ( #260 ) ) ;
#66 = DIRECTION ( 'NONE',  ( 1.000000000000000000, 0.000000000000000000, 0.000000000000000000 ) ) ;
#67 = ORIENTED_EDGE ( 'NONE', *, *, #191, .T. ) ;
#68 = FILL_AREA_STYLE_COLOUR ( '', #305 ) ;
#69 =( CONVERSION_BASED_UNIT ( 'INCH', #120 ) LENGTH_UNIT ( ) NAMED_UNIT ( #351 ) );
#70 = FACE_OUTER_BOUND ( 'NONE', #154, .T. ) ;
#71 = EDGE_LOOP ( 'NONE', ( #353, #95, #115, #108 ) ) ;
#72 = FILL_AREA_STYLE ('',( #68 ) ) ;
#73 = FILL_AREA_STYLE ('',( #189 ) ) ;
#74 = ORIENTED_EDGE ( 'NONE', *, *, #224, .T. ) ;
#75 = CARTESIAN_POINT ( 'NONE',  ( -6.123233995736766036E-17, 2.500000000000000000, 0.000000000000000000 ) ) ;
#76 = AXIS2_PLACEMENT_3D ( 'NONE', #91, #198, #255 ) ;
#77 = FACE_OUTER_BOUND ( 'NONE', #42, .T. ) ;
#78 = DIMENSIONAL_EXPONENTS ( 1.000000000000000000, 0.000000000000000000, 0.000000000000000000, 0.000000000000000000, 0.000000000000000000, 0.000000000000000000, 0.000000000000000000 ) ;
#79 = LENGTH_MEASURE_WITH_UNIT ( LENGTH_MEASURE( 0.02539999999999999897 ), #268 );
#80 = CIRCLE ( 'NONE', #299, 0.09374999999999998612 ) ;
#81 = SHAPE_DEFINITION_REPRESENTATION ( #271, #300 ) ;
#82 = PRESENTATION_STYLE_ASSIGNMENT (( #144 ) ) ;
#83 = CARTESIAN_POINT ( 'NONE',  ( 0.09374999999999998612, 0.09375000000000001388, 0.000000000000000000 ) ) ;
#84 = CARTESIAN_POINT ( 'NONE',  ( 1.148106374200642938E-17, 0.5625000000000000000, 0.09374999999999994449 ) ) ;
#85 = ORIENTED_EDGE ( 'NONE', *, *, #146, .T. ) ;
#86 = MECHANICAL_DESIGN_GEOMETRIC_PRESENTATION_REPRESENTATION (  '', ( #46 ), #141 ) ;
#87 = SURFACE_STYLE_FILL_AREA ( #55 ) ;
#88 = APPLICATION_PROTOCOL_DEFINITION ( 'draft international standard', 'automotive_design', 1998, #143 ) ;
#89 = ADVANCED_FACE ( 'NONE', ( #218 ), #92, .T. ) ;
#90 = CIRCLE ( 'NONE', #204, 0.09374999999999998612 ) ;
#91 = CARTESIAN_POINT ( 'NONE',  ( 0.000000000000000000, 0.09375000000000001388, 0.000000000000000000 ) ) ;
#92 = PLANE ( 'NONE',  #212 ) ;
#93 = DIRECTION ( 'NONE',  ( -0.000000000000000000, -1.000000000000000000, -0.000000000000000000 ) ) ;
#94 =( NAMED_UNIT ( * ) SI_UNIT ( $, .STERADIAN. ) SOLID_ANGLE_UNIT ( ) );
#95 = ORIENTED_EDGE ( 'NONE', *, *, #177, .T. ) ;
#96 = DIRECTION ( 'NONE',  ( 0.000000000000000000, 0.000000000000000000, 1.000000000000000000 ) ) ;
#97 = ADVANCED_FACE ( 'NONE', ( #134 ), #348, .T. ) ;
#98 = MANIFOLD_SOLID_BREP ( 'Revolve - Cutting Edge', #58 ) ;
#99 = CARTESIAN_POINT ( 'NONE',  ( 1.148106374200643555E-17, 0.09375000000000001388, 0.09374999999999998612 ) ) ;
#100 = MANIFOLD_SOLID_BREP ( 'Revolve - Tool Body (Straight Shanked)', #274 ) ;
#101 = CIRCLE ( 'NONE', #142, 0.09374999999999976408 ) ;
#102 = CIRCLE ( 'NONE', #5, 0.09375000000000001388 ) ;
#103 = SURFACE_STYLE_USAGE ( .BOTH. , #4 ) ;
#104 = FACE_OUTER_BOUND ( 'NONE', #194, .T. ) ;
#105 = UNCERTAINTY_MEASURE_WITH_UNIT (LENGTH_MEASURE( 1.000000000000000082E-05 ), #69, 'distance_accuracy_value', 'NONE');
#106 = DIRECTION ( 'NONE',  ( -0.000000000000000000, -1.000000000000000000, -0.000000000000000000 ) ) ;
#107 = LENGTH_MEASURE_WITH_UNIT ( LENGTH_MEASURE( 0.02539999999999999897 ), #200 );
#108 = ORIENTED_EDGE ( 'NONE', *, *, #322, .T. ) ;
#109 = ADVANCED_FACE ( 'NONE', ( #206 ), #307, .T. ) ;
#110 = UNCERTAINTY_MEASURE_WITH_UNIT (LENGTH_MEASURE( 1.000000000000000082E-05 ), #241, 'distance_accuracy_value', 'NONE');
#111 = LINE ( 'NONE', #129, #250 ) ;
#112 = COLOUR_RGB ( '',1.000000000000000000, 0.000000000000000000, 0.000000000000000000 ) ;
#113 =( GEOMETRIC_REPRESENTATION_CONTEXT ( 3 ) GLOBAL_UNCERTAINTY_ASSIGNED_CONTEXT ( ( #110 ) ) GLOBAL_UNIT_ASSIGNED_CONTEXT ( ( #241, #243, #303 ) ) REPRESENTATION_CONTEXT ( 'NONE', 'WORKASPACE' ) );
#114 =( CONVERSION_BASED_UNIT ( 'INCH', #364 ) LENGTH_UNIT ( ) NAMED_UNIT ( #8 ) );
#115 = ORIENTED_EDGE ( 'NONE', *, *, #292, .T. ) ;
#116 = FILL_AREA_STYLE_COLOUR ( '', #336 ) ;
#117 = ADVANCED_FACE ( 'NONE', ( #216 ), #123, .T. ) ;
#118 = COLOUR_RGB ( '',0.7921568627450980005, 0.8196078431372548767, 0.9333333333333333481 ) ;
#119 = DIRECTION ( 'NONE',  ( 1.000000000000000000, 0.000000000000000000, -1.224646799147353207E-16 ) ) ;
#120 = LENGTH_MEASURE_WITH_UNIT ( LENGTH_MEASURE( 0.02539999999999999897 ), #29 );
#121 = DIRECTION ( 'NONE',  ( -0.000000000000000000, -1.000000000000000000, -0.000000000000000000 ) ) ;
#122 = AXIS2_PLACEMENT_3D ( 'NONE', #140, #47, #251 ) ;
#123 = SPHERICAL_SURFACE ( 'NONE', #269, 0.09374999999999998612 ) ;
#124 = ORIENTED_EDGE ( 'NONE', *, *, #191, .F. ) ;
#125 = CARTESIAN_POINT ( 'NONE',  ( 0.000000000000000000, 0.09375000000000001388, 0.000000000000000000 ) ) ;
#126 = SURFACE_STYLE_USAGE ( .BOTH. , #313 ) ;
#127 = ORIENTED_EDGE ( 'NONE', *, *, #146, .F. ) ;
#128 = EDGE_LOOP ( 'NONE', ( #124, #342 ) ) ;
#129 = CARTESIAN_POINT ( 'NONE',  ( 1.148106374200643092E-17, 0.000000000000000000, 0.09374999999999995837 ) ) ;
#130 = UNCERTAINTY_MEASURE_WITH_UNIT (LENGTH_MEASURE( 1.000000000000000082E-05 ), #201, 'distance_accuracy_value', 'NONE');
#131 =( NAMED_UNIT ( * ) PLANE_ANGLE_UNIT ( ) SI_UNIT ( $, .RADIAN. ) );
#132 = EDGE_CURVE ( 'NONE', #368, #262, #102, .T. ) ;
#133 = EDGE_LOOP ( 'NONE', ( #74, #170, #317, #210 ) ) ;
#134 = FACE_OUTER_BOUND ( 'NONE', #207, .T. ) ;
#135 = CARTESIAN_POINT ( 'NONE',  ( -0.09374999999999959754, 0.5625000000000001110, 0.000000000000000000 ) ) ;
#136 = PRESENTATION_LAYER_ASSIGNMENT (  '', '', ( #281 ) ) ;
#137 = LENGTH_MEASURE_WITH_UNIT ( LENGTH_MEASURE( 0.02539999999999999897 ), #43 );
#138 = SURFACE_SIDE_STYLE ('',( #17 ) ) ;
#139 = CARTESIAN_POINT ( 'NONE',  ( 0.000000000000000000, 0.000000000000000000, -0.09374999999999995837 ) ) ;
#140 = CARTESIAN_POINT ( 'NONE',  ( 0.000000000000000000, 0.000000000000000000, 0.000000000000000000 ) ) ;
#141 =( GEOMETRIC_REPRESENTATION_CONTEXT ( 3 ) GLOBAL_UNCERTAINTY_ASSIGNED_CONTEXT ( ( #130 ) ) GLOBAL_UNIT_ASSIGNED_CONTEXT ( ( #201, #62, #179 ) ) REPRESENTATION_CONTEXT ( 'NONE', 'WORKASPACE' ) );
#142 = AXIS2_PLACEMENT_3D ( 'NONE', #172, #302, #277 ) ;
#143 = APPLICATION_CONTEXT ( 'automotive_design' ) ;
#144 = SURFACE_STYLE_USAGE ( .BOTH. , #214 ) ;
#145 = VERTEX_POINT ( 'NONE', #284 ) ;
#146 = EDGE_CURVE ( 'NONE', #183, #368, #308, .T. ) ;
#147 = DIRECTION ( 'NONE',  ( -1.000000000000000000, 0.000000000000000000, 0.000000000000000000 ) ) ;
#148 = MECHANICAL_DESIGN_GEOMETRIC_PRESENTATION_REPRESENTATION (  '', ( #281 ), #220 ) ;
#149 = LENGTH_MEASURE_WITH_UNIT ( LENGTH_MEASURE( 0.02539999999999999897 ), #226 );
#150 = DIRECTION ( 'NONE',  ( 0.000000000000000000, 0.000000000000000000, -1.000000000000000000 ) ) ;
#151 = STYLED_ITEM ( 'NONE', ( #2 ), #97 ) ;
#152 = PRESENTATION_LAYER_ASSIGNMENT (  '', '', ( #185 ) ) ;
#153 = DIRECTION ( 'NONE',  ( 1.000000000000000000, 0.000000000000000000, 0.000000000000000000 ) ) ;
#154 = EDGE_LOOP ( 'NONE', ( #157, #217, #301, #235, #339 ) ) ;
#155 = SURFACE_STYLE_USAGE ( .BOTH. , #350 ) ;
#156 =( NAMED_UNIT ( * ) PLANE_ANGLE_UNIT ( ) SI_UNIT ( $, .RADIAN. ) );
#157 = ORIENTED_EDGE ( 'NONE', *, *, #219, .F. ) ;
#158 = STYLED_ITEM ( 'NONE', ( #290 ), #257 ) ;
#159 = DIRECTION ( 'NONE',  ( 0.000000000000000000, 0.000000000000000000, -1.000000000000000000 ) ) ;
#160 = PRESENTATION_LAYER_ASSIGNMENT (  '', '', ( #46 ) ) ;
#161 = SURFACE_STYLE_USAGE ( .BOTH. , #283 ) ;
#162 = CARTESIAN_POINT ( 'NONE',  ( 0.000000000000000000, 0.09375000000000001388, 0.000000000000000000 ) ) ;
#163 = ADVANCED_FACE ( 'NONE', ( #77 ), #288, .F. ) ;
#164 = PRESENTATION_LAYER_ASSIGNMENT (  '', '', ( #151 ) ) ;
#165 = AXIS2_PLACEMENT_3D ( 'NONE', #340, #96, #153 ) ;
#166 = DIRECTION ( 'NONE',  ( 0.000000000000000000, 1.000000000000000000, 0.000000000000000000 ) ) ;
#167 = PRODUCT ( '84412', '84412', '', ( #52 ) ) ;
#168 = COLOUR_RGB ( '',0.7921568627450980005, 0.8196078431372548767, 0.9333333333333333481 ) ;
#169 = MECHANICAL_DESIGN_GEOMETRIC_PRESENTATION_REPRESENTATION (  '', ( #185 ), #373 ) ;
#170 = ORIENTED_EDGE ( 'NONE', *, *, #187, .T. ) ;
#171 = SURFACE_SIDE_STYLE ('',( #87 ) ) ;
#172 = CARTESIAN_POINT ( 'NONE',  ( 1.760429773774320220E-16, 0.5625000000000001110, 0.000000000000000000 ) ) ;
#173 = VECTOR ( 'NONE', #59, 39.37007874015748143 ) ;
#174 = CARTESIAN_POINT ( 'NONE',  ( 0.000000000000000000, 0.000000000000000000, 0.000000000000000000 ) ) ;
#175 = PRESENTATION_STYLE_ASSIGNMENT (( #126 ) ) ;
#176 = SURFACE_STYLE_FILL_AREA ( #279 ) ;
#177 = EDGE_CURVE ( 'NONE', #365, #309, #367, .T. ) ;
#178 = PRESENTATION_STYLE_ASSIGNMENT (( #195 ) ) ;
#179 =( NAMED_UNIT ( * ) SI_UNIT ( $, .STERADIAN. ) SOLID_ANGLE_UNIT ( ) );
#180 =( LENGTH_UNIT ( ) NAMED_UNIT ( * ) SI_UNIT ( $, .METRE. ) );
#181 = DIRECTION ( 'NONE',  ( -0.000000000000000000, -1.000000000000000000, -0.000000000000000000 ) ) ;
#182 = DIRECTION ( 'NONE',  ( -1.224646799147353207E-16, 1.000000000000000000, -0.000000000000000000 ) ) ;
#183 = VERTEX_POINT ( 'NONE', #135 ) ;
#184 =( LENGTH_UNIT ( ) NAMED_UNIT ( * ) SI_UNIT ( $, .METRE. ) );
#185 = STYLED_ITEM ( 'NONE', ( #178 ), #89 ) ;
#186 = DIRECTION ( 'NONE',  ( 1.224646799147353207E-16, -1.000000000000000000, 0.000000000000000000 ) ) ;
#187 = EDGE_CURVE ( 'NONE', #365, #145, #28, .T. ) ;
#188 = LINE ( 'NONE', #139, #173 ) ;
#189 = FILL_AREA_STYLE_COLOUR ( '', #112 ) ;
#190 = AXIS2_PLACEMENT_3D ( 'NONE', #162, #355, #11 ) ;
#191 = EDGE_CURVE ( 'NONE', #63, #239, #27, .T. ) ;
#192 = LINE ( 'NONE', #209, #304 ) ;
#193 =( GEOMETRIC_REPRESENTATION_CONTEXT ( 3 ) GLOBAL_UNCERTAINTY_ASSIGNED_CONTEXT ( ( #105 ) ) GLOBAL_UNIT_ASSIGNED_CONTEXT ( ( #69, #276, #94 ) ) REPRESENTATION_CONTEXT ( 'NONE', 'WORKASPACE' ) );
#194 = EDGE_LOOP ( 'NONE', ( #40, #6 ) ) ;
#195 = SURFACE_STYLE_USAGE ( .BOTH. , #171 ) ;
#196 = PRESENTATION_LAYER_ASSIGNMENT (  '', '', ( #158 ) ) ;
#197 = AXIS2_PLACEMENT_3D ( 'NONE', #56, #26, #54 ) ;
#198 = DIRECTION ( 'NONE',  ( -0.000000000000000000, -1.000000000000000000, -0.000000000000000000 ) ) ;
#199 = FILL_AREA_STYLE_COLOUR ( '', #168 ) ;
#200 =( LENGTH_UNIT ( ) NAMED_UNIT ( * ) SI_UNIT ( $, .METRE. ) );
#201 =( CONVERSION_BASED_UNIT ( 'INCH', #107 ) LENGTH_UNIT ( ) NAMED_UNIT ( #12 ) );
#202 =( CONVERSION_BASED_UNIT ( 'INCH', #229 ) LENGTH_UNIT ( ) NAMED_UNIT ( #359 ) );
#203 =( GEOMETRIC_REPRESENTATION_CONTEXT ( 3 ) GLOBAL_UNCERTAINTY_ASSIGNED_CONTEXT ( ( #240 ) ) GLOBAL_UNIT_ASSIGNED_CONTEXT ( ( #370, #32, #327 ) ) REPRESENTATION_CONTEXT ( 'NONE', 'WORKASPACE' ) );
#204 = AXIS2_PLACEMENT_3D ( 'NONE', #125, #93, #316 ) ;
#205 = PLANE ( 'NONE',  #325 ) ;
#206 = FACE_OUTER_BOUND ( 'NONE', #9, .T. ) ;
#207 = EDGE_LOOP ( 'NONE', ( #67, #24, #349, #286, #38 ) ) ;
#208 =( NAMED_UNIT ( * ) SI_UNIT ( $, .STERADIAN. ) SOLID_ANGLE_UNIT ( ) );
#209 = CARTESIAN_POINT ( 'NONE',  ( 0.09374999999999981959, 2.500000000000000000, 1.148106374200642322E-17 ) ) ;
#210 = ORIENTED_EDGE ( 'NONE', *, *, #333, .T. ) ;
#211 = AXIS2_PLACEMENT_3D ( 'NONE', #16, #352, #328 ) ;
#212 = AXIS2_PLACEMENT_3D ( 'NONE', #10, #166, #270 ) ;
#213 = FILL_AREA_STYLE_COLOUR ( '', #254 ) ;
#214 = SURFACE_SIDE_STYLE ('',( #362 ) ) ;
#215 = AXIS2_PLACEMENT_3D ( 'NONE', #61, #21, #147 ) ;
#216 = FACE_OUTER_BOUND ( 'NONE', #71, .T. ) ;
#217 = ORIENTED_EDGE ( 'NONE', *, *, #48, .T. ) ;
#218 = FACE_OUTER_BOUND ( 'NONE', #128, .T. ) ;
#219 = EDGE_CURVE ( 'NONE', #239, #3, #111, .T. ) ;
#220 =( GEOMETRIC_REPRESENTATION_CONTEXT ( 3 ) GLOBAL_UNCERTAINTY_ASSIGNED_CONTEXT ( ( #357 ) ) GLOBAL_UNIT_ASSIGNED_CONTEXT ( ( #114, #51, #314 ) ) REPRESENTATION_CONTEXT ( 'NONE', 'WORKASPACE' ) );
#221 = CARTESIAN_POINT ( 'NONE',  ( 0.000000000000000000, 0.5625000000000000000, 0.000000000000000000 ) ) ;
#222 = FILL_AREA_STYLE ('',( #199 ) ) ;
#223 = AXIS2_PLACEMENT_3D ( 'NONE', #57, #275, #334 ) ;
#224 = EDGE_CURVE ( 'NONE', #3, #365, #323, .T. ) ;
#225 = CARTESIAN_POINT ( 'NONE',  ( 0.000000000000000000, 0.09375000000000001388, -0.09374999999999998612 ) ) ;
#226 =( LENGTH_UNIT ( ) NAMED_UNIT ( * ) SI_UNIT ( $, .METRE. ) );
#227 = CARTESIAN_POINT ( 'NONE',  ( -1.148106374200643401E-17, 0.09374999999999998612, 0.000000000000000000 ) ) ;
#228 = CARTESIAN_POINT ( 'NONE',  ( 0.09374999999999991673, 0.5625000000000001110, 1.148106374200642938E-17 ) ) ;
#229 = LENGTH_MEASURE_WITH_UNIT ( LENGTH_MEASURE( 0.02539999999999999897 ), #180 );
#230 = SURFACE_STYLE_FILL_AREA ( #222 ) ;
#231 = AXIS2_PLACEMENT_3D ( 'NONE', #221, #106, #30 ) ;
#232 = AXIS2_PLACEMENT_3D ( 'NONE', #75, #15, #265 ) ;
#233 = CIRCLE ( 'NONE', #261, 0.09374999999999976408 ) ;
#234 = SURFACE_STYLE_FILL_AREA ( #73 ) ;
#235 = ORIENTED_EDGE ( 'NONE', *, *, #177, .F. ) ;
#236 = ORIENTED_EDGE ( 'NONE', *, *, #318, .T. ) ;
#237 = CARTESIAN_POINT ( 'NONE',  ( 0.09374999999999994449, 2.500000000000000000, 0.000000000000000000 ) ) ;
#238 = MECHANICAL_DESIGN_GEOMETRIC_PRESENTATION_REPRESENTATION (  '', ( #260 ), #203 ) ;
#239 = VERTEX_POINT ( 'NONE', #84 ) ;
#240 = UNCERTAINTY_MEASURE_WITH_UNIT (LENGTH_MEASURE( 1.000000000000000082E-05 ), #370, 'distance_accuracy_value', 'NONE');
#241 =( CONVERSION_BASED_UNIT ( 'INCH', #137 ) LENGTH_UNIT ( ) NAMED_UNIT ( #78 ) );
#242 = SURFACE_STYLE_USAGE ( .BOTH. , #138 ) ;
#243 =( NAMED_UNIT ( * ) PLANE_ANGLE_UNIT ( ) SI_UNIT ( $, .RADIAN. ) );
#244 = EDGE_CURVE ( 'NONE', #345, #262, #192, .T. ) ;
#245 = UNCERTAINTY_MEASURE_WITH_UNIT (LENGTH_MEASURE( 1.000000000000000082E-05 ), #14, 'distance_accuracy_value', 'NONE');
#246 = CARTESIAN_POINT ( 'NONE',  ( -6.123233995736766036E-17, 2.500000000000000000, 0.000000000000000000 ) ) ;
#247 = MECHANICAL_DESIGN_GEOMETRIC_PRESENTATION_REPRESENTATION (  '', ( #158 ), #335 ) ;
#248 = CARTESIAN_POINT ( 'NONE',  ( 0.09374999999999991673, 2.500000000000000000, 1.148106374200642938E-17 ) ) ;
#249 = ORIENTED_EDGE ( 'NONE', *, *, #60, .T. ) ;
#250 = VECTOR ( 'NONE', #285, 39.37007874015748143 ) ;
#251 = DIRECTION ( 'NONE',  ( 0.000000000000000000, 0.000000000000000000, -1.000000000000000000 ) ) ;
#252 = DIRECTION ( 'NONE',  ( 0.000000000000000000, 0.000000000000000000, -1.000000000000000000 ) ) ;
#253 = AXIS2_PLACEMENT_3D ( 'NONE', #174, #181, #150 ) ;
#254 = COLOUR_RGB ( '',1.000000000000000000, 0.000000000000000000, 0.000000000000000000 ) ;
#255 = DIRECTION ( 'NONE',  ( 0.000000000000000000, 0.000000000000000000, -1.000000000000000000 ) ) ;
#256 = DIRECTION ( 'NONE',  ( 0.000000000000000000, 0.000000000000000000, 1.000000000000000000 ) ) ;
#257 = ADVANCED_FACE ( 'NONE', ( #70 ), #13, .T. ) ;
#258 = PRESENTATION_STYLE_ASSIGNMENT (( #155 ) ) ;
#259 = CARTESIAN_POINT ( 'NONE',  ( -0.09374999999999995837, 2.500000000000000000, 0.000000000000000000 ) ) ;
#260 = STYLED_ITEM ( 'NONE', ( #372 ), #100 ) ;
#261 = AXIS2_PLACEMENT_3D ( 'NONE', #347, #312, #337 ) ;
#262 = VERTEX_POINT ( 'NONE', #248 ) ;
#263 =( CONVERSION_BASED_UNIT ( 'INCH', #354 ) LENGTH_UNIT ( ) NAMED_UNIT ( #37 ) );
#264 = VERTEX_POINT ( 'NONE', #83 ) ;
#265 = DIRECTION ( 'NONE',  ( -1.000000000000000000, 0.000000000000000000, 0.000000000000000000 ) ) ;
#266 = CARTESIAN_POINT ( 'NONE',  ( -1.148106374200643401E-17, 0.09374999999999998612, 0.000000000000000000 ) ) ;
#267 = DIRECTION ( 'NONE',  ( -1.224646799147353207E-16, 1.000000000000000000, -0.000000000000000000 ) ) ;
#268 =( LENGTH_UNIT ( ) NAMED_UNIT ( * ) SI_UNIT ( $, .METRE. ) );
#269 = AXIS2_PLACEMENT_3D ( 'NONE', #227, #256, #66 ) ;
#270 = DIRECTION ( 'NONE',  ( 0.000000000000000000, -0.000000000000000000, 1.000000000000000000 ) ) ;
#271 = PRODUCT_DEFINITION_SHAPE ( 'NONE', 'NONE',  #25 ) ;
#272 = CIRCLE ( 'NONE', #306, 0.09374999999999994449 ) ;
#273 = PRODUCT_RELATED_PRODUCT_CATEGORY ( 'part', '', ( #167 ) ) ;
#274 = CLOSED_SHELL ( 'NONE', ( #109, #22, #287, #163 ) ) ;
#275 = DIRECTION ( 'NONE',  ( -1.224646799147353207E-16, 1.000000000000000000, -0.000000000000000000 ) ) ;
#276 =( NAMED_UNIT ( * ) PLANE_ANGLE_UNIT ( ) SI_UNIT ( $, .RADIAN. ) );
#277 = DIRECTION ( 'NONE',  ( -1.000000000000000000, 0.000000000000000000, 0.000000000000000000 ) ) ;
#278 = CARTESIAN_POINT ( 'NONE',  ( -1.148106374200643401E-17, 0.09374999999999998612, 0.000000000000000000 ) ) ;
#279 = FILL_AREA_STYLE ('',( #280 ) ) ;
#280 = FILL_AREA_STYLE_COLOUR ( '', #118 ) ;
#281 = STYLED_ITEM ( 'NONE', ( #82 ), #117 ) ;
#282 = CIRCLE ( 'NONE', #232, 0.09375000000000001388 ) ;
#283 = SURFACE_SIDE_STYLE ('',( #234 ) ) ;
#284 = CARTESIAN_POINT ( 'NONE',  ( -5.740531871003217003E-18, 0.000000000000000000, 0.000000000000000000 ) ) ;
#285 = DIRECTION ( 'NONE',  ( -0.000000000000000000, -1.000000000000000000, -0.000000000000000000 ) ) ;
#286 = ORIENTED_EDGE ( 'NONE', *, *, #292, .F. ) ;
#287 = ADVANCED_FACE ( 'NONE', ( #296 ), #50, .T. ) ;
#288 = PLANE ( 'NONE',  #344 ) ;
#289 = ORIENTED_EDGE ( 'NONE', *, *, #363, .F. ) ;
#290 = PRESENTATION_STYLE_ASSIGNMENT (( #161 ) ) ;
#291 =( NAMED_UNIT ( * ) SI_UNIT ( $, .STERADIAN. ) SOLID_ANGLE_UNIT ( ) );
#292 = EDGE_CURVE ( 'NONE', #309, #264, #23, .T. ) ;
#293 = DIRECTION ( 'NONE',  ( -1.000000000000000000, -1.224646799147353207E-16, 0.000000000000000000 ) ) ;
#294 = MECHANICAL_DESIGN_GEOMETRIC_PRESENTATION_REPRESENTATION (  '', ( #151 ), #193 ) ;
#295 = CARTESIAN_POINT ( 'NONE',  ( -0.09375000000000006939, 2.500000000000000000, 0.000000000000000000 ) ) ;
#296 = FACE_OUTER_BOUND ( 'NONE', #311, .T. ) ;
#297 = APPLICATION_PROTOCOL_DEFINITION ( 'draft international standard', 'automotive_design', 1998, #331 ) ;
#298 = PRESENTATION_LAYER_ASSIGNMENT (  '', '', ( #31 ) ) ;
#299 = AXIS2_PLACEMENT_3D ( 'NONE', #278, #159, #1 ) ;
#300 = ADVANCED_BREP_SHAPE_REPRESENTATION ( '84412', ( #98, #100, #197 ), #113 ) ;
#301 = ORIENTED_EDGE ( 'NONE', *, *, #36, .T. ) ;
#302 = DIRECTION ( 'NONE',  ( -1.224646799147353207E-16, 1.000000000000000000, -0.000000000000000000 ) ) ;
#303 =( NAMED_UNIT ( * ) SI_UNIT ( $, .STERADIAN. ) SOLID_ANGLE_UNIT ( ) );
#304 = VECTOR ( 'NONE', #267, 39.37007874015748143 ) ;
#305 = COLOUR_RGB ( '',1.000000000000000000, 0.000000000000000000, 0.000000000000000000 ) ;
#306 = AXIS2_PLACEMENT_3D ( 'NONE', #332, #121, #252 ) ;
#307 = CYLINDRICAL_SURFACE ( 'NONE', #215, 0.09374999999999988898 ) ;
#308 = LINE ( 'NONE', #259, #310 ) ;
#309 = VERTEX_POINT ( 'NONE', #225 ) ;
#310 = VECTOR ( 'NONE', #319, 39.37007874015748143 ) ;
#311 = EDGE_LOOP ( 'NONE', ( #35, #236, #85, #289 ) ) ;
#312 = DIRECTION ( 'NONE',  ( -1.224646799147353207E-16, 1.000000000000000000, -0.000000000000000000 ) ) ;
#313 = SURFACE_SIDE_STYLE ('',( #230 ) ) ;
#314 =( NAMED_UNIT ( * ) SI_UNIT ( $, .STERADIAN. ) SOLID_ANGLE_UNIT ( ) );
#315 = CARTESIAN_POINT ( 'NONE',  ( 1.760429773774320220E-16, 0.5625000000000000000, 0.000000000000000000 ) ) ;
#316 = DIRECTION ( 'NONE',  ( 0.000000000000000000, 0.000000000000000000, -1.000000000000000000 ) ) ;
#317 = ORIENTED_EDGE ( 'NONE', *, *, #322, .F. ) ;
#318 = EDGE_CURVE ( 'NONE', #345, #183, #233, .T. ) ;
#319 = DIRECTION ( 'NONE',  ( -1.224646799147353207E-16, 1.000000000000000000, -0.000000000000000000 ) ) ;
#320 = ORIENTED_EDGE ( 'NONE', *, *, #244, .T. ) ;
#321 = FILL_AREA_STYLE ('',( #213 ) ) ;
#322 = EDGE_CURVE ( 'NONE', #264, #145, #80, .T. ) ;
#323 = CIRCLE ( 'NONE', #211, 0.09374999999999998612 ) ;
#324 = FILL_AREA_STYLE_COLOUR ( '', #330 ) ;
#325 = AXIS2_PLACEMENT_3D ( 'NONE', #315, #18, #293 ) ;
#326 = UNCERTAINTY_MEASURE_WITH_UNIT (LENGTH_MEASURE( 1.000000000000000082E-05 ), #263, 'distance_accuracy_value', 'NONE');
#327 =( NAMED_UNIT ( * ) SI_UNIT ( $, .STERADIAN. ) SOLID_ANGLE_UNIT ( ) );
#328 = DIRECTION ( 'NONE',  ( 0.000000000000000000, 0.000000000000000000, -1.000000000000000000 ) ) ;
#329 = ORIENTED_EDGE ( 'NONE', *, *, #363, .T. ) ;
#330 = COLOUR_RGB ( '',1.000000000000000000, 0.000000000000000000, 0.000000000000000000 ) ;
#331 = APPLICATION_CONTEXT ( 'automotive_design' ) ;
#332 = CARTESIAN_POINT ( 'NONE',  ( 0.000000000000000000, 0.5625000000000000000, 0.000000000000000000 ) ) ;
#333 = EDGE_CURVE ( 'NONE', #264, #3, #90, .T. ) ;
#334 = DIRECTION ( 'NONE',  ( -1.000000000000000000, 0.000000000000000000, 0.000000000000000000 ) ) ;
#335 =( GEOMETRIC_REPRESENTATION_CONTEXT ( 3 ) GLOBAL_UNCERTAINTY_ASSIGNED_CONTEXT ( ( #326 ) ) GLOBAL_UNIT_ASSIGNED_CONTEXT ( ( #263, #131, #208 ) ) REPRESENTATION_CONTEXT ( 'NONE', 'WORKASPACE' ) );
#336 = COLOUR_RGB ( '',1.000000000000000000, 0.000000000000000000, 0.000000000000000000 ) ;
#337 = DIRECTION ( 'NONE',  ( -1.000000000000000000, 0.000000000000000000, 0.000000000000000000 ) ) ;
#338 = DIRECTION ( 'NONE',  ( -1.000000000000000000, 0.000000000000000000, 0.000000000000000000 ) ) ;
#339 = ORIENTED_EDGE ( 'NONE', *, *, #224, .F. ) ;
#340 = CARTESIAN_POINT ( 'NONE',  ( -1.148106374200643401E-17, 0.09374999999999998612, 0.000000000000000000 ) ) ;
#341 = ADVANCED_FACE ( 'NONE', ( #64 ), #34, .T. ) ;
#342 = ORIENTED_EDGE ( 'NONE', *, *, #48, .F. ) ;
#343 =( NAMED_UNIT ( * ) SI_UNIT ( $, .STERADIAN. ) SOLID_ANGLE_UNIT ( ) );
#344 = AXIS2_PLACEMENT_3D ( 'NONE', #237, #186, #41 ) ;
#345 = VERTEX_POINT ( 'NONE', #228 ) ;
#346 = DIMENSIONAL_EXPONENTS ( 1.000000000000000000, 0.000000000000000000, 0.000000000000000000, 0.000000000000000000, 0.000000000000000000, 0.000000000000000000, 0.000000000000000000 ) ;
#347 = CARTESIAN_POINT ( 'NONE',  ( 1.760429773774320220E-16, 0.5625000000000001110, 0.000000000000000000 ) ) ;
#348 = CYLINDRICAL_SURFACE ( 'NONE', #253, 0.09374999999999995837 ) ;
#349 = ORIENTED_EDGE ( 'NONE', *, *, #333, .F. ) ;
#350 = SURFACE_SIDE_STYLE ('',( #7 ) ) ;
#351 = DIMENSIONAL_EXPONENTS ( 1.000000000000000000, 0.000000000000000000, 0.000000000000000000, 0.000000000000000000, 0.000000000000000000, 0.000000000000000000, 0.000000000000000000 ) ;
#352 = DIRECTION ( 'NONE',  ( -0.000000000000000000, -1.000000000000000000, -0.000000000000000000 ) ) ;
#353 = ORIENTED_EDGE ( 'NONE', *, *, #187, .F. ) ;
#354 = LENGTH_MEASURE_WITH_UNIT ( LENGTH_MEASURE( 0.02539999999999999897 ), #184 );
#355 = DIRECTION ( 'NONE',  ( -0.000000000000000000, -1.000000000000000000, -0.000000000000000000 ) ) ;
#356 =( GEOMETRIC_REPRESENTATION_CONTEXT ( 3 ) GLOBAL_UNCERTAINTY_ASSIGNED_CONTEXT ( ( #39 ) ) GLOBAL_UNIT_ASSIGNED_CONTEXT ( ( #202, #156, #343 ) ) REPRESENTATION_CONTEXT ( 'NONE', 'WORKASPACE' ) );
#357 = UNCERTAINTY_MEASURE_WITH_UNIT (LENGTH_MEASURE( 1.000000000000000082E-05 ), #114, 'distance_accuracy_value', 'NONE');
#358 = CARTESIAN_POINT ( 'NONE',  ( -0.09374999999999998612, 0.09375000000000001388, 1.148106374200643247E-17 ) ) ;
#359 = DIMENSIONAL_EXPONENTS ( 1.000000000000000000, 0.000000000000000000, 0.000000000000000000, 0.000000000000000000, 0.000000000000000000, 0.000000000000000000, 0.000000000000000000 ) ;
#360 = FILL_AREA_STYLE ('',( #324 ) ) ;
#361 = MECHANICAL_DESIGN_GEOMETRIC_PRESENTATION_REPRESENTATION (  '', ( #31 ), #356 ) ;
#362 = SURFACE_STYLE_FILL_AREA ( #360 ) ;
#363 = EDGE_CURVE ( 'NONE', #262, #368, #282, .T. ) ;
#364 = LENGTH_MEASURE_WITH_UNIT ( LENGTH_MEASURE( 0.02539999999999999897 ), #49 );
#365 = VERTEX_POINT ( 'NONE', #358 ) ;
#366 = DIRECTION ( 'NONE',  ( 1.224646799147353207E-16, -0.000000000000000000, 1.000000000000000000 ) ) ;
#367 = CIRCLE ( 'NONE', #190, 0.09374999999999998612 ) ;
#368 = VERTEX_POINT ( 'NONE', #295 ) ;
#369 = CARTESIAN_POINT ( 'NONE',  ( 0.000000000000000000, 0.5625000000000000000, -0.09374999999999994449 ) ) ;
#370 =( CONVERSION_BASED_UNIT ( 'INCH', #149 ) LENGTH_UNIT ( ) NAMED_UNIT ( #44 ) );
#371 = PRODUCT_DEFINITION_FORMATION_WITH_SPECIFIED_SOURCE ( 'ANY', '', #167, .NOT_KNOWN. ) ;
#372 = PRESENTATION_STYLE_ASSIGNMENT (( #103 ) ) ;
#373 =( GEOMETRIC_REPRESENTATION_CONTEXT ( 3 ) GLOBAL_UNCERTAINTY_ASSIGNED_CONTEXT ( ( #245 ) ) GLOBAL_UNIT_ASSIGNED_CONTEXT ( ( #14, #19, #291 ) ) REPRESENTATION_CONTEXT ( 'NONE', 'WORKASPACE' ) );
ENDSEC;
END-ISO-10303-21;
