ISO-10303-21;
HEADER;
FILE_DESCRIPTION (( 'STEP AP214' ),
    '1' );
FILE_NAME ('59701.STEP',
    '2023-07-24T15:26:01',
    ( '' ),
    ( '' ),
    'SwSTEP 2.0',
    'SolidWorks 2023',
    '' );
FILE_SCHEMA (( 'AUTOMOTIVE_DESIGN' ));
ENDSEC;

DATA;
#1 =( LENGTH_UNIT ( ) NAMED_UNIT ( * ) SI_UNIT ( .MILLI., .METRE. ) );
#2 = VERTEX_POINT ( 'NONE', #130 ) ;
#3 = DIRECTION ( 'NONE',  ( 0.000000000000000000, 0.000000000000000000, -1.000000000000000000 ) ) ;
#4 = AXIS2_PLACEMENT_3D ( 'NONE', #66, #95, #155 ) ;
#5 = SURFACE_STYLE_FILL_AREA ( #314 ) ;
#6 = ORIENTED_EDGE ( 'NONE', *, *, #361, .F. ) ;
#7 = PRODUCT ( '59701', '59701', '', ( #216 ) ) ;
#8 = PRESENTATION_STYLE_ASSIGNMENT (( #243 ) ) ;
#9 = EDGE_LOOP ( 'NONE', ( #277, #49 ) ) ;
#10 = EDGE_CURVE ( 'NONE', #224, #251, #105, .T. ) ;
#11 = DIRECTION ( 'NONE',  ( -1.000000000000000000, 0.000000000000000000, 0.000000000000000000 ) ) ;
#12 = TOROIDAL_SURFACE ( 'NONE', #4, 3.000000000000000000, 1.000000000000000000 ) ;
#13 =( LENGTH_UNIT ( ) NAMED_UNIT ( * ) SI_UNIT ( .MILLI., .METRE. ) );
#14 = ORIENTED_EDGE ( 'NONE', *, *, #346, .T. ) ;
#15 = ORIENTED_EDGE ( 'NONE', *, *, #147, .T. ) ;
#16 = EDGE_CURVE ( 'NONE', #198, #110, #208, .T. ) ;
#17 = DIRECTION ( 'NONE',  ( -1.000000000000000000, 0.000000000000000000, 0.000000000000000000 ) ) ;
#18 = DIRECTION ( 'NONE',  ( 0.000000000000000000, 0.000000000000000000, -1.000000000000000000 ) ) ;
#19 = PRESENTATION_LAYER_ASSIGNMENT (  '', '', ( #248 ) ) ;
#20 =( NAMED_UNIT ( * ) PLANE_ANGLE_UNIT ( ) SI_UNIT ( $, .RADIAN. ) );
#21 = PRESENTATION_LAYER_ASSIGNMENT (  '', '', ( #54 ) ) ;
#22 = CARTESIAN_POINT ( 'NONE',  ( 1.469576158976823750E-15, 63.00000000000000000, 0.000000000000000000 ) ) ;
#23 = PLANE ( 'NONE',  #187 ) ;
#24 = DIRECTION ( 'NONE',  ( -1.000000000000000000, 0.000000000000000000, 0.000000000000000000 ) ) ;
#25 = DIRECTION ( 'NONE',  ( 0.000000000000000000, 0.000000000000000000, -1.000000000000000000 ) ) ;
#26 =( LENGTH_UNIT ( ) NAMED_UNIT ( * ) SI_UNIT ( .MILLI., .METRE. ) );
#27 = DIRECTION ( 'NONE',  ( 0.000000000000000000, 0.000000000000000000, -1.000000000000000000 ) ) ;
#28 = FACE_OUTER_BOUND ( 'NONE', #104, .T. ) ;
#29 =( NAMED_UNIT ( * ) PLANE_ANGLE_UNIT ( ) SI_UNIT ( $, .RADIAN. ) );
#30 = PRESENTATION_LAYER_ASSIGNMENT (  '', '', ( #200 ) ) ;
#31 = FILL_AREA_STYLE ('',( #289 ) ) ;
#32 = PRESENTATION_LAYER_ASSIGNMENT (  '', '', ( #246 ) ) ;
#33 = CARTESIAN_POINT ( 'NONE',  ( 0.000000000000000000, 0.000000000000000000, 0.000000000000000000 ) ) ;
#34 = FILL_AREA_STYLE ('',( #158 ) ) ;
#35 = AXIS2_PLACEMENT_3D ( 'NONE', #22, #71, #24 ) ;
#36 = ORIENTED_EDGE ( 'NONE', *, *, #77, .T. ) ;
#37 = UNCERTAINTY_MEASURE_WITH_UNIT (LENGTH_MEASURE( 1.000000000000000082E-05 ), #363, 'distance_accuracy_value', 'NONE');
#38 = AXIS2_PLACEMENT_3D ( 'NONE', #96, #213, #347 ) ;
#39 = VERTEX_POINT ( 'NONE', #139 ) ;
#40 = EDGE_CURVE ( 'NONE', #329, #198, #220, .T. ) ;
#41 = MECHANICAL_DESIGN_GEOMETRIC_PRESENTATION_REPRESENTATION (  '', ( #200 ), #368 ) ;
#42 = SURFACE_STYLE_USAGE ( .BOTH. , #296 ) ;
#43 = ORIENTED_EDGE ( 'NONE', *, *, #346, .F. ) ;
#44 = UNCERTAINTY_MEASURE_WITH_UNIT (LENGTH_MEASURE( 1.000000000000000082E-05 ), #93, 'distance_accuracy_value', 'NONE');
#45 = COLOUR_RGB ( '',1.000000000000000000, 0.000000000000000000, 0.000000000000000000 ) ;
#46 = EDGE_LOOP ( 'NONE', ( #36, #330, #98, #298 ) ) ;
#47 = EDGE_CURVE ( 'NONE', #321, #350, #165, .T. ) ;
#48 = ORIENTED_EDGE ( 'NONE', *, *, #10, .T. ) ;
#49 = ORIENTED_EDGE ( 'NONE', *, *, #62, .T. ) ;
#50 = SURFACE_STYLE_FILL_AREA ( #83 ) ;
#51 = CARTESIAN_POINT ( 'NONE',  ( 0.000000000000000000, 1.000000000000000000, -3.000000000000000000 ) ) ;
#52 =( LENGTH_UNIT ( ) NAMED_UNIT ( * ) SI_UNIT ( .MILLI., .METRE. ) );
#53 = FILL_AREA_STYLE_COLOUR ( '', #351 ) ;
#54 = STYLED_ITEM ( 'NONE', ( #271 ), #353 ) ;
#55 =( NAMED_UNIT ( * ) SI_UNIT ( $, .STERADIAN. ) SOLID_ANGLE_UNIT ( ) );
#56 = DIRECTION ( 'NONE',  ( -9.448620473410002383E-17, 1.000000000000000000, -0.000000000000000000 ) ) ;
#57 = SURFACE_SIDE_STYLE ('',( #184 ) ) ;
#58 = DIRECTION ( 'NONE',  ( -9.448620473410002383E-17, 1.000000000000000000, 0.000000000000000000 ) ) ;
#59 = AXIS2_PLACEMENT_3D ( 'NONE', #163, #73, #294 ) ;
#60 = SURFACE_STYLE_USAGE ( .BOTH. , #177 ) ;
#61 =( NAMED_UNIT ( * ) PLANE_ANGLE_UNIT ( ) SI_UNIT ( $, .RADIAN. ) );
#62 = EDGE_CURVE ( 'NONE', #110, #198, #364, .T. ) ;
#63 = TOROIDAL_SURFACE ( 'NONE', #156, 3.000000000000000000, 1.000000000000000000 ) ;
#64 = FILL_AREA_STYLE_COLOUR ( '', #186 ) ;
#65 = PRESENTATION_LAYER_ASSIGNMENT (  '', '', ( #336 ) ) ;
#66 = CARTESIAN_POINT ( 'NONE',  ( 0.000000000000000000, 1.000000000000000000, 0.000000000000000000 ) ) ;
#67 = APPLICATION_PROTOCOL_DEFINITION ( 'draft international standard', 'automotive_design', 1998, #72 ) ;
#68 = DIRECTION ( 'NONE',  ( -0.000000000000000000, -1.000000000000000000, -0.000000000000000000 ) ) ;
#69 = ORIENTED_EDGE ( 'NONE', *, *, #254, .F. ) ;
#70 = EDGE_CURVE ( 'NONE', #224, #2, #295, .T. ) ;
#71 = DIRECTION ( 'NONE',  ( -9.448620473410002383E-17, 1.000000000000000000, -0.000000000000000000 ) ) ;
#72 = APPLICATION_CONTEXT ( 'automotive_design' ) ;
#73 = DIRECTION ( 'NONE',  ( 0.000000000000000000, 1.000000000000000000, 0.000000000000000000 ) ) ;
#74 = DIRECTION ( 'NONE',  ( -0.000000000000000000, -1.000000000000000000, -0.000000000000000000 ) ) ;
#75 = SURFACE_SIDE_STYLE ('',( #50 ) ) ;
#76 = ORIENTED_EDGE ( 'NONE', *, *, #133, .T. ) ;
#77 = EDGE_CURVE ( 'NONE', #166, #2, #211, .T. ) ;
#78 = ORIENTED_EDGE ( 'NONE', *, *, #203, .T. ) ;
#79 = UNCERTAINTY_MEASURE_WITH_UNIT (LENGTH_MEASURE( 1.000000000000000082E-05 ), #26, 'distance_accuracy_value', 'NONE');
#80 = MECHANICAL_DESIGN_GEOMETRIC_PRESENTATION_REPRESENTATION (  '', ( #160 ), #149 ) ;
#81 = MANIFOLD_SOLID_BREP ( 'Revolve - Cutting Edge', #113 ) ;
#82 = VECTOR ( 'NONE', #117, 1000.000000000000000 ) ;
#83 = FILL_AREA_STYLE ('',( #352 ) ) ;
#84 = MECHANICAL_DESIGN_GEOMETRIC_PRESENTATION_REPRESENTATION (  '', ( #54 ), #266 ) ;
#85 = FACE_OUTER_BOUND ( 'NONE', #300, .T. ) ;
#86 = EDGE_CURVE ( 'NONE', #166, #321, #101, .T. ) ;
#87 = CARTESIAN_POINT ( 'NONE',  ( 0.000000000000000000, 1.000000000000000000, -4.000000000000000000 ) ) ;
#88 = DIRECTION ( 'NONE',  ( -1.224646799147352961E-16, 0.000000000000000000, -1.000000000000000000 ) ) ;
#89 = COLOUR_RGB ( '',1.000000000000000000, 0.000000000000000000, 0.000000000000000000 ) ;
#90 = ADVANCED_FACE ( 'NONE', ( #28 ), #23, .F. ) ;
#91 = SURFACE_STYLE_FILL_AREA ( #34 ) ;
#92 = DIRECTION ( 'NONE',  ( -0.000000000000000000, -1.000000000000000000, -0.000000000000000000 ) ) ;
#93 =( LENGTH_UNIT ( ) NAMED_UNIT ( * ) SI_UNIT ( .MILLI., .METRE. ) );
#94 =( GEOMETRIC_REPRESENTATION_CONTEXT ( 3 ) GLOBAL_UNCERTAINTY_ASSIGNED_CONTEXT ( ( #37 ) ) GLOBAL_UNIT_ASSIGNED_CONTEXT ( ( #363, #20, #134 ) ) REPRESENTATION_CONTEXT ( 'NONE', 'WORKASPACE' ) );
#95 = DIRECTION ( 'NONE',  ( -0.000000000000000000, -1.000000000000000000, -0.000000000000000000 ) ) ;
#96 = CARTESIAN_POINT ( 'NONE',  ( 0.000000000000000000, 0.000000000000000000, 0.000000000000000000 ) ) ;
#97 = CARTESIAN_POINT ( 'NONE',  ( 0.000000000000000000, 12.00000000000000000, 0.000000000000000000 ) ) ;
#98 = ORIENTED_EDGE ( 'NONE', *, *, #47, .F. ) ;
#99 = CARTESIAN_POINT ( 'NONE',  ( 4.000000000000000000, 63.00000000000000000, 0.000000000000000000 ) ) ;
#100 = UNCERTAINTY_MEASURE_WITH_UNIT (LENGTH_MEASURE( 1.000000000000000082E-05 ), #369, 'distance_accuracy_value', 'NONE');
#101 = CIRCLE ( 'NONE', #340, 1.000000000000000000 ) ;
#102 = DIRECTION ( 'NONE',  ( -0.000000000000000000, -1.000000000000000000, -0.000000000000000000 ) ) ;
#103 = DIRECTION ( 'NONE',  ( -0.000000000000000000, -1.000000000000000000, -0.000000000000000000 ) ) ;
#104 = EDGE_LOOP ( 'NONE', ( #128, #275 ) ) ;
#105 = CIRCLE ( 'NONE', #315, 4.000000000000000000 ) ;
#106 = ORIENTED_EDGE ( 'NONE', *, *, #70, .F. ) ;
#107 = ADVANCED_BREP_SHAPE_REPRESENTATION ( '59701', ( #81, #328, #38 ), #175 ) ;
#108 = PRESENTATION_LAYER_ASSIGNMENT (  '', '', ( #291 ) ) ;
#109 = PRODUCT_DEFINITION_CONTEXT ( 'detailed design', #72, 'design' ) ;
#110 = VERTEX_POINT ( 'NONE', #145 ) ;
#111 = DIRECTION ( 'NONE',  ( -9.448620473410002383E-17, 1.000000000000000000, -0.000000000000000000 ) ) ;
#112 = SURFACE_STYLE_FILL_AREA ( #31 ) ;
#113 = CLOSED_SHELL ( 'NONE', ( #366, #229, #353, #240, #250, #303 ) ) ;
#114 = DIRECTION ( 'NONE',  ( -1.000000000000000000, 0.000000000000000000, 0.000000000000000000 ) ) ;
#115 = CYLINDRICAL_SURFACE ( 'NONE', #225, 3.999999999999996447 ) ;
#116 = DIRECTION ( 'NONE',  ( 0.000000000000000000, -1.000000000000000000, -0.000000000000000000 ) ) ;
#117 = DIRECTION ( 'NONE',  ( -9.448620473410002383E-17, 1.000000000000000000, -0.000000000000000000 ) ) ;
#118 = EDGE_CURVE ( 'NONE', #39, #110, #370, .T. ) ;
#119 = SURFACE_SIDE_STYLE ('',( #151 ) ) ;
#120 =( NAMED_UNIT ( * ) SI_UNIT ( $, .STERADIAN. ) SOLID_ANGLE_UNIT ( ) );
#121 = CARTESIAN_POINT ( 'NONE',  ( 4.898587196589412829E-16, 12.00000000000000000, 4.000000000000000000 ) ) ;
#122 = AXIS2_PLACEMENT_3D ( 'NONE', #263, #173, #256 ) ;
#123 = PRODUCT_DEFINITION_SHAPE ( 'NONE', 'NONE',  #286 ) ;
#124 =( NAMED_UNIT ( * ) SI_UNIT ( $, .STERADIAN. ) SOLID_ANGLE_UNIT ( ) );
#125 = CLOSED_SHELL ( 'NONE', ( #313, #90, #189, #342 ) ) ;
#126 = PRESENTATION_STYLE_ASSIGNMENT (( #190 ) ) ;
#127 = CARTESIAN_POINT ( 'NONE',  ( 3.673940397442059868E-16, 1.000000000000000000, 3.000000000000000000 ) ) ;
#128 = ORIENTED_EDGE ( 'NONE', *, *, #147, .F. ) ;
#129 = PLANE ( 'NONE',  #278 ) ;
#130 = CARTESIAN_POINT ( 'NONE',  ( 4.898587196589412829E-16, 1.000000000000000000, 4.000000000000000000 ) ) ;
#131 = CIRCLE ( 'NONE', #299, 3.999999999999993339 ) ;
#132 = MECHANICAL_DESIGN_GEOMETRIC_PRESENTATION_REPRESENTATION (  '', ( #246 ), #311 ) ;
#133 = EDGE_CURVE ( 'NONE', #39, #329, #292, .T. ) ;
#134 =( NAMED_UNIT ( * ) SI_UNIT ( $, .STERADIAN. ) SOLID_ANGLE_UNIT ( ) );
#135 = EDGE_LOOP ( 'NONE', ( #15, #227, #226, #356 ) ) ;
#136 = AXIS2_PLACEMENT_3D ( 'NONE', #309, #116, #179 ) ;
#137 = EDGE_LOOP ( 'NONE', ( #106, #48, #14, #6 ) ) ;
#138 = AXIS2_PLACEMENT_3D ( 'NONE', #276, #297, #17 ) ;
#139 = CARTESIAN_POINT ( 'NONE',  ( 3.999999999999999112, 11.99999999999999645, 4.898587196589409870E-16 ) ) ;
#140 = UNCERTAINTY_MEASURE_WITH_UNIT (LENGTH_MEASURE( 1.000000000000000082E-05 ), #13, 'distance_accuracy_value', 'NONE');
#141 = CARTESIAN_POINT ( 'NONE',  ( 1.469576158976823750E-15, 63.00000000000000000, 0.000000000000000000 ) ) ;
#142 = FACE_OUTER_BOUND ( 'NONE', #9, .T. ) ;
#143 = FACE_OUTER_BOUND ( 'NONE', #46, .T. ) ;
#144 = CIRCLE ( 'NONE', #349, 4.000000000000000000 ) ;
#145 = CARTESIAN_POINT ( 'NONE',  ( 4.000000000000000000, 63.00000000000000000, 4.898587196589409870E-16 ) ) ;
#146 =( NAMED_UNIT ( * ) SI_UNIT ( $, .STERADIAN. ) SOLID_ANGLE_UNIT ( ) );
#147 = EDGE_CURVE ( 'NONE', #329, #39, #131, .T. ) ;
#148 = DIRECTION ( 'NONE',  ( -1.000000000000000000, 0.000000000000000000, 0.000000000000000000 ) ) ;
#149 =( GEOMETRIC_REPRESENTATION_CONTEXT ( 3 ) GLOBAL_UNCERTAINTY_ASSIGNED_CONTEXT ( ( #140 ) ) GLOBAL_UNIT_ASSIGNED_CONTEXT ( ( #13, #331, #55 ) ) REPRESENTATION_CONTEXT ( 'NONE', 'WORKASPACE' ) );
#150 = APPLICATION_CONTEXT ( 'automotive_design' ) ;
#151 = SURFACE_STYLE_FILL_AREA ( #181 ) ;
#152 = SURFACE_STYLE_USAGE ( .BOTH. , #57 ) ;
#153 = PRESENTATION_STYLE_ASSIGNMENT (( #236 ) ) ;
#154 =( NAMED_UNIT ( * ) SI_UNIT ( $, .STERADIAN. ) SOLID_ANGLE_UNIT ( ) );
#155 = DIRECTION ( 'NONE',  ( 0.000000000000000000, 0.000000000000000000, -1.000000000000000000 ) ) ;
#156 = AXIS2_PLACEMENT_3D ( 'NONE', #188, #267, #317 ) ;
#157 = CARTESIAN_POINT ( 'NONE',  ( 0.000000000000000000, 12.00000000000000000, -4.000000000000000000 ) ) ;
#158 = FILL_AREA_STYLE_COLOUR ( '', #360 ) ;
#159 = SHAPE_DEFINITION_REPRESENTATION ( #123, #107 ) ;
#160 = STYLED_ITEM ( 'NONE', ( #204 ), #303 ) ;
#161 = FACE_OUTER_BOUND ( 'NONE', #247, .T. ) ;
#162 = VECTOR ( 'NONE', #102, 1000.000000000000000 ) ;
#163 = CARTESIAN_POINT ( 'NONE',  ( 0.000000000000000000, 12.00000000000000000, 0.000000000000000000 ) ) ;
#164 = DIRECTION ( 'NONE',  ( -0.000000000000000000, -1.000000000000000000, -0.000000000000000000 ) ) ;
#165 = CIRCLE ( 'NONE', #257, 3.000000000000000000 ) ;
#166 = VERTEX_POINT ( 'NONE', #87 ) ;
#167 = CIRCLE ( 'NONE', #212, 1.000000000000000000 ) ;
#168 = ORIENTED_EDGE ( 'NONE', *, *, #361, .T. ) ;
#169 = DIRECTION ( 'NONE',  ( -0.000000000000000000, -1.000000000000000000, -0.000000000000000000 ) ) ;
#170 = DIRECTION ( 'NONE',  ( 0.000000000000000000, 0.000000000000000000, -1.000000000000000000 ) ) ;
#171 = CARTESIAN_POINT ( 'NONE',  ( 4.286263797015736595E-16, 0.000000000000000000, 3.000000000000000000 ) ) ;
#172 = MECHANICAL_DESIGN_GEOMETRIC_PRESENTATION_REPRESENTATION (  '', ( #231 ), #273 ) ;
#173 = DIRECTION ( 'NONE',  ( -0.000000000000000000, -1.000000000000000000, -0.000000000000000000 ) ) ;
#174 = SURFACE_STYLE_FILL_AREA ( #304 ) ;
#175 =( GEOMETRIC_REPRESENTATION_CONTEXT ( 3 ) GLOBAL_UNCERTAINTY_ASSIGNED_CONTEXT ( ( #100 ) ) GLOBAL_UNIT_ASSIGNED_CONTEXT ( ( #369, #237, #154 ) ) REPRESENTATION_CONTEXT ( 'NONE', 'WORKASPACE' ) );
#176 = CYLINDRICAL_SURFACE ( 'NONE', #288, 4.000000000000000000 ) ;
#177 = SURFACE_SIDE_STYLE ('',( #174 ) ) ;
#178 = PRESENTATION_STYLE_ASSIGNMENT (( #152 ) ) ;
#179 = DIRECTION ( 'NONE',  ( 0.000000000000000000, 0.000000000000000000, -1.000000000000000000 ) ) ;
#180 = MECHANICAL_DESIGN_GEOMETRIC_PRESENTATION_REPRESENTATION (  '', ( #248 ), #264 ) ;
#181 = FILL_AREA_STYLE ('',( #209 ) ) ;
#182 = DIRECTION ( 'NONE',  ( -9.448620473410002383E-17, 1.000000000000000000, -0.000000000000000000 ) ) ;
#183 =( GEOMETRIC_REPRESENTATION_CONTEXT ( 3 ) GLOBAL_UNCERTAINTY_ASSIGNED_CONTEXT ( ( #274 ) ) GLOBAL_UNIT_ASSIGNED_CONTEXT ( ( #233, #61, #120 ) ) REPRESENTATION_CONTEXT ( 'NONE', 'WORKASPACE' ) );
#184 = SURFACE_STYLE_FILL_AREA ( #334 ) ;
#185 = PLANE ( 'NONE',  #59 ) ;
#186 = COLOUR_RGB ( '',1.000000000000000000, 0.000000000000000000, 0.000000000000000000 ) ;
#187 = AXIS2_PLACEMENT_3D ( 'NONE', #333, #58, #339 ) ;
#188 = CARTESIAN_POINT ( 'NONE',  ( 0.000000000000000000, 1.000000000000000000, 0.000000000000000000 ) ) ;
#189 = ADVANCED_FACE ( 'NONE', ( #280 ), #115, .T. ) ;
#190 = SURFACE_STYLE_USAGE ( .BOTH. , #348 ) ;
#191 = MECHANICAL_DESIGN_GEOMETRIC_PRESENTATION_REPRESENTATION (  '', ( #291 ), #94 ) ;
#192 = SURFACE_SIDE_STYLE ('',( #112 ) ) ;
#193 = ORIENTED_EDGE ( 'NONE', *, *, #118, .F. ) ;
#194 = SURFACE_STYLE_FILL_AREA ( #219 ) ;
#195 = EDGE_LOOP ( 'NONE', ( #193, #76, #272, #215 ) ) ;
#196 = CARTESIAN_POINT ( 'NONE',  ( 0.000000000000000000, 12.00000000000000000, 0.000000000000000000 ) ) ;
#197 = CIRCLE ( 'NONE', #122, 3.000000000000000000 ) ;
#198 = VERTEX_POINT ( 'NONE', #337 ) ;
#199 = ORIENTED_EDGE ( 'NONE', *, *, #77, .F. ) ;
#200 = STYLED_ITEM ( 'NONE', ( #285 ), #81 ) ;
#201 =( NAMED_UNIT ( * ) PLANE_ANGLE_UNIT ( ) SI_UNIT ( $, .RADIAN. ) );
#202 = PRESENTATION_LAYER_ASSIGNMENT (  '', '', ( #231 ) ) ;
#203 = EDGE_CURVE ( 'NONE', #350, #321, #197, .T. ) ;
#204 = PRESENTATION_STYLE_ASSIGNMENT (( #284 ) ) ;
#205 = DIRECTION ( 'NONE',  ( -1.000000000000000000, 0.000000000000000000, 0.000000000000000000 ) ) ;
#206 = DIRECTION ( 'NONE',  ( -0.000000000000000000, -1.000000000000000000, -0.000000000000000000 ) ) ;
#207 =( NAMED_UNIT ( * ) PLANE_ANGLE_UNIT ( ) SI_UNIT ( $, .RADIAN. ) );
#208 = CIRCLE ( 'NONE', #138, 3.999999999999998224 ) ;
#209 = FILL_AREA_STYLE_COLOUR ( '', #332 ) ;
#210 = FACE_OUTER_BOUND ( 'NONE', #265, .T. ) ;
#211 = CIRCLE ( 'NONE', #262, 4.000000000000000000 ) ;
#212 = AXIS2_PLACEMENT_3D ( 'NONE', #127, #341, #88 ) ;
#213 = DIRECTION ( 'NONE',  ( 0.000000000000000000, 0.000000000000000000, 1.000000000000000000 ) ) ;
#214 = UNCERTAINTY_MEASURE_WITH_UNIT (LENGTH_MEASURE( 1.000000000000000082E-05 ), #287, 'distance_accuracy_value', 'NONE');
#215 = ORIENTED_EDGE ( 'NONE', *, *, #62, .F. ) ;
#216 = PRODUCT_CONTEXT ( 'NONE', #150, 'mechanical' ) ;
#217 = LINE ( 'NONE', #230, #162 ) ;
#218 = AXIS2_PLACEMENT_3D ( 'NONE', #33, #68, #241 ) ;
#219 = FILL_AREA_STYLE ('',( #335 ) ) ;
#220 = LINE ( 'NONE', #249, #365 ) ;
#221 = CARTESIAN_POINT ( 'NONE',  ( -3.999999999999987121, 11.99999999999999645, 0.000000000000000000 ) ) ;
#222 = ORIENTED_EDGE ( 'NONE', *, *, #290, .F. ) ;
#223 = UNCERTAINTY_MEASURE_WITH_UNIT (LENGTH_MEASURE( 1.000000000000000082E-05 ), #1, 'distance_accuracy_value', 'NONE');
#224 = VERTEX_POINT ( 'NONE', #121 ) ;
#225 = AXIS2_PLACEMENT_3D ( 'NONE', #232, #182, #205 ) ;
#226 = ORIENTED_EDGE ( 'NONE', *, *, #16, .F. ) ;
#227 = ORIENTED_EDGE ( 'NONE', *, *, #118, .T. ) ;
#228 = SURFACE_STYLE_USAGE ( .BOTH. , #75 ) ;
#229 = ADVANCED_FACE ( 'NONE', ( #143 ), #63, .T. ) ;
#230 = CARTESIAN_POINT ( 'NONE',  ( 0.000000000000000000, 0.000000000000000000, -4.000000000000000000 ) ) ;
#231 = STYLED_ITEM ( 'NONE', ( #8 ), #240 ) ;
#232 = CARTESIAN_POINT ( 'NONE',  ( 1.469576158976823750E-15, 63.00000000000000000, 0.000000000000000000 ) ) ;
#233 =( LENGTH_UNIT ( ) NAMED_UNIT ( * ) SI_UNIT ( .MILLI., .METRE. ) );
#234 = CARTESIAN_POINT ( 'NONE',  ( 6.288372600415924928E-15, 11.99999999999999645, 0.000000000000000000 ) ) ;
#235 = MECHANICAL_DESIGN_GEOMETRIC_PRESENTATION_REPRESENTATION (  '', ( #336 ), #183 ) ;
#236 = SURFACE_STYLE_USAGE ( .BOTH. , #119 ) ;
#237 =( NAMED_UNIT ( * ) PLANE_ANGLE_UNIT ( ) SI_UNIT ( $, .RADIAN. ) );
#238 = COLOUR_RGB ( '',0.7921568627450980005, 0.8196078431372548767, 0.9333333333333333481 ) ;
#239 =( NAMED_UNIT ( * ) PLANE_ANGLE_UNIT ( ) SI_UNIT ( $, .RADIAN. ) );
#240 = ADVANCED_FACE ( 'NONE', ( #85 ), #12, .T. ) ;
#241 = DIRECTION ( 'NONE',  ( 0.000000000000000000, 0.000000000000000000, -1.000000000000000000 ) ) ;
#242 =( NAMED_UNIT ( * ) SI_UNIT ( $, .STERADIAN. ) SOLID_ANGLE_UNIT ( ) );
#243 = SURFACE_STYLE_USAGE ( .BOTH. , #345 ) ;
#244 = CARTESIAN_POINT ( 'NONE',  ( 0.000000000000000000, 0.000000000000000000, -3.000000000000000000 ) ) ;
#245 = PRODUCT_RELATED_PRODUCT_CATEGORY ( 'part', '', ( #7 ) ) ;
#246 = STYLED_ITEM ( 'NONE', ( #153 ), #229 ) ;
#247 = EDGE_LOOP ( 'NONE', ( #362, #326, #199, #43 ) ) ;
#248 = STYLED_ITEM ( 'NONE', ( #126 ), #250 ) ;
#249 = CARTESIAN_POINT ( 'NONE',  ( -3.999999999999994671, 63.00000000000000000, 0.000000000000000000 ) ) ;
#250 = ADVANCED_FACE ( 'NONE', ( #343 ), #320, .T. ) ;
#251 = VERTEX_POINT ( 'NONE', #157 ) ;
#252 = DIRECTION ( 'NONE',  ( -9.448620473410002383E-17, 1.000000000000000000, -0.000000000000000000 ) ) ;
#253 = EDGE_LOOP ( 'NONE', ( #301, #78 ) ) ;
#254 = EDGE_CURVE ( 'NONE', #251, #224, #316, .T. ) ;
#255 = PLANE ( 'NONE',  #136 ) ;
#256 = DIRECTION ( 'NONE',  ( 0.000000000000000000, 0.000000000000000000, -1.000000000000000000 ) ) ;
#257 = AXIS2_PLACEMENT_3D ( 'NONE', #359, #164, #18 ) ;
#258 = DIRECTION ( 'NONE',  ( -1.000000000000000000, 0.000000000000000000, 0.000000000000000000 ) ) ;
#259 = PRESENTATION_LAYER_ASSIGNMENT (  '', '', ( #160 ) ) ;
#260 = DIRECTION ( 'NONE',  ( 0.000000000000000000, 0.000000000000000000, 1.000000000000000000 ) ) ;
#261 = DIRECTION ( 'NONE',  ( -9.448620473410002383E-17, 1.000000000000000000, -0.000000000000000000 ) ) ;
#262 = AXIS2_PLACEMENT_3D ( 'NONE', #323, #74, #307 ) ;
#263 = CARTESIAN_POINT ( 'NONE',  ( 0.000000000000000000, 0.000000000000000000, 0.000000000000000000 ) ) ;
#264 =( GEOMETRIC_REPRESENTATION_CONTEXT ( 3 ) GLOBAL_UNCERTAINTY_ASSIGNED_CONTEXT ( ( #223 ) ) GLOBAL_UNIT_ASSIGNED_CONTEXT ( ( #1, #293, #242 ) ) REPRESENTATION_CONTEXT ( 'NONE', 'WORKASPACE' ) );
#265 = EDGE_LOOP ( 'NONE', ( #69, #327 ) ) ;
#266 =( GEOMETRIC_REPRESENTATION_CONTEXT ( 3 ) GLOBAL_UNCERTAINTY_ASSIGNED_CONTEXT ( ( #325 ) ) GLOBAL_UNIT_ASSIGNED_CONTEXT ( ( #52, #207, #146 ) ) REPRESENTATION_CONTEXT ( 'NONE', 'WORKASPACE' ) );
#267 = DIRECTION ( 'NONE',  ( -0.000000000000000000, -1.000000000000000000, -0.000000000000000000 ) ) ;
#268 = AXIS2_PLACEMENT_3D ( 'NONE', #97, #269, #3 ) ;
#269 = DIRECTION ( 'NONE',  ( -0.000000000000000000, -1.000000000000000000, -0.000000000000000000 ) ) ;
#270 = ORIENTED_EDGE ( 'NONE', *, *, #203, .F. ) ;
#271 = PRESENTATION_STYLE_ASSIGNMENT (( #42 ) ) ;
#272 = ORIENTED_EDGE ( 'NONE', *, *, #40, .T. ) ;
#273 =( GEOMETRIC_REPRESENTATION_CONTEXT ( 3 ) GLOBAL_UNCERTAINTY_ASSIGNED_CONTEXT ( ( #44 ) ) GLOBAL_UNIT_ASSIGNED_CONTEXT ( ( #93, #239, #344 ) ) REPRESENTATION_CONTEXT ( 'NONE', 'WORKASPACE' ) );
#274 = UNCERTAINTY_MEASURE_WITH_UNIT (LENGTH_MEASURE( 1.000000000000000082E-05 ), #233, 'distance_accuracy_value', 'NONE');
#275 = ORIENTED_EDGE ( 'NONE', *, *, #133, .F. ) ;
#276 = CARTESIAN_POINT ( 'NONE',  ( 1.469576158976823750E-15, 63.00000000000000000, 0.000000000000000000 ) ) ;
#277 = ORIENTED_EDGE ( 'NONE', *, *, #16, .T. ) ;
#278 = AXIS2_PLACEMENT_3D ( 'NONE', #99, #354, #302 ) ;
#279 = PRESENTATION_STYLE_ASSIGNMENT (( #228 ) ) ;
#280 = FACE_OUTER_BOUND ( 'NONE', #195, .T. ) ;
#281 = FACE_OUTER_BOUND ( 'NONE', #135, .T. ) ;
#282 =( NAMED_UNIT ( * ) SI_UNIT ( $, .STERADIAN. ) SOLID_ANGLE_UNIT ( ) );
#283 = CARTESIAN_POINT ( 'NONE',  ( 0.000000000000000000, 0.000000000000000000, 0.000000000000000000 ) ) ;
#284 = SURFACE_STYLE_USAGE ( .BOTH. , #192 ) ;
#285 = PRESENTATION_STYLE_ASSIGNMENT (( #60 ) ) ;
#286 = PRODUCT_DEFINITION ( 'UNKNOWN', '', #357, #109 ) ;
#287 =( LENGTH_UNIT ( ) NAMED_UNIT ( * ) SI_UNIT ( .MILLI., .METRE. ) );
#288 = AXIS2_PLACEMENT_3D ( 'NONE', #283, #206, #27 ) ;
#289 = FILL_AREA_STYLE_COLOUR ( '', #45 ) ;
#290 = EDGE_CURVE ( 'NONE', #2, #350, #167, .T. ) ;
#291 = STYLED_ITEM ( 'NONE', ( #279 ), #328 ) ;
#292 = CIRCLE ( 'NONE', #305, 3.999999999999993339 ) ;
#293 =( NAMED_UNIT ( * ) PLANE_ANGLE_UNIT ( ) SI_UNIT ( $, .RADIAN. ) );
#294 = DIRECTION ( 'NONE',  ( 0.000000000000000000, -0.000000000000000000, 1.000000000000000000 ) ) ;
#295 = LINE ( 'NONE', #355, #338 ) ;
#296 = SURFACE_SIDE_STYLE ('',( #194 ) ) ;
#297 = DIRECTION ( 'NONE',  ( -9.448620473410002383E-17, 1.000000000000000000, -0.000000000000000000 ) ) ;
#298 = ORIENTED_EDGE ( 'NONE', *, *, #86, .F. ) ;
#299 = AXIS2_PLACEMENT_3D ( 'NONE', #234, #261, #114 ) ;
#300 = EDGE_LOOP ( 'NONE', ( #222, #168, #358, #270 ) ) ;
#301 = ORIENTED_EDGE ( 'NONE', *, *, #47, .T. ) ;
#302 = DIRECTION ( 'NONE',  ( 1.000000000000000000, 9.448620473410002383E-17, 0.000000000000000000 ) ) ;
#303 = ADVANCED_FACE ( 'NONE', ( #210 ), #185, .T. ) ;
#304 = FILL_AREA_STYLE ('',( #53 ) ) ;
#305 = AXIS2_PLACEMENT_3D ( 'NONE', #367, #56, #258 ) ;
#306 = CARTESIAN_POINT ( 'NONE',  ( 0.000000000000000000, 1.000000000000000000, 0.000000000000000000 ) ) ;
#307 = DIRECTION ( 'NONE',  ( 0.000000000000000000, 0.000000000000000000, -1.000000000000000000 ) ) ;
#308 = CYLINDRICAL_SURFACE ( 'NONE', #35, 3.999999999999996447 ) ;
#309 = CARTESIAN_POINT ( 'NONE',  ( 0.000000000000000000, 0.000000000000000000, 0.000000000000000000 ) ) ;
#310 = CARTESIAN_POINT ( 'NONE',  ( 3.999999999999998224, 63.00000000000000000, 4.898587196589408884E-16 ) ) ;
#311 =( GEOMETRIC_REPRESENTATION_CONTEXT ( 3 ) GLOBAL_UNCERTAINTY_ASSIGNED_CONTEXT ( ( #214 ) ) GLOBAL_UNIT_ASSIGNED_CONTEXT ( ( #287, #201, #124 ) ) REPRESENTATION_CONTEXT ( 'NONE', 'WORKASPACE' ) );
#312 = FILL_AREA_STYLE_COLOUR ( '', #324 ) ;
#313 = ADVANCED_FACE ( 'NONE', ( #281 ), #308, .T. ) ;
#314 = FILL_AREA_STYLE ('',( #64 ) ) ;
#315 = AXIS2_PLACEMENT_3D ( 'NONE', #196, #169, #170 ) ;
#316 = CIRCLE ( 'NONE', #268, 4.000000000000000000 ) ;
#317 = DIRECTION ( 'NONE',  ( 0.000000000000000000, 0.000000000000000000, -1.000000000000000000 ) ) ;
#318 = APPLICATION_PROTOCOL_DEFINITION ( 'draft international standard', 'automotive_design', 1998, #150 ) ;
#319 = AXIS2_PLACEMENT_3D ( 'NONE', #141, #111, #11 ) ;
#320 = CYLINDRICAL_SURFACE ( 'NONE', #218, 4.000000000000000000 ) ;
#321 = VERTEX_POINT ( 'NONE', #244 ) ;
#322 = FACE_OUTER_BOUND ( 'NONE', #253, .T. ) ;
#323 = CARTESIAN_POINT ( 'NONE',  ( 0.000000000000000000, 1.000000000000000000, 0.000000000000000000 ) ) ;
#324 = COLOUR_RGB ( '',1.000000000000000000, 0.000000000000000000, 0.000000000000000000 ) ;
#325 = UNCERTAINTY_MEASURE_WITH_UNIT (LENGTH_MEASURE( 1.000000000000000082E-05 ), #52, 'distance_accuracy_value', 'NONE');
#326 = ORIENTED_EDGE ( 'NONE', *, *, #70, .T. ) ;
#327 = ORIENTED_EDGE ( 'NONE', *, *, #10, .F. ) ;
#328 = MANIFOLD_SOLID_BREP ( 'Revolve - Tool Body (Straight Shanked)', #125 ) ;
#329 = VERTEX_POINT ( 'NONE', #221 ) ;
#330 = ORIENTED_EDGE ( 'NONE', *, *, #290, .T. ) ;
#331 =( NAMED_UNIT ( * ) PLANE_ANGLE_UNIT ( ) SI_UNIT ( $, .RADIAN. ) );
#332 = COLOUR_RGB ( '',1.000000000000000000, 0.000000000000000000, 0.000000000000000000 ) ;
#333 = CARTESIAN_POINT ( 'NONE',  ( 6.288372600415925717E-15, 12.00000000000000000, 0.000000000000000000 ) ) ;
#334 = FILL_AREA_STYLE ('',( #312 ) ) ;
#335 = FILL_AREA_STYLE_COLOUR ( '', #89 ) ;
#336 = STYLED_ITEM ( 'NONE', ( #178 ), #366 ) ;
#337 = CARTESIAN_POINT ( 'NONE',  ( -3.999999999999996447, 63.00000000000000000, 0.000000000000000000 ) ) ;
#338 = VECTOR ( 'NONE', #103, 1000.000000000000000 ) ;
#339 = DIRECTION ( 'NONE',  ( -1.000000000000000000, -9.448620473410002383E-17, 0.000000000000000000 ) ) ;
#340 = AXIS2_PLACEMENT_3D ( 'NONE', #51, #148, #260 ) ;
#341 = DIRECTION ( 'NONE',  ( 1.000000000000000000, 0.000000000000000000, -1.224646799147353207E-16 ) ) ;
#342 = ADVANCED_FACE ( 'NONE', ( #142 ), #129, .F. ) ;
#343 = FACE_OUTER_BOUND ( 'NONE', #137, .T. ) ;
#344 =( NAMED_UNIT ( * ) SI_UNIT ( $, .STERADIAN. ) SOLID_ANGLE_UNIT ( ) );
#345 = SURFACE_SIDE_STYLE ('',( #5 ) ) ;
#346 = EDGE_CURVE ( 'NONE', #251, #166, #217, .T. ) ;
#347 = DIRECTION ( 'NONE',  ( 1.000000000000000000, 0.000000000000000000, 0.000000000000000000 ) ) ;
#348 = SURFACE_SIDE_STYLE ('',( #91 ) ) ;
#349 = AXIS2_PLACEMENT_3D ( 'NONE', #306, #92, #25 ) ;
#350 = VERTEX_POINT ( 'NONE', #171 ) ;
#351 = COLOUR_RGB ( '',0.7921568627450980005, 0.8196078431372548767, 0.9333333333333333481 ) ;
#352 = FILL_AREA_STYLE_COLOUR ( '', #238 ) ;
#353 = ADVANCED_FACE ( 'NONE', ( #322 ), #255, .T. ) ;
#354 = DIRECTION ( 'NONE',  ( 9.448620473410002383E-17, -1.000000000000000000, 0.000000000000000000 ) ) ;
#355 = CARTESIAN_POINT ( 'NONE',  ( 4.898587196589412829E-16, 0.000000000000000000, 4.000000000000000000 ) ) ;
#356 = ORIENTED_EDGE ( 'NONE', *, *, #40, .F. ) ;
#357 = PRODUCT_DEFINITION_FORMATION_WITH_SPECIFIED_SOURCE ( 'ANY', '', #7, .NOT_KNOWN. ) ;
#358 = ORIENTED_EDGE ( 'NONE', *, *, #86, .T. ) ;
#359 = CARTESIAN_POINT ( 'NONE',  ( 0.000000000000000000, 0.000000000000000000, 0.000000000000000000 ) ) ;
#360 = COLOUR_RGB ( '',1.000000000000000000, 0.000000000000000000, 0.000000000000000000 ) ;
#361 = EDGE_CURVE ( 'NONE', #2, #166, #144, .T. ) ;
#362 = ORIENTED_EDGE ( 'NONE', *, *, #254, .T. ) ;
#363 =( LENGTH_UNIT ( ) NAMED_UNIT ( * ) SI_UNIT ( .MILLI., .METRE. ) );
#364 = CIRCLE ( 'NONE', #319, 3.999999999999998224 ) ;
#365 = VECTOR ( 'NONE', #252, 1000.000000000000000 ) ;
#366 = ADVANCED_FACE ( 'NONE', ( #161 ), #176, .T. ) ;
#367 = CARTESIAN_POINT ( 'NONE',  ( 6.288372600415924928E-15, 11.99999999999999645, 0.000000000000000000 ) ) ;
#368 =( GEOMETRIC_REPRESENTATION_CONTEXT ( 3 ) GLOBAL_UNCERTAINTY_ASSIGNED_CONTEXT ( ( #79 ) ) GLOBAL_UNIT_ASSIGNED_CONTEXT ( ( #26, #29, #282 ) ) REPRESENTATION_CONTEXT ( 'NONE', 'WORKASPACE' ) );
#369 =( LENGTH_UNIT ( ) NAMED_UNIT ( * ) SI_UNIT ( .MILLI., .METRE. ) );
#370 = LINE ( 'NONE', #310, #82 ) ;
ENDSEC;
END-ISO-10303-21;
