ISO-10303-21;
HEADER;
FILE_DESCRIPTION (( 'STEP AP214' ),
    '1' );
FILE_NAME ('07011.STEP',
    '2023-07-12T13:04:57',
    ( '' ),
    ( '' ),
    'SwSTEP 2.0',
    'SolidWorks 2023',
    '' );
FILE_SCHEMA (( 'AUTOMOTIVE_DESIGN' ));
ENDSEC;

DATA;
#1 =( NAMED_UNIT ( * ) PLANE_ANGLE_UNIT ( ) SI_UNIT ( $, .RADIAN. ) );
#2 = AXIS2_PLACEMENT_3D ( 'NONE', #161, #228, #255 ) ;
#3 = PRESENTATION_LAYER_ASSIGNMENT (  '', '', ( #62 ) ) ;
#4 = DIRECTION ( 'NONE',  ( -5.420479003870042992E-18, -1.000000000000000000, -0.000000000000000000 ) ) ;
#5 = ORIENTED_EDGE ( 'NONE', *, *, #238, .T. ) ;
#6 = EDGE_CURVE ( 'NONE', #133, #220, #93, .T. ) ;
#7 =( GEOMETRIC_REPRESENTATION_CONTEXT ( 3 ) GLOBAL_UNCERTAINTY_ASSIGNED_CONTEXT ( ( #184 ) ) GLOBAL_UNIT_ASSIGNED_CONTEXT ( ( #23, #289, #262 ) ) REPRESENTATION_CONTEXT ( 'NONE', 'WORKASPACE' ) );
#8 = EDGE_LOOP ( 'NONE', ( #136, #165, #209, #266 ) ) ;
#9 = PRESENTATION_STYLE_ASSIGNMENT (( #271 ) ) ;
#10 = EDGE_LOOP ( 'NONE', ( #61, #119 ) ) ;
#11 = SURFACE_STYLE_FILL_AREA ( #103 ) ;
#12 = CYLINDRICAL_SURFACE ( 'NONE', #182, 0.3124999999999998890 ) ;
#13 =( CONVERSION_BASED_UNIT ( 'INCH', #300 ) LENGTH_UNIT ( ) NAMED_UNIT ( #179 ) );
#14 = DIRECTION ( 'NONE',  ( 1.442548267832386599E-16, -1.000000000000000000, 0.000000000000000000 ) ) ;
#15 =( LENGTH_UNIT ( ) NAMED_UNIT ( * ) SI_UNIT ( $, .METRE. ) );
#16 =( NAMED_UNIT ( * ) PLANE_ANGLE_UNIT ( ) SI_UNIT ( $, .RADIAN. ) );
#17 = PRODUCT_CONTEXT ( 'NONE', #53, 'mechanical' ) ;
#18 = MECHANICAL_DESIGN_GEOMETRIC_PRESENTATION_REPRESENTATION (  '', ( #64 ), #234 ) ;
#19 = DIRECTION ( 'NONE',  ( -1.442548267832386599E-16, 1.000000000000000000, -0.000000000000000000 ) ) ;
#20 = CARTESIAN_POINT ( 'NONE',  ( -0.3125000000000000000, 0.2674999999999990719, 0.000000000000000000 ) ) ;
#21 = CLOSED_SHELL ( 'NONE', ( #127, #105, #109, #60 ) ) ;
#22 = CARTESIAN_POINT ( 'NONE',  ( -0.3124999999999993339, 0.2674999999999992384, 0.000000000000000000 ) ) ;
#23 =( CONVERSION_BASED_UNIT ( 'INCH', #181 ) LENGTH_UNIT ( ) NAMED_UNIT ( #287 ) );
#24 = EDGE_CURVE ( 'NONE', #216, #159, #154, .T. ) ;
#25 = CARTESIAN_POINT ( 'NONE',  ( 3.329439742278320982E-16, 0.2674999999999992384, 0.000000000000000000 ) ) ;
#26 = AXIS2_PLACEMENT_3D ( 'NONE', #241, #162, #167 ) ;
#27 =( GEOMETRIC_REPRESENTATION_CONTEXT ( 3 ) GLOBAL_UNCERTAINTY_ASSIGNED_CONTEXT ( ( #95 ) ) GLOBAL_UNIT_ASSIGNED_CONTEXT ( ( #13, #261, #48 ) ) REPRESENTATION_CONTEXT ( 'NONE', 'WORKASPACE' ) );
#28 = AXIS2_PLACEMENT_3D ( 'NONE', #38, #14, #172 ) ;
#29 = ORIENTED_EDGE ( 'NONE', *, *, #155, .T. ) ;
#30 = FILL_AREA_STYLE ('',( #270 ) ) ;
#31 = DIRECTION ( 'NONE',  ( -1.442548267832386599E-16, 1.000000000000000000, -0.000000000000000000 ) ) ;
#32 = ADVANCED_FACE ( 'NONE', ( #138 ), #198, .T. ) ;
#33 = ORIENTED_EDGE ( 'NONE', *, *, #301, .T. ) ;
#34 =( NAMED_UNIT ( * ) PLANE_ANGLE_UNIT ( ) SI_UNIT ( $, .RADIAN. ) );
#35 = AXIS2_PLACEMENT_3D ( 'NONE', #230, #88, #171 ) ;
#36 = VERTEX_POINT ( 'NONE', #201 ) ;
#37 = CIRCLE ( 'NONE', #227, 0.04499999999999999833 ) ;
#38 = CARTESIAN_POINT ( 'NONE',  ( 0.3125000000000000000, 3.000000000000000444, 0.000000000000000000 ) ) ;
#39 =( NAMED_UNIT ( * ) SI_UNIT ( $, .STERADIAN. ) SOLID_ANGLE_UNIT ( ) );
#40 = DIMENSIONAL_EXPONENTS ( 1.000000000000000000, 0.000000000000000000, 0.000000000000000000, 0.000000000000000000, 0.000000000000000000, 0.000000000000000000, 0.000000000000000000 ) ;
#41 = CARTESIAN_POINT ( 'NONE',  ( -0.04499999999999999833, 4.878431103483037846E-19, 0.000000000000000000 ) ) ;
#42 = CARTESIAN_POINT ( 'NONE',  ( -6.123233995736772199E-17, 3.000000000000000444, 0.000000000000000000 ) ) ;
#43 = MECHANICAL_DESIGN_GEOMETRIC_PRESENTATION_REPRESENTATION (  '', ( #219 ), #260 ) ;
#44 = DIMENSIONAL_EXPONENTS ( 1.000000000000000000, 0.000000000000000000, 0.000000000000000000, 0.000000000000000000, 0.000000000000000000, 0.000000000000000000, 0.000000000000000000 ) ;
#45 =( LENGTH_UNIT ( ) NAMED_UNIT ( * ) SI_UNIT ( $, .METRE. ) );
#46 = MECHANICAL_DESIGN_GEOMETRIC_PRESENTATION_REPRESENTATION (  '', ( #62 ), #217 ) ;
#47 = EDGE_CURVE ( 'NONE', #36, #220, #199, .T. ) ;
#48 =( NAMED_UNIT ( * ) SI_UNIT ( $, .STERADIAN. ) SOLID_ANGLE_UNIT ( ) );
#49 = FILL_AREA_STYLE ('',( #177 ) ) ;
#50 = PRESENTATION_STYLE_ASSIGNMENT (( #156 ) ) ;
#51 = VERTEX_POINT ( 'NONE', #203 ) ;
#52 = FILL_AREA_STYLE_COLOUR ( '', #94 ) ;
#53 = APPLICATION_CONTEXT ( 'automotive_design' ) ;
#54 = MECHANICAL_DESIGN_GEOMETRIC_PRESENTATION_REPRESENTATION (  '', ( #176 ), #68 ) ;
#55 = EDGE_LOOP ( 'NONE', ( #80, #29 ) ) ;
#56 = ADVANCED_FACE ( 'NONE', ( #130 ), #106, .T. ) ;
#57 = EDGE_LOOP ( 'NONE', ( #190, #116 ) ) ;
#58 = CARTESIAN_POINT ( 'NONE',  ( 0.3125000000000000000, 0.2674999999999990719, 3.827021247335478926E-17 ) ) ;
#59 = LENGTH_MEASURE_WITH_UNIT ( LENGTH_MEASURE( 0.02539999999999999897 ), #163 );
#60 = ADVANCED_FACE ( 'NONE', ( #69 ), #152, .F. ) ;
#61 = ORIENTED_EDGE ( 'NONE', *, *, #180, .F. ) ;
#62 = STYLED_ITEM ( 'NONE', ( #50 ), #195 ) ;
#63 = SURFACE_SIDE_STYLE ('',( #218 ) ) ;
#64 = STYLED_ITEM ( 'NONE', ( #145 ), #280 ) ;
#65 = DIRECTION ( 'NONE',  ( -1.000000000000000000, 0.000000000000000000, 0.000000000000000000 ) ) ;
#66 = FACE_OUTER_BOUND ( 'NONE', #294, .T. ) ;
#67 = DIRECTION ( 'NONE',  ( -1.442548267832386599E-16, 1.000000000000000000, -0.000000000000000000 ) ) ;
#68 =( GEOMETRIC_REPRESENTATION_CONTEXT ( 3 ) GLOBAL_UNCERTAINTY_ASSIGNED_CONTEXT ( ( #124 ) ) GLOBAL_UNIT_ASSIGNED_CONTEXT ( ( #214, #97, #248 ) ) REPRESENTATION_CONTEXT ( 'NONE', 'WORKASPACE' ) );
#69 = FACE_OUTER_BOUND ( 'NONE', #57, .T. ) ;
#70 = LENGTH_MEASURE_WITH_UNIT ( LENGTH_MEASURE( 0.02539999999999999897 ), #308 );
#71 = DIRECTION ( 'NONE',  ( 5.420479003870042992E-18, 1.000000000000000000, 0.000000000000000000 ) ) ;
#72 = FACE_OUTER_BOUND ( 'NONE', #55, .T. ) ;
#73 =( LENGTH_UNIT ( ) NAMED_UNIT ( * ) SI_UNIT ( $, .METRE. ) );
#74 = AXIS2_PLACEMENT_3D ( 'NONE', #125, #71, #225 ) ;
#75 = UNCERTAINTY_MEASURE_WITH_UNIT (LENGTH_MEASURE( 1.000000000000000082E-05 ), #200, 'distance_accuracy_value', 'NONE');
#76 = ORIENTED_EDGE ( 'NONE', *, *, #155, .F. ) ;
#77 = EDGE_CURVE ( 'NONE', #113, #36, #239, .T. ) ;
#78 = ORIENTED_EDGE ( 'NONE', *, *, #6, .F. ) ;
#79 = LINE ( 'NONE', #41, #222 ) ;
#80 = ORIENTED_EDGE ( 'NONE', *, *, #77, .T. ) ;
#81 = PRESENTATION_LAYER_ASSIGNMENT (  '', '', ( #64 ) ) ;
#82 = CARTESIAN_POINT ( 'NONE',  ( 1.449978133535231439E-18, 0.2674999999999990719, 0.000000000000000000 ) ) ;
#83 = EDGE_LOOP ( 'NONE', ( #76, #121, #296, #237 ) ) ;
#84 =( CONVERSION_BASED_UNIT ( 'INCH', #244 ) LENGTH_UNIT ( ) NAMED_UNIT ( #44 ) );
#85 = SHAPE_DEFINITION_REPRESENTATION ( #196, #107 ) ;
#86 = COLOUR_RGB ( '',1.000000000000000000, 0.000000000000000000, 0.000000000000000000 ) ;
#87 = DIRECTION ( 'NONE',  ( -5.420479003870042992E-18, -1.000000000000000000, -0.000000000000000000 ) ) ;
#88 = DIRECTION ( 'NONE',  ( 0.000000000000000000, 0.000000000000000000, 1.000000000000000000 ) ) ;
#89 = LENGTH_MEASURE_WITH_UNIT ( LENGTH_MEASURE( 0.02539999999999999897 ), #45 );
#90 = FACE_OUTER_BOUND ( 'NONE', #8, .T. ) ;
#91 = SURFACE_STYLE_USAGE ( .BOTH. , #285 ) ;
#92 = ORIENTED_EDGE ( 'NONE', *, *, #77, .F. ) ;
#93 = CIRCLE ( 'NONE', #115, 0.3125000000000000000 ) ;
#94 = COLOUR_RGB ( '',0.7921568627450980005, 0.8196078431372548767, 0.9333333333333333481 ) ;
#95 = UNCERTAINTY_MEASURE_WITH_UNIT (LENGTH_MEASURE( 1.000000000000000082E-05 ), #13, 'distance_accuracy_value', 'NONE');
#96 = DIRECTION ( 'NONE',  ( -1.000000000000000000, 0.000000000000000000, 0.000000000000000000 ) ) ;
#97 =( NAMED_UNIT ( * ) PLANE_ANGLE_UNIT ( ) SI_UNIT ( $, .RADIAN. ) );
#98 = CARTESIAN_POINT ( 'NONE',  ( -6.123233995736770966E-17, 3.000000000000000444, 0.000000000000000000 ) ) ;
#99 = EDGE_LOOP ( 'NONE', ( #212, #92, #293, #188 ) ) ;
#100 = SURFACE_STYLE_USAGE ( .BOTH. , #276 ) ;
#101 = ORIENTED_EDGE ( 'NONE', *, *, #258, .F. ) ;
#102 = DIRECTION ( 'NONE',  ( -1.442548267832386599E-16, 1.000000000000000000, 0.000000000000000000 ) ) ;
#103 = FILL_AREA_STYLE ('',( #191 ) ) ;
#104 = AXIS2_PLACEMENT_3D ( 'NONE', #302, #87, #170 ) ;
#105 = ADVANCED_FACE ( 'NONE', ( #149 ), #281, .F. ) ;
#106 = PLANE ( 'NONE',  #74 ) ;
#107 = ADVANCED_BREP_SHAPE_REPRESENTATION ( '07011', ( #195, #297, #35 ), #7 ) ;
#108 = CARTESIAN_POINT ( 'NONE',  ( 1.322171668412818718E-36, 2.439215551741518923E-19, 0.000000000000000000 ) ) ;
#109 = ADVANCED_FACE ( 'NONE', ( #66 ), #282, .T. ) ;
#110 = DIRECTION ( 'NONE',  ( -5.420479003870042992E-18, -1.000000000000000000, -0.000000000000000000 ) ) ;
#111 = COLOUR_RGB ( '',1.000000000000000000, 0.000000000000000000, 0.000000000000000000 ) ;
#112 = LENGTH_MEASURE_WITH_UNIT ( LENGTH_MEASURE( 0.02539999999999999897 ), #264 );
#113 = VERTEX_POINT ( 'NONE', #250 ) ;
#114 = VECTOR ( 'NONE', #269, 39.37007874015748143 ) ;
#115 = AXIS2_PLACEMENT_3D ( 'NONE', #82, #4, #268 ) ;
#116 = ORIENTED_EDGE ( 'NONE', *, *, #24, .T. ) ;
#117 = FILL_AREA_STYLE ('',( #52 ) ) ;
#118 = PRESENTATION_LAYER_ASSIGNMENT (  '', '', ( #146 ) ) ;
#119 = ORIENTED_EDGE ( 'NONE', *, *, #301, .F. ) ;
#120 = VECTOR ( 'NONE', #123, 39.37007874015748854 ) ;
#121 = ORIENTED_EDGE ( 'NONE', *, *, #47, .T. ) ;
#122 = CARTESIAN_POINT ( 'NONE',  ( 3.329439742278320982E-16, 0.2674999999999992384, 0.000000000000000000 ) ) ;
#123 = DIRECTION ( 'NONE',  ( 0.7071067811865486830, 0.7071067811865462405, 8.659560562354947649E-17 ) ) ;
#124 = UNCERTAINTY_MEASURE_WITH_UNIT (LENGTH_MEASURE( 1.000000000000000082E-05 ), #214, 'distance_accuracy_value', 'NONE');
#125 = CARTESIAN_POINT ( 'NONE',  ( 1.449978133535231054E-18, 0.2674999999999990719, 0.000000000000000000 ) ) ;
#126 = PRODUCT ( '07011', '07011', '', ( #17 ) ) ;
#127 = ADVANCED_FACE ( 'NONE', ( #90 ), #12, .T. ) ;
#128 =( NAMED_UNIT ( * ) SI_UNIT ( $, .STERADIAN. ) SOLID_ANGLE_UNIT ( ) );
#129 = SURFACE_STYLE_FILL_AREA ( #304 ) ;
#130 = FACE_OUTER_BOUND ( 'NONE', #194, .T. ) ;
#131 = CIRCLE ( 'NONE', #202, 0.3125000000000000000 ) ;
#132 = DIRECTION ( 'NONE',  ( 1.000000000000000000, 0.000000000000000000, 0.000000000000000000 ) ) ;
#133 = VERTEX_POINT ( 'NONE', #20 ) ;
#134 = PRODUCT_RELATED_PRODUCT_CATEGORY ( 'part', '', ( #126 ) ) ;
#135 = AXIS2_PLACEMENT_3D ( 'NONE', #122, #286, #153 ) ;
#136 = ORIENTED_EDGE ( 'NONE', *, *, #180, .T. ) ;
#137 = AXIS2_PLACEMENT_3D ( 'NONE', #284, #102, #305 ) ;
#138 = FACE_OUTER_BOUND ( 'NONE', #83, .T. ) ;
#139 = FILL_AREA_STYLE ('',( #226 ) ) ;
#140 = VECTOR ( 'NONE', #31, 39.37007874015748143 ) ;
#141 = DIRECTION ( 'NONE',  ( -1.442548267832386599E-16, 1.000000000000000000, -0.000000000000000000 ) ) ;
#142 = PRODUCT_DEFINITION ( 'UNKNOWN', '', #173, #193 ) ;
#143 = SURFACE_SIDE_STYLE ('',( #275 ) ) ;
#144 = AXIS2_PLACEMENT_3D ( 'NONE', #187, #211, #267 ) ;
#145 = PRESENTATION_STYLE_ASSIGNMENT (( #100 ) ) ;
#146 = STYLED_ITEM ( 'NONE', ( #9 ), #297 ) ;
#147 = LINE ( 'NONE', #249, #140 ) ;
#148 = APPLICATION_PROTOCOL_DEFINITION ( 'draft international standard', 'automotive_design', 1998, #186 ) ;
#149 = FACE_OUTER_BOUND ( 'NONE', #10, .T. ) ;
#150 = DIRECTION ( 'NONE',  ( -1.442548267832386599E-16, 1.000000000000000000, -0.000000000000000000 ) ) ;
#151 = DIRECTION ( 'NONE',  ( -1.000000000000000000, 0.000000000000000000, 0.000000000000000000 ) ) ;
#152 = PLANE ( 'NONE',  #28 ) ;
#153 = DIRECTION ( 'NONE',  ( -1.000000000000000000, -1.092739197465706397E-16, 0.000000000000000000 ) ) ;
#154 = CIRCLE ( 'NONE', #210, 0.3125000000000000555 ) ;
#155 = EDGE_CURVE ( 'NONE', #36, #113, #37, .T. ) ;
#156 = SURFACE_STYLE_USAGE ( .BOTH. , #213 ) ;
#157 =( NAMED_UNIT ( * ) PLANE_ANGLE_UNIT ( ) SI_UNIT ( $, .RADIAN. ) );
#158 =( NAMED_UNIT ( * ) SI_UNIT ( $, .STERADIAN. ) SOLID_ANGLE_UNIT ( ) );
#159 = VERTEX_POINT ( 'NONE', #205 ) ;
#160 = DIRECTION ( 'NONE',  ( -0.7071067811865486830, 0.7071067811865462405, 0.000000000000000000 ) ) ;
#161 = CARTESIAN_POINT ( 'NONE',  ( 1.322171668412818718E-36, 2.439215551741518923E-19, 0.000000000000000000 ) ) ;
#162 = DIRECTION ( 'NONE',  ( 5.420479003870042992E-18, 1.000000000000000000, 0.000000000000000000 ) ) ;
#163 =( LENGTH_UNIT ( ) NAMED_UNIT ( * ) SI_UNIT ( $, .METRE. ) );
#164 = DIRECTION ( 'NONE',  ( -1.442548267832386599E-16, 1.000000000000000000, -0.000000000000000000 ) ) ;
#165 = ORIENTED_EDGE ( 'NONE', *, *, #258, .T. ) ;
#166 = UNCERTAINTY_MEASURE_WITH_UNIT (LENGTH_MEASURE( 1.000000000000000082E-05 ), #283, 'distance_accuracy_value', 'NONE');
#167 = DIRECTION ( 'NONE',  ( -1.000000000000000000, 5.420479003870042222E-18, 0.000000000000000000 ) ) ;
#168 = COLOUR_RGB ( '',1.000000000000000000, 0.000000000000000000, 0.000000000000000000 ) ;
#169 = PRESENTATION_LAYER_ASSIGNMENT (  '', '', ( #192 ) ) ;
#170 = DIRECTION ( 'NONE',  ( 1.000000000000000000, -5.420479003870042222E-18, 0.000000000000000000 ) ) ;
#171 = DIRECTION ( 'NONE',  ( 1.000000000000000000, 0.000000000000000000, 0.000000000000000000 ) ) ;
#172 = DIRECTION ( 'NONE',  ( 1.000000000000000000, 1.442548267832386599E-16, 0.000000000000000000 ) ) ;
#173 = PRODUCT_DEFINITION_FORMATION_WITH_SPECIFIED_SOURCE ( 'ANY', '', #126, .NOT_KNOWN. ) ;
#174 = SURFACE_STYLE_FILL_AREA ( #49 ) ;
#175 = SURFACE_STYLE_USAGE ( .BOTH. , #231 ) ;
#176 = STYLED_ITEM ( 'NONE', ( #243 ), #32 ) ;
#177 = FILL_AREA_STYLE_COLOUR ( '', #111 ) ;
#178 = CARTESIAN_POINT ( 'NONE',  ( 1.449978133535231439E-18, 0.2674999999999990719, 0.000000000000000000 ) ) ;
#179 = DIMENSIONAL_EXPONENTS ( 1.000000000000000000, 0.000000000000000000, 0.000000000000000000, 0.000000000000000000, 0.000000000000000000, 0.000000000000000000, 0.000000000000000000 ) ;
#180 = EDGE_CURVE ( 'NONE', #298, #51, #245, .T. ) ;
#181 = LENGTH_MEASURE_WITH_UNIT ( LENGTH_MEASURE( 0.02539999999999999897 ), #73 );
#182 = AXIS2_PLACEMENT_3D ( 'NONE', #42, #150, #253 ) ;
#183 = ORIENTED_EDGE ( 'NONE', *, *, #24, .F. ) ;
#184 = UNCERTAINTY_MEASURE_WITH_UNIT (LENGTH_MEASURE( 1.000000000000000082E-05 ), #23, 'distance_accuracy_value', 'NONE');
#185 = SURFACE_STYLE_FILL_AREA ( #117 ) ;
#186 = APPLICATION_CONTEXT ( 'automotive_design' ) ;
#187 = CARTESIAN_POINT ( 'NONE',  ( 6.610858342064093588E-37, 1.219607775870759461E-19, 0.000000000000000000 ) ) ;
#188 = ORIENTED_EDGE ( 'NONE', *, *, #6, .T. ) ;
#189 = ADVANCED_FACE ( 'NONE', ( #72 ), #254, .T. ) ;
#190 = ORIENTED_EDGE ( 'NONE', *, *, #251, .T. ) ;
#191 = FILL_AREA_STYLE_COLOUR ( '', #236 ) ;
#192 = STYLED_ITEM ( 'NONE', ( #290 ), #189 ) ;
#193 = PRODUCT_DEFINITION_CONTEXT ( 'detailed design', #186, 'design' ) ;
#194 = EDGE_LOOP ( 'NONE', ( #78, #295 ) ) ;
#195 = MANIFOLD_SOLID_BREP ( 'Revolve - Cutting Edge', #204 ) ;
#196 = PRODUCT_DEFINITION_SHAPE ( 'NONE', 'NONE',  #142 ) ;
#197 = FACE_OUTER_BOUND ( 'NONE', #99, .T. ) ;
#198 = CONICAL_SURFACE ( 'NONE', #2, 0.04499999999999999833, 0.7853981633974500554 ) ;
#199 = LINE ( 'NONE', #229, #120 ) ;
#200 =( CONVERSION_BASED_UNIT ( 'INCH', #89 ) LENGTH_UNIT ( ) NAMED_UNIT ( #247 ) );
#201 = CARTESIAN_POINT ( 'NONE',  ( 0.04499999999999999833, 0.000000000000000000, 2.189056153475893941E-17 ) ) ;
#202 = AXIS2_PLACEMENT_3D ( 'NONE', #178, #259, #132 ) ;
#203 = CARTESIAN_POINT ( 'NONE',  ( 0.3125000000000000000, 0.2674999999999992939, 3.827021247335478926E-17 ) ) ;
#204 = CLOSED_SHELL ( 'NONE', ( #32, #56, #280, #189 ) ) ;
#205 = CARTESIAN_POINT ( 'NONE',  ( -0.3125000000000001665, 3.000000000000000444, 0.000000000000000000 ) ) ;
#206 = COLOUR_RGB ( '',0.7921568627450980005, 0.8196078431372548767, 0.9333333333333333481 ) ;
#207 = AXIS2_PLACEMENT_3D ( 'NONE', #223, #67, #151 ) ;
#208 =( CONVERSION_BASED_UNIT ( 'INCH', #112 ) LENGTH_UNIT ( ) NAMED_UNIT ( #233 ) );
#209 = ORIENTED_EDGE ( 'NONE', *, *, #251, .F. ) ;
#210 = AXIS2_PLACEMENT_3D ( 'NONE', #272, #141, #96 ) ;
#211 = DIRECTION ( 'NONE',  ( -5.420479003870042992E-18, -1.000000000000000000, 0.000000000000000000 ) ) ;
#212 = ORIENTED_EDGE ( 'NONE', *, *, #47, .F. ) ;
#213 = SURFACE_SIDE_STYLE ('',( #185 ) ) ;
#214 =( CONVERSION_BASED_UNIT ( 'INCH', #59 ) LENGTH_UNIT ( ) NAMED_UNIT ( #306 ) );
#215 =( NAMED_UNIT ( * ) SI_UNIT ( $, .STERADIAN. ) SOLID_ANGLE_UNIT ( ) );
#216 = VERTEX_POINT ( 'NONE', #279 ) ;
#217 =( GEOMETRIC_REPRESENTATION_CONTEXT ( 3 ) GLOBAL_UNCERTAINTY_ASSIGNED_CONTEXT ( ( #273 ) ) GLOBAL_UNIT_ASSIGNED_CONTEXT ( ( #208, #157, #215 ) ) REPRESENTATION_CONTEXT ( 'NONE', 'WORKASPACE' ) );
#218 = SURFACE_STYLE_FILL_AREA ( #139 ) ;
#219 = STYLED_ITEM ( 'NONE', ( #278 ), #56 ) ;
#220 = VERTEX_POINT ( 'NONE', #58 ) ;
#221 = CARTESIAN_POINT ( 'NONE',  ( -0.3124999999999999445, 3.000000000000000444, 0.000000000000000000 ) ) ;
#222 = VECTOR ( 'NONE', #160, 39.37007874015748854 ) ;
#223 = CARTESIAN_POINT ( 'NONE',  ( -6.123233995736772199E-17, 3.000000000000000444, 0.000000000000000000 ) ) ;
#224 =( LENGTH_UNIT ( ) NAMED_UNIT ( * ) SI_UNIT ( $, .METRE. ) );
#225 = DIRECTION ( 'NONE',  ( -1.000000000000000000, 5.420479003870042992E-18, 0.000000000000000000 ) ) ;
#226 = FILL_AREA_STYLE_COLOUR ( '', #206 ) ;
#227 = AXIS2_PLACEMENT_3D ( 'NONE', #108, #110, #256 ) ;
#228 = DIRECTION ( 'NONE',  ( 5.420479003870042992E-18, 1.000000000000000000, 0.000000000000000000 ) ) ;
#229 = CARTESIAN_POINT ( 'NONE',  ( 0.04499999999999999833, 0.000000000000000000, 5.510910596163089556E-18 ) ) ;
#230 = CARTESIAN_POINT ( 'NONE',  ( 0.000000000000000000, 0.000000000000000000, 0.000000000000000000 ) ) ;
#231 = SURFACE_SIDE_STYLE ('',( #129 ) ) ;
#232 =( GEOMETRIC_REPRESENTATION_CONTEXT ( 3 ) GLOBAL_UNCERTAINTY_ASSIGNED_CONTEXT ( ( #166 ) ) GLOBAL_UNIT_ASSIGNED_CONTEXT ( ( #283, #1, #158 ) ) REPRESENTATION_CONTEXT ( 'NONE', 'WORKASPACE' ) );
#233 = DIMENSIONAL_EXPONENTS ( 1.000000000000000000, 0.000000000000000000, 0.000000000000000000, 0.000000000000000000, 0.000000000000000000, 0.000000000000000000, 0.000000000000000000 ) ;
#234 =( GEOMETRIC_REPRESENTATION_CONTEXT ( 3 ) GLOBAL_UNCERTAINTY_ASSIGNED_CONTEXT ( ( #265 ) ) GLOBAL_UNIT_ASSIGNED_CONTEXT ( ( #84, #34, #128 ) ) REPRESENTATION_CONTEXT ( 'NONE', 'WORKASPACE' ) );
#235 = PRESENTATION_LAYER_ASSIGNMENT (  '', '', ( #219 ) ) ;
#236 = COLOUR_RGB ( '',1.000000000000000000, 0.000000000000000000, 0.000000000000000000 ) ;
#237 = ORIENTED_EDGE ( 'NONE', *, *, #263, .F. ) ;
#238 = EDGE_CURVE ( 'NONE', #298, #159, #292, .T. ) ;
#239 = CIRCLE ( 'NONE', #104, 0.04499999999999999833 ) ;
#240 = SURFACE_STYLE_USAGE ( .BOTH. , #143 ) ;
#241 = CARTESIAN_POINT ( 'NONE',  ( 1.322171668412818718E-36, 2.439215551741518923E-19, 0.000000000000000000 ) ) ;
#242 = MECHANICAL_DESIGN_GEOMETRIC_PRESENTATION_REPRESENTATION (  '', ( #146 ), #27 ) ;
#243 = PRESENTATION_STYLE_ASSIGNMENT (( #240 ) ) ;
#244 = LENGTH_MEASURE_WITH_UNIT ( LENGTH_MEASURE( 0.02539999999999999897 ), #15 );
#245 = CIRCLE ( 'NONE', #252, 0.3124999999999996669 ) ;
#246 = CONICAL_SURFACE ( 'NONE', #26, 0.04499999999999999833, 0.7853981633974500554 ) ;
#247 = DIMENSIONAL_EXPONENTS ( 1.000000000000000000, 0.000000000000000000, 0.000000000000000000, 0.000000000000000000, 0.000000000000000000, 0.000000000000000000, 0.000000000000000000 ) ;
#248 =( NAMED_UNIT ( * ) SI_UNIT ( $, .STERADIAN. ) SOLID_ANGLE_UNIT ( ) );
#249 = CARTESIAN_POINT ( 'NONE',  ( 0.3124999999999998335, 3.000000000000000444, 3.827021247335477078E-17 ) ) ;
#250 = CARTESIAN_POINT ( 'NONE',  ( -0.04499999999999999833, 4.878431103483037846E-19, 0.000000000000000000 ) ) ;
#251 = EDGE_CURVE ( 'NONE', #159, #216, #303, .T. ) ;
#252 = AXIS2_PLACEMENT_3D ( 'NONE', #25, #19, #307 ) ;
#253 = DIRECTION ( 'NONE',  ( -1.000000000000000000, 0.000000000000000000, 0.000000000000000000 ) ) ;
#254 = PLANE ( 'NONE',  #144 ) ;
#255 = DIRECTION ( 'NONE',  ( -1.000000000000000000, 5.420479003870042222E-18, 0.000000000000000000 ) ) ;
#256 = DIRECTION ( 'NONE',  ( 1.000000000000000000, -5.420479003870042222E-18, 0.000000000000000000 ) ) ;
#257 = APPLICATION_PROTOCOL_DEFINITION ( 'draft international standard', 'automotive_design', 1998, #53 ) ;
#258 = EDGE_CURVE ( 'NONE', #51, #216, #147, .T. ) ;
#259 = DIRECTION ( 'NONE',  ( -5.420479003870042992E-18, -1.000000000000000000, -0.000000000000000000 ) ) ;
#260 =( GEOMETRIC_REPRESENTATION_CONTEXT ( 3 ) GLOBAL_UNCERTAINTY_ASSIGNED_CONTEXT ( ( #75 ) ) GLOBAL_UNIT_ASSIGNED_CONTEXT ( ( #200, #16, #39 ) ) REPRESENTATION_CONTEXT ( 'NONE', 'WORKASPACE' ) );
#261 =( NAMED_UNIT ( * ) PLANE_ANGLE_UNIT ( ) SI_UNIT ( $, .RADIAN. ) );
#262 =( NAMED_UNIT ( * ) SI_UNIT ( $, .STERADIAN. ) SOLID_ANGLE_UNIT ( ) );
#263 = EDGE_CURVE ( 'NONE', #113, #133, #79, .T. ) ;
#264 =( LENGTH_UNIT ( ) NAMED_UNIT ( * ) SI_UNIT ( $, .METRE. ) );
#265 = UNCERTAINTY_MEASURE_WITH_UNIT (LENGTH_MEASURE( 1.000000000000000082E-05 ), #84, 'distance_accuracy_value', 'NONE');
#266 = ORIENTED_EDGE ( 'NONE', *, *, #238, .F. ) ;
#267 = DIRECTION ( 'NONE',  ( 1.000000000000000000, -5.420479003870042992E-18, 0.000000000000000000 ) ) ;
#268 = DIRECTION ( 'NONE',  ( 1.000000000000000000, 0.000000000000000000, 0.000000000000000000 ) ) ;
#269 = DIRECTION ( 'NONE',  ( -1.442548267832386599E-16, 1.000000000000000000, -0.000000000000000000 ) ) ;
#270 = FILL_AREA_STYLE_COLOUR ( '', #86 ) ;
#271 = SURFACE_STYLE_USAGE ( .BOTH. , #63 ) ;
#272 = CARTESIAN_POINT ( 'NONE',  ( -6.123233995736770966E-17, 3.000000000000000444, 0.000000000000000000 ) ) ;
#273 = UNCERTAINTY_MEASURE_WITH_UNIT (LENGTH_MEASURE( 1.000000000000000082E-05 ), #208, 'distance_accuracy_value', 'NONE');
#274 = CIRCLE ( 'NONE', #135, 0.3124999999999996669 ) ;
#275 = SURFACE_STYLE_FILL_AREA ( #30 ) ;
#276 = SURFACE_SIDE_STYLE ('',( #11 ) ) ;
#277 = MECHANICAL_DESIGN_GEOMETRIC_PRESENTATION_REPRESENTATION (  '', ( #192 ), #232 ) ;
#278 = PRESENTATION_STYLE_ASSIGNMENT (( #175 ) ) ;
#279 = CARTESIAN_POINT ( 'NONE',  ( 0.3125000000000000000, 3.000000000000000444, 3.827021247335478926E-17 ) ) ;
#280 = ADVANCED_FACE ( 'NONE', ( #197 ), #246, .T. ) ;
#281 = PLANE ( 'NONE',  #137 ) ;
#282 = CYLINDRICAL_SURFACE ( 'NONE', #207, 0.3124999999999998890 ) ;
#283 =( CONVERSION_BASED_UNIT ( 'INCH', #70 ) LENGTH_UNIT ( ) NAMED_UNIT ( #40 ) );
#284 = CARTESIAN_POINT ( 'NONE',  ( 3.329439742278320982E-16, 0.2674999999999990163, 0.000000000000000000 ) ) ;
#285 = SURFACE_SIDE_STYLE ('',( #174 ) ) ;
#286 = DIRECTION ( 'NONE',  ( -1.442548267832386599E-16, 1.000000000000000000, -0.000000000000000000 ) ) ;
#287 = DIMENSIONAL_EXPONENTS ( 1.000000000000000000, 0.000000000000000000, 0.000000000000000000, 0.000000000000000000, 0.000000000000000000, 0.000000000000000000, 0.000000000000000000 ) ;
#288 = PRESENTATION_LAYER_ASSIGNMENT (  '', '', ( #176 ) ) ;
#289 =( NAMED_UNIT ( * ) PLANE_ANGLE_UNIT ( ) SI_UNIT ( $, .RADIAN. ) );
#290 = PRESENTATION_STYLE_ASSIGNMENT (( #91 ) ) ;
#291 = AXIS2_PLACEMENT_3D ( 'NONE', #98, #164, #65 ) ;
#292 = LINE ( 'NONE', #221, #114 ) ;
#293 = ORIENTED_EDGE ( 'NONE', *, *, #263, .T. ) ;
#294 = EDGE_LOOP ( 'NONE', ( #101, #33, #5, #183 ) ) ;
#295 = ORIENTED_EDGE ( 'NONE', *, *, #309, .F. ) ;
#296 = ORIENTED_EDGE ( 'NONE', *, *, #309, .T. ) ;
#297 = MANIFOLD_SOLID_BREP ( 'Revolve - Tool Body (Tipped Off)', #21 ) ;
#298 = VERTEX_POINT ( 'NONE', #22 ) ;
#299 = FILL_AREA_STYLE_COLOUR ( '', #168 ) ;
#300 = LENGTH_MEASURE_WITH_UNIT ( LENGTH_MEASURE( 0.02539999999999999897 ), #224 );
#301 = EDGE_CURVE ( 'NONE', #51, #298, #274, .T. ) ;
#302 = CARTESIAN_POINT ( 'NONE',  ( 1.322171668412818718E-36, 2.439215551741518923E-19, 0.000000000000000000 ) ) ;
#303 = CIRCLE ( 'NONE', #291, 0.3125000000000000555 ) ;
#304 = FILL_AREA_STYLE ('',( #299 ) ) ;
#305 = DIRECTION ( 'NONE',  ( -1.000000000000000000, -1.442548267832386599E-16, 0.000000000000000000 ) ) ;
#306 = DIMENSIONAL_EXPONENTS ( 1.000000000000000000, 0.000000000000000000, 0.000000000000000000, 0.000000000000000000, 0.000000000000000000, 0.000000000000000000, 0.000000000000000000 ) ;
#307 = DIRECTION ( 'NONE',  ( -1.000000000000000000, -1.092739197465706397E-16, 0.000000000000000000 ) ) ;
#308 =( LENGTH_UNIT ( ) NAMED_UNIT ( * ) SI_UNIT ( $, .METRE. ) );
#309 = EDGE_CURVE ( 'NONE', #220, #133, #131, .T. ) ;
ENDSEC;
END-ISO-10303-21;
