ISO-10303-21;
HEADER;
FILE_DESCRIPTION (( 'STEP AP214' ),
    '1' );
FILE_NAME ('26302.STEP',
    '2023-06-22T17:37:15',
    ( '' ),
    ( '' ),
    'SwSTEP 2.0',
    'SolidWorks 2023',
    '' );
FILE_SCHEMA (( 'AUTOMOTIVE_DESIGN' ));
ENDSEC;

DATA;
#1 = PRESENTATION_LAYER_ASSIGNMENT (  '', '', ( #71 ) ) ;
#2 = UNCERTAINTY_MEASURE_WITH_UNIT (LENGTH_MEASURE( 1.000000000000000082E-05 ), #103, 'distance_accuracy_value', 'NONE');
#3 = PRESENTATION_STYLE_ASSIGNMENT (( #249 ) ) ;
#4 = FILL_AREA_STYLE_COLOUR ( '', #218 ) ;
#5 = MANIFOLD_SOLID_BREP ( 'Revolve - Cutting Edge', #184 ) ;
#6 = SHAPE_DEFINITION_REPRESENTATION ( #107, #104 ) ;
#7 = SURFACE_STYLE_FILL_AREA ( #14 ) ;
#8 = CARTESIAN_POINT ( 'NONE',  ( 0.2500000000000000000, 1.625000000000000000, 3.061616997868384251E-17 ) ) ;
#9 = EDGE_CURVE ( 'NONE', #264, #100, #46, .T. ) ;
#10 =( CONVERSION_BASED_UNIT ( 'INCH', #227 ) LENGTH_UNIT ( ) NAMED_UNIT ( #305 ) );
#11 = DIRECTION ( 'NONE',  ( -1.000000000000000000, 0.000000000000000000, 0.000000000000000000 ) ) ;
#12 = PRESENTATION_LAYER_ASSIGNMENT (  '', '', ( #190 ) ) ;
#13 = STYLED_ITEM ( 'NONE', ( #105 ), #5 ) ;
#14 = FILL_AREA_STYLE ('',( #61 ) ) ;
#15 = SURFACE_SIDE_STYLE ('',( #154 ) ) ;
#16 = VERTEX_POINT ( 'NONE', #244 ) ;
#17 = SURFACE_STYLE_FILL_AREA ( #232 ) ;
#18 = EDGE_LOOP ( 'NONE', ( #155, #117, #194, #304 ) ) ;
#19 = SURFACE_STYLE_USAGE ( .BOTH. , #15 ) ;
#20 = EDGE_LOOP ( 'NONE', ( #93, #45 ) ) ;
#21 = DIRECTION ( 'NONE',  ( -1.000000000000000000, 0.000000000000000000, 0.000000000000000000 ) ) ;
#22 = ORIENTED_EDGE ( 'NONE', *, *, #153, .T. ) ;
#23 = CLOSED_SHELL ( 'NONE', ( #253, #271, #241, #84 ) ) ;
#24 =( NAMED_UNIT ( * ) PLANE_ANGLE_UNIT ( ) SI_UNIT ( $, .RADIAN. ) );
#25 = EDGE_CURVE ( 'NONE', #234, #297, #224, .T. ) ;
#26 = LINE ( 'NONE', #83, #178 ) ;
#27 = EDGE_CURVE ( 'NONE', #264, #301, #26, .T. ) ;
#28 = DIRECTION ( 'NONE',  ( -1.000000000000000000, -5.156407575357275916E-17, 0.000000000000000000 ) ) ;
#29 = FACE_OUTER_BOUND ( 'NONE', #94, .T. ) ;
#30 = DIRECTION ( 'NONE',  ( -0.000000000000000000, -1.000000000000000000, -0.000000000000000000 ) ) ;
#31 = PRESENTATION_LAYER_ASSIGNMENT (  '', '', ( #165 ) ) ;
#32 =( NAMED_UNIT ( * ) SI_UNIT ( $, .STERADIAN. ) SOLID_ANGLE_UNIT ( ) );
#33 = AXIS2_PLACEMENT_3D ( 'NONE', #162, #55, #77 ) ;
#34 = ADVANCED_FACE ( 'NONE', ( #29 ), #270, .T. ) ;
#35 = DIRECTION ( 'NONE',  ( 5.156407575357275916E-17, -1.000000000000000000, 0.000000000000000000 ) ) ;
#36 = PRESENTATION_LAYER_ASSIGNMENT (  '', '', ( #277 ) ) ;
#37 =( NAMED_UNIT ( * ) SI_UNIT ( $, .STERADIAN. ) SOLID_ANGLE_UNIT ( ) );
#38 = CYLINDRICAL_SURFACE ( 'NONE', #219, 0.2500000000000000555 ) ;
#39 = EDGE_LOOP ( 'NONE', ( #237, #158, #208, #65 ) ) ;
#40 = COLOUR_RGB ( '',1.000000000000000000, 0.000000000000000000, 0.000000000000000000 ) ;
#41 = APPLICATION_CONTEXT ( 'automotive_design' ) ;
#42 = ORIENTED_EDGE ( 'NONE', *, *, #210, .T. ) ;
#43 = ORIENTED_EDGE ( 'NONE', *, *, #25, .F. ) ;
#44 = DIRECTION ( 'NONE',  ( 0.000000000000000000, 0.000000000000000000, 1.000000000000000000 ) ) ;
#45 = ORIENTED_EDGE ( 'NONE', *, *, #153, .F. ) ;
#46 = CIRCLE ( 'NONE', #70, 0.2499999999999999722 ) ;
#47 = DIMENSIONAL_EXPONENTS ( 1.000000000000000000, 0.000000000000000000, 0.000000000000000000, 0.000000000000000000, 0.000000000000000000, 0.000000000000000000, 0.000000000000000000 ) ;
#48 = FACE_OUTER_BOUND ( 'NONE', #140, .T. ) ;
#49 =( CONVERSION_BASED_UNIT ( 'INCH', #164 ) LENGTH_UNIT ( ) NAMED_UNIT ( #265 ) );
#50 = PRODUCT_CONTEXT ( 'NONE', #182, 'mechanical' ) ;
#51 = UNCERTAINTY_MEASURE_WITH_UNIT (LENGTH_MEASURE( 1.000000000000000082E-05 ), #303, 'distance_accuracy_value', 'NONE');
#52 = SURFACE_STYLE_FILL_AREA ( #251 ) ;
#53 = CIRCLE ( 'NONE', #274, 0.2500000000000001110 ) ;
#54 =( GEOMETRIC_REPRESENTATION_CONTEXT ( 3 ) GLOBAL_UNCERTAINTY_ASSIGNED_CONTEXT ( ( #51 ) ) GLOBAL_UNIT_ASSIGNED_CONTEXT ( ( #303, #280, #187 ) ) REPRESENTATION_CONTEXT ( 'NONE', 'WORKASPACE' ) );
#55 = DIRECTION ( 'NONE',  ( -5.156407575357275299E-17, 1.000000000000000000, -0.000000000000000000 ) ) ;
#56 = MECHANICAL_DESIGN_GEOMETRIC_PRESENTATION_REPRESENTATION (  '', ( #71 ), #54 ) ;
#57 = DIRECTION ( 'NONE',  ( -0.000000000000000000, -1.000000000000000000, -0.000000000000000000 ) ) ;
#58 = AXIS2_PLACEMENT_3D ( 'NONE', #169, #221, #78 ) ;
#59 = DIRECTION ( 'NONE',  ( -5.156407575357275299E-17, 1.000000000000000000, -0.000000000000000000 ) ) ;
#60 = CARTESIAN_POINT ( 'NONE',  ( 0.2500000000000000000, 4.000000000000000000, 3.061616997868384251E-17 ) ) ;
#61 = FILL_AREA_STYLE_COLOUR ( '', #299 ) ;
#62 = DIRECTION ( 'NONE',  ( -5.156407575357275299E-17, 1.000000000000000000, -0.000000000000000000 ) ) ;
#63 = AXIS2_PLACEMENT_3D ( 'NONE', #128, #30, #112 ) ;
#64 = LENGTH_MEASURE_WITH_UNIT ( LENGTH_MEASURE( 0.02539999999999999897 ), #236 );
#65 = ORIENTED_EDGE ( 'NONE', *, *, #288, .F. ) ;
#66 = CARTESIAN_POINT ( 'NONE',  ( -1.224646799147352714E-16, 4.000000000000000000, 0.000000000000000000 ) ) ;
#67 = EDGE_CURVE ( 'NONE', #16, #233, #293, .T. ) ;
#68 = FACE_OUTER_BOUND ( 'NONE', #212, .T. ) ;
#69 = ORIENTED_EDGE ( 'NONE', *, *, #9, .F. ) ;
#70 = AXIS2_PLACEMENT_3D ( 'NONE', #80, #269, #215 ) ;
#71 = STYLED_ITEM ( 'NONE', ( #302 ), #235 ) ;
#72 = CARTESIAN_POINT ( 'NONE',  ( 0.000000000000000000, 0.000000000000000000, -0.2500000000000000000 ) ) ;
#73 = ORIENTED_EDGE ( 'NONE', *, *, #288, .T. ) ;
#74 = EDGE_CURVE ( 'NONE', #100, #264, #229, .T. ) ;
#75 =( CONVERSION_BASED_UNIT ( 'INCH', #283 ) LENGTH_UNIT ( ) NAMED_UNIT ( #197 ) );
#76 = ORIENTED_EDGE ( 'NONE', *, *, #25, .T. ) ;
#77 = DIRECTION ( 'NONE',  ( -1.000000000000000000, 0.000000000000000000, 0.000000000000000000 ) ) ;
#78 = DIRECTION ( 'NONE',  ( 0.000000000000000000, 0.000000000000000000, -1.000000000000000000 ) ) ;
#79 = MECHANICAL_DESIGN_GEOMETRIC_PRESENTATION_REPRESENTATION (  '', ( #13 ), #268 ) ;
#80 = CARTESIAN_POINT ( 'NONE',  ( 3.032960542342103792E-32, 1.625000000000000000, 0.000000000000000000 ) ) ;
#81 = DIRECTION ( 'NONE',  ( 0.000000000000000000, 0.000000000000000000, -1.000000000000000000 ) ) ;
#82 = AXIS2_PLACEMENT_3D ( 'NONE', #66, #62, #21 ) ;
#83 = CARTESIAN_POINT ( 'NONE',  ( -0.2500000000000001665, 4.000000000000000000, 0.000000000000000000 ) ) ;
#84 = ADVANCED_FACE ( 'NONE', ( #278 ), #295, .F. ) ;
#85 = SURFACE_STYLE_USAGE ( .BOTH. , #114 ) ;
#86 = FILL_AREA_STYLE_COLOUR ( '', #116 ) ;
#87 = DIRECTION ( 'NONE',  ( -0.000000000000000000, -1.000000000000000000, -0.000000000000000000 ) ) ;
#88 = CARTESIAN_POINT ( 'NONE',  ( 0.000000000000000000, 0.000000000000000000, 0.000000000000000000 ) ) ;
#89 =( NAMED_UNIT ( * ) PLANE_ANGLE_UNIT ( ) SI_UNIT ( $, .RADIAN. ) );
#90 = DIRECTION ( 'NONE',  ( -1.000000000000000000, 0.000000000000000000, 0.000000000000000000 ) ) ;
#91 = AXIS2_PLACEMENT_3D ( 'NONE', #206, #35, #294 ) ;
#92 = COLOUR_RGB ( '',1.000000000000000000, 0.000000000000000000, 0.000000000000000000 ) ;
#93 = ORIENTED_EDGE ( 'NONE', *, *, #67, .F. ) ;
#94 = EDGE_LOOP ( 'NONE', ( #76, #42 ) ) ;
#95 = FILL_AREA_STYLE ('',( #296 ) ) ;
#96 = DIRECTION ( 'NONE',  ( -0.000000000000000000, -1.000000000000000000, -0.000000000000000000 ) ) ;
#97 = PRESENTATION_LAYER_ASSIGNMENT (  '', '', ( #13 ) ) ;
#98 = AXIS2_PLACEMENT_3D ( 'NONE', #262, #96, #261 ) ;
#99 = PRODUCT_DEFINITION ( 'UNKNOWN', '', #179, #223 ) ;
#100 = VERTEX_POINT ( 'NONE', #8 ) ;
#101 = SURFACE_STYLE_FILL_AREA ( #149 ) ;
#102 = DIMENSIONAL_EXPONENTS ( 1.000000000000000000, 0.000000000000000000, 0.000000000000000000, 0.000000000000000000, 0.000000000000000000, 0.000000000000000000, 0.000000000000000000 ) ;
#103 =( CONVERSION_BASED_UNIT ( 'INCH', #163 ) LENGTH_UNIT ( ) NAMED_UNIT ( #246 ) );
#104 = ADVANCED_BREP_SHAPE_REPRESENTATION ( '26302', ( #5, #211, #142 ), #110 ) ;
#105 = PRESENTATION_STYLE_ASSIGNMENT (( #170 ) ) ;
#106 =( NAMED_UNIT ( * ) SI_UNIT ( $, .STERADIAN. ) SOLID_ANGLE_UNIT ( ) );
#107 = PRODUCT_DEFINITION_SHAPE ( 'NONE', 'NONE',  #99 ) ;
#108 =( NAMED_UNIT ( * ) SI_UNIT ( $, .STERADIAN. ) SOLID_ANGLE_UNIT ( ) );
#109 = MECHANICAL_DESIGN_GEOMETRIC_PRESENTATION_REPRESENTATION (  '', ( #190 ), #188 ) ;
#110 =( GEOMETRIC_REPRESENTATION_CONTEXT ( 3 ) GLOBAL_UNCERTAINTY_ASSIGNED_CONTEXT ( ( #2 ) ) GLOBAL_UNIT_ASSIGNED_CONTEXT ( ( #103, #24, #106 ) ) REPRESENTATION_CONTEXT ( 'NONE', 'WORKASPACE' ) );
#111 = LENGTH_MEASURE_WITH_UNIT ( LENGTH_MEASURE( 0.02539999999999999897 ), #252 );
#112 = DIRECTION ( 'NONE',  ( 0.000000000000000000, 0.000000000000000000, -1.000000000000000000 ) ) ;
#113 = DIRECTION ( 'NONE',  ( 0.000000000000000000, 0.000000000000000000, -1.000000000000000000 ) ) ;
#114 = SURFACE_SIDE_STYLE ('',( #7 ) ) ;
#115 = SURFACE_STYLE_USAGE ( .BOTH. , #263 ) ;
#116 = COLOUR_RGB ( '',0.7921568627450980005, 0.8196078431372548767, 0.9333333333333333481 ) ;
#117 = ORIENTED_EDGE ( 'NONE', *, *, #171, .T. ) ;
#118 = ORIENTED_EDGE ( 'NONE', *, *, #210, .F. ) ;
#119 = EDGE_LOOP ( 'NONE', ( #137, #73 ) ) ;
#120 =( CONVERSION_BASED_UNIT ( 'INCH', #141 ) LENGTH_UNIT ( ) NAMED_UNIT ( #47 ) );
#121 =( NAMED_UNIT ( * ) PLANE_ANGLE_UNIT ( ) SI_UNIT ( $, .RADIAN. ) );
#122 = AXIS2_PLACEMENT_3D ( 'NONE', #201, #173, #81 ) ;
#123 = CARTESIAN_POINT ( 'NONE',  ( 0.000000000000000000, 0.000000000000000000, 0.000000000000000000 ) ) ;
#124 =( NAMED_UNIT ( * ) SI_UNIT ( $, .STERADIAN. ) SOLID_ANGLE_UNIT ( ) );
#125 = ORIENTED_EDGE ( 'NONE', *, *, #282, .F. ) ;
#126 = CIRCLE ( 'NONE', #298, 0.2500000000000000000 ) ;
#127 = AXIS2_PLACEMENT_3D ( 'NONE', #123, #172, #220 ) ;
#128 = CARTESIAN_POINT ( 'NONE',  ( 0.000000000000000000, 1.625000000000000000, 0.000000000000000000 ) ) ;
#129 = EDGE_CURVE ( 'NONE', #301, #185, #53, .T. ) ;
#130 = CIRCLE ( 'NONE', #63, 0.2499999999999999722 ) ;
#131 =( GEOMETRIC_REPRESENTATION_CONTEXT ( 3 ) GLOBAL_UNCERTAINTY_ASSIGNED_CONTEXT ( ( #247 ) ) GLOBAL_UNIT_ASSIGNED_CONTEXT ( ( #75, #167, #248 ) ) REPRESENTATION_CONTEXT ( 'NONE', 'WORKASPACE' ) );
#132 = LINE ( 'NONE', #205, #255 ) ;
#133 = FILL_AREA_STYLE_COLOUR ( '', #92 ) ;
#134 = CYLINDRICAL_SURFACE ( 'NONE', #82, 0.2500000000000000555 ) ;
#135 = DIRECTION ( 'NONE',  ( -5.156407575357275299E-17, 1.000000000000000000, -0.000000000000000000 ) ) ;
#136 = COLOUR_RGB ( '',0.7921568627450980005, 0.8196078431372548767, 0.9333333333333333481 ) ;
#137 = ORIENTED_EDGE ( 'NONE', *, *, #129, .T. ) ;
#138 = CARTESIAN_POINT ( 'NONE',  ( 0.000000000000000000, 1.625000000000000000, 0.000000000000000000 ) ) ;
#139 = DIRECTION ( 'NONE',  ( 0.000000000000000000, -0.000000000000000000, 1.000000000000000000 ) ) ;
#140 = EDGE_LOOP ( 'NONE', ( #69, #161 ) ) ;
#141 = LENGTH_MEASURE_WITH_UNIT ( LENGTH_MEASURE( 0.02539999999999999897 ), #289 );
#142 = AXIS2_PLACEMENT_3D ( 'NONE', #213, #44, #148 ) ;
#143 = CARTESIAN_POINT ( 'NONE',  ( 3.323567385400236540E-34, 1.625000000000000000, 0.000000000000000000 ) ) ;
#144 =( NAMED_UNIT ( * ) PLANE_ANGLE_UNIT ( ) SI_UNIT ( $, .RADIAN. ) );
#145 = APPLICATION_PROTOCOL_DEFINITION ( 'draft international standard', 'automotive_design', 1998, #41 ) ;
#146 = CARTESIAN_POINT ( 'NONE',  ( 0.000000000000000000, 1.625000000000000000, 0.000000000000000000 ) ) ;
#147 = CARTESIAN_POINT ( 'NONE',  ( 3.061616997868383018E-17, 0.000000000000000000, 0.2500000000000000000 ) ) ;
#148 = DIRECTION ( 'NONE',  ( 1.000000000000000000, 0.000000000000000000, 0.000000000000000000 ) ) ;
#149 = FILL_AREA_STYLE ('',( #4 ) ) ;
#150 = DIRECTION ( 'NONE',  ( -5.156407575357275916E-17, 1.000000000000000000, -0.000000000000000000 ) ) ;
#151 = MECHANICAL_DESIGN_GEOMETRIC_PRESENTATION_REPRESENTATION (  '', ( #165 ), #198 ) ;
#152 = LINE ( 'NONE', #204, #281 ) ;
#153 = EDGE_CURVE ( 'NONE', #233, #16, #130, .T. ) ;
#154 = SURFACE_STYLE_FILL_AREA ( #95 ) ;
#155 = ORIENTED_EDGE ( 'NONE', *, *, #9, .T. ) ;
#156 = CYLINDRICAL_SURFACE ( 'NONE', #127, 0.2500000000000000000 ) ;
#157 = AXIS2_PLACEMENT_3D ( 'NONE', #146, #57, #207 ) ;
#158 = ORIENTED_EDGE ( 'NONE', *, *, #74, .T. ) ;
#159 = DIMENSIONAL_EXPONENTS ( 1.000000000000000000, 0.000000000000000000, 0.000000000000000000, 0.000000000000000000, 0.000000000000000000, 0.000000000000000000, 0.000000000000000000 ) ;
#160 = FACE_OUTER_BOUND ( 'NONE', #18, .T. ) ;
#161 = ORIENTED_EDGE ( 'NONE', *, *, #74, .F. ) ;
#162 = CARTESIAN_POINT ( 'NONE',  ( -1.224646799147352714E-16, 4.000000000000000000, 0.000000000000000000 ) ) ;
#163 = LENGTH_MEASURE_WITH_UNIT ( LENGTH_MEASURE( 0.02539999999999999897 ), #245 );
#164 = LENGTH_MEASURE_WITH_UNIT ( LENGTH_MEASURE( 0.02539999999999999897 ), #272 );
#165 = STYLED_ITEM ( 'NONE', ( #180 ), #211 ) ;
#166 = AXIS2_PLACEMENT_3D ( 'NONE', #143, #243, #28 ) ;
#167 =( NAMED_UNIT ( * ) PLANE_ANGLE_UNIT ( ) SI_UNIT ( $, .RADIAN. ) );
#168 = UNCERTAINTY_MEASURE_WITH_UNIT (LENGTH_MEASURE( 1.000000000000000082E-05 ), #49, 'distance_accuracy_value', 'NONE');
#169 = CARTESIAN_POINT ( 'NONE',  ( 0.000000000000000000, 0.000000000000000000, 0.000000000000000000 ) ) ;
#170 = SURFACE_STYLE_USAGE ( .BOTH. , #200 ) ;
#171 = EDGE_CURVE ( 'NONE', #100, #185, #132, .T. ) ;
#172 = DIRECTION ( 'NONE',  ( -0.000000000000000000, -1.000000000000000000, -0.000000000000000000 ) ) ;
#173 = DIRECTION ( 'NONE',  ( 0.000000000000000000, -1.000000000000000000, -0.000000000000000000 ) ) ;
#174 = MECHANICAL_DESIGN_GEOMETRIC_PRESENTATION_REPRESENTATION (  '', ( #277 ), #131 ) ;
#175 = DIRECTION ( 'NONE',  ( -5.156407575357275916E-17, 1.000000000000000000, -0.000000000000000000 ) ) ;
#176 = DIRECTION ( 'NONE',  ( -1.000000000000000000, 0.000000000000000000, 0.000000000000000000 ) ) ;
#177 = CARTESIAN_POINT ( 'NONE',  ( 3.032960542342103792E-32, 1.625000000000000000, 0.000000000000000000 ) ) ;
#178 = VECTOR ( 'NONE', #175, 39.37007874015748143 ) ;
#179 = PRODUCT_DEFINITION_FORMATION_WITH_SPECIFIED_SOURCE ( 'ANY', '', #287, .NOT_KNOWN. ) ;
#180 = PRESENTATION_STYLE_ASSIGNMENT (( #292 ) ) ;
#181 = EDGE_CURVE ( 'NONE', #16, #234, #152, .T. ) ;
#182 = APPLICATION_CONTEXT ( 'automotive_design' ) ;
#183 = PRESENTATION_STYLE_ASSIGNMENT (( #85 ) ) ;
#184 = CLOSED_SHELL ( 'NONE', ( #257, #225, #235, #34 ) ) ;
#185 = VERTEX_POINT ( 'NONE', #60 ) ;
#186 =( LENGTH_UNIT ( ) NAMED_UNIT ( * ) SI_UNIT ( $, .METRE. ) );
#187 =( NAMED_UNIT ( * ) SI_UNIT ( $, .STERADIAN. ) SOLID_ANGLE_UNIT ( ) );
#188 =( GEOMETRIC_REPRESENTATION_CONTEXT ( 3 ) GLOBAL_UNCERTAINTY_ASSIGNED_CONTEXT ( ( #168 ) ) GLOBAL_UNIT_ASSIGNED_CONTEXT ( ( #49, #144, #124 ) ) REPRESENTATION_CONTEXT ( 'NONE', 'WORKASPACE' ) );
#189 = FACE_OUTER_BOUND ( 'NONE', #39, .T. ) ;
#190 = STYLED_ITEM ( 'NONE', ( #3 ), #34 ) ;
#191 = AXIS2_PLACEMENT_3D ( 'NONE', #138, #238, #139 ) ;
#192 = ORIENTED_EDGE ( 'NONE', *, *, #282, .T. ) ;
#193 = CARTESIAN_POINT ( 'NONE',  ( -0.2499999999999999722, 1.625000000000000000, 0.000000000000000000 ) ) ;
#194 = ORIENTED_EDGE ( 'NONE', *, *, #129, .F. ) ;
#195 = DIRECTION ( 'NONE',  ( -0.000000000000000000, -1.000000000000000000, -0.000000000000000000 ) ) ;
#196 = UNCERTAINTY_MEASURE_WITH_UNIT (LENGTH_MEASURE( 1.000000000000000082E-05 ), #10, 'distance_accuracy_value', 'NONE');
#197 = DIMENSIONAL_EXPONENTS ( 1.000000000000000000, 0.000000000000000000, 0.000000000000000000, 0.000000000000000000, 0.000000000000000000, 0.000000000000000000, 0.000000000000000000 ) ;
#198 =( GEOMETRIC_REPRESENTATION_CONTEXT ( 3 ) GLOBAL_UNCERTAINTY_ASSIGNED_CONTEXT ( ( #196 ) ) GLOBAL_UNIT_ASSIGNED_CONTEXT ( ( #10, #89, #32 ) ) REPRESENTATION_CONTEXT ( 'NONE', 'WORKASPACE' ) );
#199 =( GEOMETRIC_REPRESENTATION_CONTEXT ( 3 ) GLOBAL_UNCERTAINTY_ASSIGNED_CONTEXT ( ( #214 ) ) GLOBAL_UNIT_ASSIGNED_CONTEXT ( ( #203, #266, #37 ) ) REPRESENTATION_CONTEXT ( 'NONE', 'WORKASPACE' ) );
#200 = SURFACE_SIDE_STYLE ('',( #52 ) ) ;
#201 = CARTESIAN_POINT ( 'NONE',  ( 0.000000000000000000, 0.000000000000000000, 0.000000000000000000 ) ) ;
#202 = MECHANICAL_DESIGN_GEOMETRIC_PRESENTATION_REPRESENTATION (  '', ( #306 ), #199 ) ;
#203 =( CONVERSION_BASED_UNIT ( 'INCH', #111 ) LENGTH_UNIT ( ) NAMED_UNIT ( #102 ) );
#204 = CARTESIAN_POINT ( 'NONE',  ( 0.000000000000000000, 0.000000000000000000, -0.2500000000000000000 ) ) ;
#205 = CARTESIAN_POINT ( 'NONE',  ( 0.2499999999999998890, 4.000000000000000000, 3.061616997868383634E-17 ) ) ;
#206 = CARTESIAN_POINT ( 'NONE',  ( 0.2499999999999999722, 4.000000000000000000, 0.000000000000000000 ) ) ;
#207 = DIRECTION ( 'NONE',  ( 0.000000000000000000, 0.000000000000000000, -1.000000000000000000 ) ) ;
#208 = ORIENTED_EDGE ( 'NONE', *, *, #27, .T. ) ;
#209 = PRESENTATION_STYLE_ASSIGNMENT (( #115 ) ) ;
#210 = EDGE_CURVE ( 'NONE', #297, #234, #126, .T. ) ;
#211 = MANIFOLD_SOLID_BREP ( 'Revolve - Tool Body (Straight Shanked)', #23 ) ;
#212 = EDGE_LOOP ( 'NONE', ( #285, #192, #43, #239 ) ) ;
#213 = CARTESIAN_POINT ( 'NONE',  ( 0.000000000000000000, 0.000000000000000000, 0.000000000000000000 ) ) ;
#214 = UNCERTAINTY_MEASURE_WITH_UNIT (LENGTH_MEASURE( 1.000000000000000082E-05 ), #203, 'distance_accuracy_value', 'NONE');
#215 = DIRECTION ( 'NONE',  ( -1.000000000000000000, 0.000000000000000000, 0.000000000000000000 ) ) ;
#216 = CARTESIAN_POINT ( 'NONE',  ( -0.2500000000000002220, 4.000000000000000000, 0.000000000000000000 ) ) ;
#217 = SURFACE_SIDE_STYLE ('',( #101 ) ) ;
#218 = COLOUR_RGB ( '',1.000000000000000000, 0.000000000000000000, 0.000000000000000000 ) ;
#219 = AXIS2_PLACEMENT_3D ( 'NONE', #300, #135, #90 ) ;
#220 = DIRECTION ( 'NONE',  ( 0.000000000000000000, 0.000000000000000000, -1.000000000000000000 ) ) ;
#221 = DIRECTION ( 'NONE',  ( -0.000000000000000000, -1.000000000000000000, -0.000000000000000000 ) ) ;
#222 = FILL_AREA_STYLE_COLOUR ( '', #136 ) ;
#223 = PRODUCT_DEFINITION_CONTEXT ( 'detailed design', #41, 'design' ) ;
#224 = CIRCLE ( 'NONE', #58, 0.2500000000000000000 ) ;
#225 = ADVANCED_FACE ( 'NONE', ( #228 ), #231, .T. ) ;
#226 = SURFACE_SIDE_STYLE ('',( #254 ) ) ;
#227 = LENGTH_MEASURE_WITH_UNIT ( LENGTH_MEASURE( 0.02539999999999999897 ), #256 );
#228 = FACE_OUTER_BOUND ( 'NONE', #20, .T. ) ;
#229 = CIRCLE ( 'NONE', #259, 0.2499999999999999722 ) ;
#230 = VECTOR ( 'NONE', #195, 39.37007874015748143 ) ;
#231 = PLANE ( 'NONE',  #191 ) ;
#232 = FILL_AREA_STYLE ('',( #133 ) ) ;
#233 = VERTEX_POINT ( 'NONE', #240 ) ;
#234 = VERTEX_POINT ( 'NONE', #72 ) ;
#235 = ADVANCED_FACE ( 'NONE', ( #307 ), #284, .T. ) ;
#236 =( LENGTH_UNIT ( ) NAMED_UNIT ( * ) SI_UNIT ( $, .METRE. ) );
#237 = ORIENTED_EDGE ( 'NONE', *, *, #171, .F. ) ;
#238 = DIRECTION ( 'NONE',  ( 0.000000000000000000, 1.000000000000000000, 0.000000000000000000 ) ) ;
#239 = ORIENTED_EDGE ( 'NONE', *, *, #181, .F. ) ;
#240 = CARTESIAN_POINT ( 'NONE',  ( 3.061616997868382402E-17, 1.625000000000000000, 0.2499999999999999722 ) ) ;
#241 = ADVANCED_FACE ( 'NONE', ( #189 ), #38, .T. ) ;
#242 = EDGE_LOOP ( 'NONE', ( #125, #22, #290, #118 ) ) ;
#243 = DIRECTION ( 'NONE',  ( -5.156407575357275916E-17, 1.000000000000000000, 0.000000000000000000 ) ) ;
#244 = CARTESIAN_POINT ( 'NONE',  ( 0.000000000000000000, 1.625000000000000000, -0.2499999999999999722 ) ) ;
#245 =( LENGTH_UNIT ( ) NAMED_UNIT ( * ) SI_UNIT ( $, .METRE. ) );
#246 = DIMENSIONAL_EXPONENTS ( 1.000000000000000000, 0.000000000000000000, 0.000000000000000000, 0.000000000000000000, 0.000000000000000000, 0.000000000000000000, 0.000000000000000000 ) ;
#247 = UNCERTAINTY_MEASURE_WITH_UNIT (LENGTH_MEASURE( 1.000000000000000082E-05 ), #75, 'distance_accuracy_value', 'NONE');
#248 =( NAMED_UNIT ( * ) SI_UNIT ( $, .STERADIAN. ) SOLID_ANGLE_UNIT ( ) );
#249 = SURFACE_STYLE_USAGE ( .BOTH. , #217 ) ;
#250 = PRESENTATION_LAYER_ASSIGNMENT (  '', '', ( #306 ) ) ;
#251 = FILL_AREA_STYLE ('',( #222 ) ) ;
#252 =( LENGTH_UNIT ( ) NAMED_UNIT ( * ) SI_UNIT ( $, .METRE. ) );
#253 = ADVANCED_FACE ( 'NONE', ( #160 ), #134, .T. ) ;
#254 = SURFACE_STYLE_FILL_AREA ( #276 ) ;
#255 = VECTOR ( 'NONE', #150, 39.37007874015748143 ) ;
#256 =( LENGTH_UNIT ( ) NAMED_UNIT ( * ) SI_UNIT ( $, .METRE. ) );
#257 = ADVANCED_FACE ( 'NONE', ( #68 ), #156, .T. ) ;
#258 = DIRECTION ( 'NONE',  ( -0.000000000000000000, -1.000000000000000000, -0.000000000000000000 ) ) ;
#259 = AXIS2_PLACEMENT_3D ( 'NONE', #177, #291, #176 ) ;
#260 = CIRCLE ( 'NONE', #33, 0.2500000000000001110 ) ;
#261 = DIRECTION ( 'NONE',  ( 0.000000000000000000, 0.000000000000000000, -1.000000000000000000 ) ) ;
#262 = CARTESIAN_POINT ( 'NONE',  ( 0.000000000000000000, 0.000000000000000000, 0.000000000000000000 ) ) ;
#263 = SURFACE_SIDE_STYLE ('',( #17 ) ) ;
#264 = VERTEX_POINT ( 'NONE', #193 ) ;
#265 = DIMENSIONAL_EXPONENTS ( 1.000000000000000000, 0.000000000000000000, 0.000000000000000000, 0.000000000000000000, 0.000000000000000000, 0.000000000000000000, 0.000000000000000000 ) ;
#266 =( NAMED_UNIT ( * ) PLANE_ANGLE_UNIT ( ) SI_UNIT ( $, .RADIAN. ) );
#267 = APPLICATION_PROTOCOL_DEFINITION ( 'draft international standard', 'automotive_design', 1998, #182 ) ;
#268 =( GEOMETRIC_REPRESENTATION_CONTEXT ( 3 ) GLOBAL_UNCERTAINTY_ASSIGNED_CONTEXT ( ( #309 ) ) GLOBAL_UNIT_ASSIGNED_CONTEXT ( ( #120, #121, #108 ) ) REPRESENTATION_CONTEXT ( 'NONE', 'WORKASPACE' ) );
#269 = DIRECTION ( 'NONE',  ( -5.156407575357275299E-17, 1.000000000000000000, -0.000000000000000000 ) ) ;
#270 = PLANE ( 'NONE',  #122 ) ;
#271 = ADVANCED_FACE ( 'NONE', ( #48 ), #308, .F. ) ;
#272 =( LENGTH_UNIT ( ) NAMED_UNIT ( * ) SI_UNIT ( $, .METRE. ) );
#273 = CARTESIAN_POINT ( 'NONE',  ( 3.061616997868383018E-17, 0.000000000000000000, 0.2500000000000000000 ) ) ;
#274 = AXIS2_PLACEMENT_3D ( 'NONE', #275, #59, #11 ) ;
#275 = CARTESIAN_POINT ( 'NONE',  ( -1.224646799147352714E-16, 4.000000000000000000, 0.000000000000000000 ) ) ;
#276 = FILL_AREA_STYLE ('',( #86 ) ) ;
#277 = STYLED_ITEM ( 'NONE', ( #209 ), #257 ) ;
#278 = FACE_OUTER_BOUND ( 'NONE', #119, .T. ) ;
#279 = PRODUCT_RELATED_PRODUCT_CATEGORY ( 'part', '', ( #287 ) ) ;
#280 =( NAMED_UNIT ( * ) PLANE_ANGLE_UNIT ( ) SI_UNIT ( $, .RADIAN. ) );
#281 = VECTOR ( 'NONE', #87, 39.37007874015748143 ) ;
#282 = EDGE_CURVE ( 'NONE', #233, #297, #286, .T. ) ;
#283 = LENGTH_MEASURE_WITH_UNIT ( LENGTH_MEASURE( 0.02539999999999999897 ), #186 );
#284 = CYLINDRICAL_SURFACE ( 'NONE', #98, 0.2500000000000000000 ) ;
#285 = ORIENTED_EDGE ( 'NONE', *, *, #67, .T. ) ;
#286 = LINE ( 'NONE', #273, #230 ) ;
#287 = PRODUCT ( '26302', '26302', '', ( #50 ) ) ;
#288 = EDGE_CURVE ( 'NONE', #185, #301, #260, .T. ) ;
#289 =( LENGTH_UNIT ( ) NAMED_UNIT ( * ) SI_UNIT ( $, .METRE. ) );
#290 = ORIENTED_EDGE ( 'NONE', *, *, #181, .T. ) ;
#291 = DIRECTION ( 'NONE',  ( -5.156407575357275299E-17, 1.000000000000000000, -0.000000000000000000 ) ) ;
#292 = SURFACE_STYLE_USAGE ( .BOTH. , #226 ) ;
#293 = CIRCLE ( 'NONE', #157, 0.2499999999999999722 ) ;
#294 = DIRECTION ( 'NONE',  ( 1.000000000000000000, 5.156407575357275916E-17, 0.000000000000000000 ) ) ;
#295 = PLANE ( 'NONE',  #91 ) ;
#296 = FILL_AREA_STYLE_COLOUR ( '', #40 ) ;
#297 = VERTEX_POINT ( 'NONE', #147 ) ;
#298 = AXIS2_PLACEMENT_3D ( 'NONE', #88, #258, #113 ) ;
#299 = COLOUR_RGB ( '',1.000000000000000000, 0.000000000000000000, 0.000000000000000000 ) ;
#300 = CARTESIAN_POINT ( 'NONE',  ( -1.224646799147352714E-16, 4.000000000000000000, 0.000000000000000000 ) ) ;
#301 = VERTEX_POINT ( 'NONE', #216 ) ;
#302 = PRESENTATION_STYLE_ASSIGNMENT (( #19 ) ) ;
#303 =( CONVERSION_BASED_UNIT ( 'INCH', #64 ) LENGTH_UNIT ( ) NAMED_UNIT ( #159 ) );
#304 = ORIENTED_EDGE ( 'NONE', *, *, #27, .F. ) ;
#305 = DIMENSIONAL_EXPONENTS ( 1.000000000000000000, 0.000000000000000000, 0.000000000000000000, 0.000000000000000000, 0.000000000000000000, 0.000000000000000000, 0.000000000000000000 ) ;
#306 = STYLED_ITEM ( 'NONE', ( #183 ), #225 ) ;
#307 = FACE_OUTER_BOUND ( 'NONE', #242, .T. ) ;
#308 = PLANE ( 'NONE',  #166 ) ;
#309 = UNCERTAINTY_MEASURE_WITH_UNIT (LENGTH_MEASURE( 1.000000000000000082E-05 ), #120, 'distance_accuracy_value', 'NONE');
ENDSEC;
END-ISO-10303-21;
