ISO-10303-21;
HEADER;
FILE_DESCRIPTION (( 'STEP AP214' ),
    '1' );
FILE_NAME ('Micro_DM-125-4120X.STEP',
    '2021-09-02T15:58:57',
    ( '' ),
    ( '' ),
    'SwSTEP 2.0',
    'SolidWorks 2020',
    '' );
FILE_SCHEMA (( 'AUTOMOTIVE_DESIGN' ));
ENDSEC;

DATA;
#1 = AXIS2_PLACEMENT_3D ( 'NONE', #202, #198, #151 ) ;
#2 = CYLINDRICAL_SURFACE ( 'NONE', #1, 0.06245000000000004020 ) ;
#3 = CARTESIAN_POINT ( 'NONE',  ( 0.04750000000000064587, 6.735557395310482421E-18, 1.500000000000000222 ) ) ;
#4 = DIRECTION ( 'NONE',  ( 1.000000000000000000, 0.0000000000000000000, -0.0000000000000000000 ) ) ;
#5 = ORIENTED_EDGE ( 'NONE', *, *, #265, .F. ) ;
#6 = ORIENTED_EDGE ( 'NONE', *, *, #303, .F. ) ;
#7 = EDGE_CURVE ( 'NONE', #159, #266, #37, .T. ) ;
#8 = DIRECTION ( 'NONE',  ( 1.000000000000000000, 0.0000000000000000000, 0.0000000000000000000 ) ) ;
#9 = UNCERTAINTY_MEASURE_WITH_UNIT (LENGTH_MEASURE( 1.000000000000000082E-05 ), #113, 'distance_accuracy_value', 'NONE');
#10 = AXIS2_PLACEMENT_3D ( 'NONE', #321, #245, #267 ) ;
#11 = AXIS2_PLACEMENT_3D ( 'NONE', #13, #121, #171 ) ;
#12 = ORIENTED_EDGE ( 'NONE', *, *, #253, .T. ) ;
#13 = CARTESIAN_POINT ( 'NONE',  ( 0.0000000000000000000, 0.0000000000000000000, 0.5000000000000000000 ) ) ;
#14 = CIRCLE ( 'NONE', #269, 0.06245000000000000551 ) ;
#15 = EDGE_CURVE ( 'NONE', #65, #291, #165, .T. ) ;
#16 = DIRECTION ( 'NONE',  ( 0.0000000000000000000, 0.0000000000000000000, -1.000000000000000000 ) ) ;
#17 = EDGE_CURVE ( 'NONE', #83, #167, #132, .T. ) ;
#18 = PLANE ( 'NONE',  #57 ) ;
#19 = LINE ( 'NONE', #322, #326 ) ;
#20 = CIRCLE ( 'NONE', #63, 0.007499999999999999722 ) ;
#21 = EDGE_CURVE ( 'NONE', #163, #30, #272, .T. ) ;
#22 = EDGE_CURVE ( 'NONE', #112, #308, #263, .T. ) ;
#23 = PLANE ( 'NONE',  #184 ) ;
#24 = AXIS2_PLACEMENT_3D ( 'NONE', #193, #227, #98 ) ;
#25 = DIRECTION ( 'NONE',  ( -1.000000000000000000, 0.0000000000000000000, 0.0000000000000000000 ) ) ;
#26 = PRODUCT ( 'Micro_DM-125-4120X', 'Micro_DM-125-4120X', '', ( #135 ) ) ;
#27 = LENGTH_MEASURE_WITH_UNIT ( LENGTH_MEASURE( 0.02539999999999999897 ), #288 );
#28 = ORIENTED_EDGE ( 'NONE', *, *, #127, .F. ) ;
#29 = UNCERTAINTY_MEASURE_WITH_UNIT (LENGTH_MEASURE( 1.000000000000000082E-05 ), #319, 'distance_accuracy_value', 'NONE');
#30 = VERTEX_POINT ( 'NONE', #94 ) ;
#31 = CONICAL_SURFACE ( 'NONE', #236, 0.04750000000000064587, 0.7853981633974457255 ) ;
#32 = LENGTH_MEASURE_WITH_UNIT ( LENGTH_MEASURE( 0.02539999999999999897 ), #142 );
#33 = UNCERTAINTY_MEASURE_WITH_UNIT (LENGTH_MEASURE( 1.000000000000000082E-05 ), #281, 'distance_accuracy_value', 'NONE');
#34 = DIRECTION ( 'NONE',  ( -0.0000000000000000000, -0.0000000000000000000, -1.000000000000000000 ) ) ;
#35 = DIRECTION ( 'NONE',  ( 0.0000000000000000000, 0.0000000000000000000, 1.000000000000000000 ) ) ;
#36 = VECTOR ( 'NONE', #108, 39.37007874015748143 ) ;
#37 = LINE ( 'NONE', #185, #92 ) ;
#38 = EDGE_LOOP ( 'NONE', ( #286, #317, #51, #298 ) ) ;
#39 = DIRECTION ( 'NONE',  ( -1.000000000000000000, 0.0000000000000000000, 0.0000000000000000000 ) ) ;
#40 = DIRECTION ( 'NONE',  ( -1.000000000000000000, 0.0000000000000000000, 0.0000000000000000000 ) ) ;
#41 = AXIS2_PLACEMENT_3D ( 'NONE', #250, #16, #122 ) ;
#42 = DIRECTION ( 'NONE',  ( -1.000000000000000000, 0.0000000000000000000, 0.0000000000000000000 ) ) ;
#43 = FACE_OUTER_BOUND ( 'NONE', #199, .T. ) ;
#44 = CARTESIAN_POINT ( 'NONE',  ( 0.0000000000000000000, 0.0000000000000000000, 1.707404996040164512E-17 ) ) ;
#45 = CIRCLE ( 'NONE', #316, 0.06250000000000000000 ) ;
#46 = DIRECTION ( 'NONE',  ( -0.0000000000000000000, -0.0000000000000000000, -1.000000000000000000 ) ) ;
#47 = APPLICATION_CONTEXT ( 'automotive_design' ) ;
#48 = DIRECTION ( 'NONE',  ( -1.000000000000000000, 0.0000000000000000000, 0.0000000000000000000 ) ) ;
#49 = VERTEX_POINT ( 'NONE', #186 ) ;
#50 = CARTESIAN_POINT ( 'NONE',  ( 0.06245000000000002632, 0.0000000000000000000, 0.03172539729196974245 ) ) ;
#51 = ORIENTED_EDGE ( 'NONE', *, *, #21, .T. ) ;
#52 = PRODUCT_DEFINITION_FORMATION_WITH_SPECIFIED_SOURCE ( 'ANY', '', #26, .NOT_KNOWN. ) ;
#53 = DIRECTION ( 'NONE',  ( -0.0000000000000000000, -0.0000000000000000000, -1.000000000000000000 ) ) ;
#54 = EDGE_LOOP ( 'NONE', ( #177, #119 ) ) ;
#55 = ORIENTED_EDGE ( 'NONE', *, *, #212, .F. ) ;
#56 = FILL_AREA_STYLE_COLOUR ( '', #305 ) ;
#57 = AXIS2_PLACEMENT_3D ( 'NONE', #147, #226, #39 ) ;
#58 = APPLICATION_PROTOCOL_DEFINITION ( 'draft international standard', 'automotive_design', 1998, #47 ) ;
#59 = FILL_AREA_STYLE_COLOUR ( '', #248 ) ;
#60 = DIRECTION ( 'NONE',  ( 0.0000000000000000000, 0.0000000000000000000, 1.000000000000000000 ) ) ;
#61 = SURFACE_STYLE_USAGE ( .BOTH. , #90 ) ;
#62 = DIRECTION ( 'NONE',  ( -0.7071067811865456854, 0.0000000000000000000, -0.7071067811865493491 ) ) ;
#63 = AXIS2_PLACEMENT_3D ( 'NONE', #146, #125, #42 ) ;
#64 = MECHANICAL_DESIGN_GEOMETRIC_PRESENTATION_REPRESENTATION (  '', ( #225 ), #197 ) ;
#65 = VERTEX_POINT ( 'NONE', #84 ) ;
#66 = DIRECTION ( 'NONE',  ( -0.0000000000000000000, -0.0000000000000000000, -1.000000000000000000 ) ) ;
#67 = DIMENSIONAL_EXPONENTS ( 1.000000000000000000, 0.0000000000000000000, 0.0000000000000000000, 0.0000000000000000000, 0.0000000000000000000, 0.0000000000000000000, 0.0000000000000000000 ) ;
#68 = EDGE_CURVE ( 'NONE', #112, #83, #141, .T. ) ;
#69 = LINE ( 'NONE', #191, #102 ) ;
#70 = DIRECTION ( 'NONE',  ( 0.0000000000000000000, 0.0000000000000000000, 1.000000000000000000 ) ) ;
#71 = CIRCLE ( 'NONE', #41, 0.06250000000000000000 ) ;
#72 = DIRECTION ( 'NONE',  ( -0.0000000000000000000, -0.0000000000000000000, -1.000000000000000000 ) ) ;
#73 = DIRECTION ( 'NONE',  ( 0.0000000000000000000, 0.0000000000000000000, -1.000000000000000000 ) ) ;
#74 = AXIS2_PLACEMENT_3D ( 'NONE', #290, #46, #48 ) ;
#75 = DIRECTION ( 'NONE',  ( 0.0000000000000000000, 0.0000000000000000000, 1.000000000000000000 ) ) ;
#76 = EDGE_LOOP ( 'NONE', ( #55, #80, #164, #114 ) ) ;
#77 = ADVANCED_FACE ( 'NONE', ( #134 ), #173, .T. ) ;
#78 = DIRECTION ( 'NONE',  ( 0.0000000000000000000, 0.0000000000000000000, 1.000000000000000000 ) ) ;
#79 = CARTESIAN_POINT ( 'NONE',  ( 0.0000000000000000000, 0.0000000000000000000, 1.500000000000000222 ) ) ;
#80 = ORIENTED_EDGE ( 'NONE', *, *, #127, .T. ) ;
#81 = DIRECTION ( 'NONE',  ( 1.000000000000000000, 0.0000000000000000000, -0.0000000000000000000 ) ) ;
#82 = CARTESIAN_POINT ( 'NONE',  ( 0.0000000000000000000, 0.0000000000000000000, 0.03172539729196974245 ) ) ;
#83 = VERTEX_POINT ( 'NONE', #211 ) ;
#84 = CARTESIAN_POINT ( 'NONE',  ( 0.007499999999999999722, 0.0000000000000000000, 1.707404996040164512E-17 ) ) ;
#85 = CIRCLE ( 'NONE', #293, 0.06245000000000007490 ) ;
#86 =( NAMED_UNIT ( * ) SI_UNIT ( $, .STERADIAN. ) SOLID_ANGLE_UNIT ( ) );
#87 = CARTESIAN_POINT ( 'NONE',  ( 0.0000000000000000000, 0.0000000000000000000, 1.485000000000000764 ) ) ;
#88 = DIMENSIONAL_EXPONENTS ( 1.000000000000000000, 0.0000000000000000000, 0.0000000000000000000, 0.0000000000000000000, 0.0000000000000000000, 0.0000000000000000000, 0.0000000000000000000 ) ;
#89 =( LENGTH_UNIT ( ) NAMED_UNIT ( * ) SI_UNIT ( $, .METRE. ) );
#90 = SURFACE_SIDE_STYLE ('',( #190 ) ) ;
#91 = MANIFOLD_SOLID_BREP ( 'Cut-Revolve4', #153 ) ;
#92 = VECTOR ( 'NONE', #66, 39.37007874015748143 ) ;
#93 = AXIS2_PLACEMENT_3D ( 'NONE', #101, #130, #327 ) ;
#94 = CARTESIAN_POINT ( 'NONE',  ( -0.06245000000000002632, 7.647919260675224182E-18, 0.03172539729196974245 ) ) ;
#95 = DIRECTION ( 'NONE',  ( -1.000000000000000000, 0.0000000000000000000, 0.0000000000000000000 ) ) ;
#96 = CARTESIAN_POINT ( 'NONE',  ( 0.06250000000000000000, 7.654042494670956004E-18, 1.485000000000000764 ) ) ;
#97 = AXIS2_PLACEMENT_3D ( 'NONE', #278, #73, #40 ) ;
#98 = DIRECTION ( 'NONE',  ( -1.000000000000000000, 0.0000000000000000000, 0.0000000000000000000 ) ) ;
#99 = EDGE_CURVE ( 'NONE', #49, #188, #45, .T. ) ;
#100 = CARTESIAN_POINT ( 'NONE',  ( -0.04750000000000064587, 0.0000000000000000000, 1.500000000000000222 ) ) ;
#101 = CARTESIAN_POINT ( 'NONE',  ( 0.0000000000000000000, 0.0000000000000000000, 0.03172539729196974245 ) ) ;
#102 = VECTOR ( 'NONE', #299, 39.37007874015748143 ) ;
#103 = EDGE_CURVE ( 'NONE', #291, #65, #20, .T. ) ;
#104 = ADVANCED_FACE ( 'NONE', ( #277 ), #325, .T. ) ;
#105 = FACE_OUTER_BOUND ( 'NONE', #201, .T. ) ;
#106 = ORIENTED_EDGE ( 'NONE', *, *, #311, .T. ) ;
#107 = ADVANCED_FACE ( 'NONE', ( #302, #43 ), #18, .T. ) ;
#108 = DIRECTION ( 'NONE',  ( -0.8660254037844402619, 1.060575238724908640E-16, 0.4999999999999973910 ) ) ;
#109 = ORIENTED_EDGE ( 'NONE', *, *, #68, .T. ) ;
#110 = EDGE_CURVE ( 'NONE', #65, #266, #19, .T. ) ;
#111 =( NAMED_UNIT ( * ) SI_UNIT ( $, .STERADIAN. ) SOLID_ANGLE_UNIT ( ) );
#112 = VERTEX_POINT ( 'NONE', #100 ) ;
#113 =( CONVERSION_BASED_UNIT ( 'INCH', #32 ) LENGTH_UNIT ( ) NAMED_UNIT ( #88 ) );
#114 = ORIENTED_EDGE ( 'NONE', *, *, #68, .F. ) ;
#115 = DIRECTION ( 'NONE',  ( 1.000000000000000000, 0.0000000000000000000, 0.0000000000000000000 ) ) ;
#116 = DIRECTION ( 'NONE',  ( 1.000000000000000000, 0.0000000000000000000, 0.0000000000000000000 ) ) ;
#117 = LENGTH_MEASURE_WITH_UNIT ( LENGTH_MEASURE( 0.02539999999999999897 ), #89 );
#118 = ADVANCED_FACE ( 'NONE', ( #123 ), #195, .T. ) ;
#119 = ORIENTED_EDGE ( 'NONE', *, *, #120, .F. ) ;
#120 = EDGE_CURVE ( 'NONE', #159, #163, #214, .T. ) ;
#121 = DIRECTION ( 'NONE',  ( -0.0000000000000000000, -0.0000000000000000000, -1.000000000000000000 ) ) ;
#122 = DIRECTION ( 'NONE',  ( 1.000000000000000000, 0.0000000000000000000, 0.0000000000000000000 ) ) ;
#123 = FACE_OUTER_BOUND ( 'NONE', #158, .T. ) ;
#124 = AXIS2_PLACEMENT_3D ( 'NONE', #251, #72, #95 ) ;
#125 = DIRECTION ( 'NONE',  ( -0.0000000000000000000, -0.0000000000000000000, -1.000000000000000000 ) ) ;
#126 = DIRECTION ( 'NONE',  ( -0.0000000000000000000, -0.0000000000000000000, -1.000000000000000000 ) ) ;
#127 = EDGE_CURVE ( 'NONE', #308, #167, #69, .T. ) ;
#128 = DIRECTION ( 'NONE',  ( -1.000000000000000000, 0.0000000000000000000, 0.0000000000000000000 ) ) ;
#129 = LINE ( 'NONE', #283, #309 ) ;
#130 = DIRECTION ( 'NONE',  ( -0.0000000000000000000, -0.0000000000000000000, -1.000000000000000000 ) ) ;
#131 = ORIENTED_EDGE ( 'NONE', *, *, #15, .T. ) ;
#132 = CIRCLE ( 'NONE', #160, 0.06250000000000000000 ) ;
#133 = AXIS2_PLACEMENT_3D ( 'NONE', #140, #60, #187 ) ;
#134 = FACE_OUTER_BOUND ( 'NONE', #237, .T. ) ;
#135 = PRODUCT_CONTEXT ( 'NONE', #276, 'mechanical' ) ;
#136 = ORIENTED_EDGE ( 'NONE', *, *, #7, .T. ) ;
#137 = ADVANCED_FACE ( 'NONE', ( #274 ), #249, .T. ) ;
#138 = ORIENTED_EDGE ( 'NONE', *, *, #22, .F. ) ;
#139 = AXIS2_PLACEMENT_3D ( 'NONE', #234, #75, #4 ) ;
#140 = CARTESIAN_POINT ( 'NONE',  ( 0.0000000000000000000, 0.0000000000000000000, 0.0000000000000000000 ) ) ;
#141 = LINE ( 'NONE', #242, #170 ) ;
#142 =( LENGTH_UNIT ( ) NAMED_UNIT ( * ) SI_UNIT ( $, .METRE. ) );
#143 = ORIENTED_EDGE ( 'NONE', *, *, #273, .T. ) ;
#144 = DIRECTION ( 'NONE',  ( -0.0000000000000000000, -0.0000000000000000000, -1.000000000000000000 ) ) ;
#145 = STYLED_ITEM ( 'NONE', ( #268 ), #91 ) ;
#146 = CARTESIAN_POINT ( 'NONE',  ( 0.0000000000000000000, 0.0000000000000000000, 1.707404996040164512E-17 ) ) ;
#147 = CARTESIAN_POINT ( 'NONE',  ( 0.06245000000000007490, 0.0000000000000000000, 0.5000000000000000000 ) ) ;
#148 = ADVANCED_BREP_SHAPE_REPRESENTATION ( 'Micro_DM-125-4120X', ( #91, #133 ), #275 ) ;
#149 = CARTESIAN_POINT ( 'NONE',  ( 0.0000000000000000000, 0.0000000000000000000, 0.5000000000000000000 ) ) ;
#150 = DIRECTION ( 'NONE',  ( 0.0000000000000000000, 0.0000000000000000000, 1.000000000000000000 ) ) ;
#151 = DIRECTION ( 'NONE',  ( -1.000000000000000000, 0.0000000000000000000, 0.0000000000000000000 ) ) ;
#152 = FACE_OUTER_BOUND ( 'NONE', #76, .T. ) ;
#153 = CLOSED_SHELL ( 'NONE', ( #315, #228, #257, #118, #104, #323, #137, #107, #77, #292, #282 ) ) ;
#154 = CONICAL_SURFACE ( 'NONE', #206, 0.007499999999999999722, 1.047197551196600740 ) ;
#155 = ORIENTED_EDGE ( 'NONE', *, *, #15, .F. ) ;
#156 = FACE_OUTER_BOUND ( 'NONE', #175, .T. ) ;
#157 = ORIENTED_EDGE ( 'NONE', *, *, #110, .T. ) ;
#158 = EDGE_LOOP ( 'NONE', ( #230, #180, #297, #328 ) ) ;
#159 = VERTEX_POINT ( 'NONE', #172 ) ;
#160 = AXIS2_PLACEMENT_3D ( 'NONE', #87, #168, #8 ) ;
#161 = PRESENTATION_LAYER_ASSIGNMENT (  '', '', ( #225 ) ) ;
#162 = EDGE_CURVE ( 'NONE', #167, #83, #71, .T. ) ;
#163 = VERTEX_POINT ( 'NONE', #223 ) ;
#164 = ORIENTED_EDGE ( 'NONE', *, *, #17, .F. ) ;
#165 = CIRCLE ( 'NONE', #10, 0.007499999999999999722 ) ;
#166 = SURFACE_STYLE_FILL_AREA ( #296 ) ;
#167 = VERTEX_POINT ( 'NONE', #96 ) ;
#168 = DIRECTION ( 'NONE',  ( 0.0000000000000000000, 0.0000000000000000000, -1.000000000000000000 ) ) ;
#169 =( NAMED_UNIT ( * ) SI_UNIT ( $, .STERADIAN. ) SOLID_ANGLE_UNIT ( ) );
#170 = VECTOR ( 'NONE', #62, 39.37007874015748143 ) ;
#171 = DIRECTION ( 'NONE',  ( -1.000000000000000000, 0.0000000000000000000, 0.0000000000000000000 ) ) ;
#172 = CARTESIAN_POINT ( 'NONE',  ( 0.06245000000000006796, 7.647919260675228804E-18, 0.5000000000000000000 ) ) ;
#173 = CONICAL_SURFACE ( 'NONE', #304, 0.007499999999999999722, 1.047197551196600740 ) ;
#174 = CARTESIAN_POINT ( 'NONE',  ( 0.06250000000000000000, 7.654042494670956004E-18, 1.500000000000000222 ) ) ;
#175 = EDGE_LOOP ( 'NONE', ( #131, #207 ) ) ;
#176 = DIRECTION ( 'NONE',  ( -0.0000000000000000000, -0.0000000000000000000, -1.000000000000000000 ) ) ;
#177 = ORIENTED_EDGE ( 'NONE', *, *, #253, .F. ) ;
#178 = PLANE ( 'NONE',  #139 ) ;
#179 = AXIS2_PLACEMENT_3D ( 'NONE', #149, #252, #194 ) ;
#180 = ORIENTED_EDGE ( 'NONE', *, *, #265, .T. ) ;
#181 = ORIENTED_EDGE ( 'NONE', *, *, #21, .F. ) ;
#182 =( NAMED_UNIT ( * ) PLANE_ANGLE_UNIT ( ) SI_UNIT ( $, .RADIAN. ) );
#183 = CARTESIAN_POINT ( 'NONE',  ( 0.0000000000000000000, 0.0000000000000000000, 1.707404996040164512E-17 ) ) ;
#184 = AXIS2_PLACEMENT_3D ( 'NONE', #310, #78, #81 ) ;
#185 = CARTESIAN_POINT ( 'NONE',  ( 0.06245000000000004020, 7.647919260675225723E-18, 0.0000000000000000000 ) ) ;
#186 = CARTESIAN_POINT ( 'NONE',  ( -0.06250000000000000000, 0.0000000000000000000, 0.5000000000000000000 ) ) ;
#187 = DIRECTION ( 'NONE',  ( 1.000000000000000000, 0.0000000000000000000, 0.0000000000000000000 ) ) ;
#188 = VERTEX_POINT ( 'NONE', #192 ) ;
#189 = VECTOR ( 'NONE', #34, 39.37007874015748143 ) ;
#190 = SURFACE_STYLE_FILL_AREA ( #295 ) ;
#191 = CARTESIAN_POINT ( 'NONE',  ( 0.04750000000000064587, 5.817072295950006528E-18, 1.500000000000000222 ) ) ;
#192 = CARTESIAN_POINT ( 'NONE',  ( 0.06250000000000000000, 7.654042494670956004E-18, 0.5000000000000000000 ) ) ;
#193 = CARTESIAN_POINT ( 'NONE',  ( 0.0000000000000000000, 0.0000000000000000000, 1.500000000000000222 ) ) ;
#194 = DIRECTION ( 'NONE',  ( -1.000000000000000000, 0.0000000000000000000, 0.0000000000000000000 ) ) ;
#195 = CYLINDRICAL_SURFACE ( 'NONE', #124, 0.06250000000000000000 ) ;
#196 = AXIS2_PLACEMENT_3D ( 'NONE', #318, #314, #115 ) ;
#197 =( GEOMETRIC_REPRESENTATION_CONTEXT ( 3 ) GLOBAL_UNCERTAINTY_ASSIGNED_CONTEXT ( ( #9 ) ) GLOBAL_UNIT_ASSIGNED_CONTEXT ( ( #113, #182, #86 ) ) REPRESENTATION_CONTEXT ( 'NONE', 'WORKASPACE' ) );
#198 = DIRECTION ( 'NONE',  ( -0.0000000000000000000, -0.0000000000000000000, -1.000000000000000000 ) ) ;
#199 = EDGE_LOOP ( 'NONE', ( #239, #256 ) ) ;
#200 =( NAMED_UNIT ( * ) PLANE_ANGLE_UNIT ( ) SI_UNIT ( $, .RADIAN. ) );
#201 = EDGE_LOOP ( 'NONE', ( #12, #136, #6, #181 ) ) ;
#202 = CARTESIAN_POINT ( 'NONE',  ( 0.0000000000000000000, 0.0000000000000000000, 0.0000000000000000000 ) ) ;
#203 = ORIENTED_EDGE ( 'NONE', *, *, #303, .T. ) ;
#204 = LINE ( 'NONE', #261, #36 ) ;
#205 =( GEOMETRIC_REPRESENTATION_CONTEXT ( 3 ) GLOBAL_UNCERTAINTY_ASSIGNED_CONTEXT ( ( #29 ) ) GLOBAL_UNIT_ASSIGNED_CONTEXT ( ( #319, #324, #169 ) ) REPRESENTATION_CONTEXT ( 'NONE', 'WORKASPACE' ) );
#206 = AXIS2_PLACEMENT_3D ( 'NONE', #44, #150, #254 ) ;
#207 = ORIENTED_EDGE ( 'NONE', *, *, #103, .T. ) ;
#208 = DIRECTION ( 'NONE',  ( 0.0000000000000000000, 0.0000000000000000000, -1.000000000000000000 ) ) ;
#209 = ORIENTED_EDGE ( 'NONE', *, *, #162, .F. ) ;
#210 = CARTESIAN_POINT ( 'NONE',  ( -0.06245000000000004020, 0.0000000000000000000, 0.0000000000000000000 ) ) ;
#211 = CARTESIAN_POINT ( 'NONE',  ( -0.06250000000000000000, 0.0000000000000000000, 1.485000000000000764 ) ) ;
#212 = EDGE_CURVE ( 'NONE', #308, #112, #287, .T. ) ;
#213 = MECHANICAL_DESIGN_GEOMETRIC_PRESENTATION_REPRESENTATION (  '', ( #145 ), #205 ) ;
#214 = CIRCLE ( 'NONE', #11, 0.06245000000000007490 ) ;
#215 = PRODUCT_DEFINITION_CONTEXT ( 'detailed design', #47, 'design' ) ;
#216 = PRESENTATION_STYLE_ASSIGNMENT (( #313 ) ) ;
#217 = ORIENTED_EDGE ( 'NONE', *, *, #103, .F. ) ;
#218 = EDGE_LOOP ( 'NONE', ( #217, #284, #203, #307 ) ) ;
#219 = EDGE_LOOP ( 'NONE', ( #28, #138, #109, #209 ) ) ;
#220 = VECTOR ( 'NONE', #53, 39.37007874015748143 ) ;
#221 = DIRECTION ( 'NONE',  ( -1.000000000000000000, 0.0000000000000000000, 0.0000000000000000000 ) ) ;
#222 = EDGE_CURVE ( 'NONE', #188, #49, #258, .T. ) ;
#223 = CARTESIAN_POINT ( 'NONE',  ( -0.06245000000000007490, 0.0000000000000000000, 0.5000000000000000000 ) ) ;
#224 = DIRECTION ( 'NONE',  ( 1.000000000000000000, 0.0000000000000000000, 0.0000000000000000000 ) ) ;
#225 = STYLED_ITEM ( 'NONE', ( #216 ), #148 ) ;
#226 = DIRECTION ( 'NONE',  ( -0.0000000000000000000, 0.0000000000000000000, -1.000000000000000000 ) ) ;
#227 = DIRECTION ( 'NONE',  ( -0.0000000000000000000, -0.0000000000000000000, -1.000000000000000000 ) ) ;
#228 = ADVANCED_FACE ( 'NONE', ( #279 ), #154, .T. ) ;
#229 = LINE ( 'NONE', #174, #220 ) ;
#230 = ORIENTED_EDGE ( 'NONE', *, *, #17, .T. ) ;
#231 = AXIS2_PLACEMENT_3D ( 'NONE', #301, #70, #224 ) ;
#232 = DIRECTION ( 'NONE',  ( -1.000000000000000000, 0.0000000000000000000, 0.0000000000000000000 ) ) ;
#233 = FACE_OUTER_BOUND ( 'NONE', #38, .T. ) ;
#234 = CARTESIAN_POINT ( 'NONE',  ( 0.0000000000000000000, 0.0000000000000000000, 0.0000000000000000000 ) ) ;
#235 = APPLICATION_PROTOCOL_DEFINITION ( 'draft international standard', 'automotive_design', 1998, #276 ) ;
#236 = AXIS2_PLACEMENT_3D ( 'NONE', #79, #208, #128 ) ;
#237 = EDGE_LOOP ( 'NONE', ( #246, #155, #157, #106 ) ) ;
#238 = SURFACE_SIDE_STYLE ('',( #166 ) ) ;
#239 = ORIENTED_EDGE ( 'NONE', *, *, #99, .T. ) ;
#240 = PRODUCT_RELATED_PRODUCT_CATEGORY ( 'part', '', ( #26 ) ) ;
#241 = EDGE_LOOP ( 'NONE', ( #289, #262 ) ) ;
#242 = CARTESIAN_POINT ( 'NONE',  ( -0.04750000000000064587, 0.0000000000000000000, 1.500000000000000222 ) ) ;
#243 = CIRCLE ( 'NONE', #93, 0.06245000000000000551 ) ;
#244 = SHAPE_DEFINITION_REPRESENTATION ( #280, #148 ) ;
#245 = DIRECTION ( 'NONE',  ( -0.0000000000000000000, -0.0000000000000000000, -1.000000000000000000 ) ) ;
#246 = ORIENTED_EDGE ( 'NONE', *, *, #320, .F. ) ;
#247 = DIRECTION ( 'NONE',  ( 0.8660254037844402619, 0.0000000000000000000, 0.4999999999999973910 ) ) ;
#248 = COLOUR_RGB ( '',0.7921568627450980005, 0.8196078431372548767, 0.9333333333333333481 ) ;
#249 = CONICAL_SURFACE ( 'NONE', #97, 0.04750000000000064587, 0.7853981633974457255 ) ;
#250 = CARTESIAN_POINT ( 'NONE',  ( 0.0000000000000000000, 0.0000000000000000000, 1.485000000000000764 ) ) ;
#251 = CARTESIAN_POINT ( 'NONE',  ( 0.0000000000000000000, 0.0000000000000000000, 1.500000000000000222 ) ) ;
#252 = DIRECTION ( 'NONE',  ( -0.0000000000000000000, -0.0000000000000000000, -1.000000000000000000 ) ) ;
#253 = EDGE_CURVE ( 'NONE', #163, #159, #85, .T. ) ;
#254 = DIRECTION ( 'NONE',  ( 1.000000000000000000, 0.0000000000000000000, 0.0000000000000000000 ) ) ;
#255 = FACE_OUTER_BOUND ( 'NONE', #241, .T. ) ;
#256 = ORIENTED_EDGE ( 'NONE', *, *, #222, .T. ) ;
#257 = ADVANCED_FACE ( 'NONE', ( #152 ), #31, .T. ) ;
#258 = CIRCLE ( 'NONE', #179, 0.06250000000000000000 ) ;
#259 = CARTESIAN_POINT ( 'NONE',  ( -0.007499999999999999722, 4.283202180017868527E-18, 1.707404996040164512E-17 ) ) ;
#260 = CYLINDRICAL_SURFACE ( 'NONE', #74, 0.06245000000000004020 ) ;
#261 = CARTESIAN_POINT ( 'NONE',  ( -0.007499999999999999722, 9.184850993605147975E-19, 1.707404996040164512E-17 ) ) ;
#262 = ORIENTED_EDGE ( 'NONE', *, *, #212, .T. ) ;
#263 = CIRCLE ( 'NONE', #196, 0.04750000000000064587 ) ;
#264 = EDGE_LOOP ( 'NONE', ( #5, #270, #143, #312 ) ) ;
#265 = EDGE_CURVE ( 'NONE', #167, #188, #229, .T. ) ;
#266 = VERTEX_POINT ( 'NONE', #50 ) ;
#267 = DIRECTION ( 'NONE',  ( -1.000000000000000000, 0.0000000000000000000, 0.0000000000000000000 ) ) ;
#268 = PRESENTATION_STYLE_ASSIGNMENT (( #61 ) ) ;
#269 = AXIS2_PLACEMENT_3D ( 'NONE', #82, #176, #232 ) ;
#270 = ORIENTED_EDGE ( 'NONE', *, *, #162, .T. ) ;
#271 = DIMENSIONAL_EXPONENTS ( 1.000000000000000000, 0.0000000000000000000, 0.0000000000000000000, 0.0000000000000000000, 0.0000000000000000000, 0.0000000000000000000, 0.0000000000000000000 ) ;
#272 = LINE ( 'NONE', #210, #189 ) ;
#273 = EDGE_CURVE ( 'NONE', #83, #49, #129, .T. ) ;
#274 = FACE_OUTER_BOUND ( 'NONE', #219, .T. ) ;
#275 =( GEOMETRIC_REPRESENTATION_CONTEXT ( 3 ) GLOBAL_UNCERTAINTY_ASSIGNED_CONTEXT ( ( #33 ) ) GLOBAL_UNIT_ASSIGNED_CONTEXT ( ( #281, #200, #111 ) ) REPRESENTATION_CONTEXT ( 'NONE', 'WORKASPACE' ) );
#276 = APPLICATION_CONTEXT ( 'automotive_design' ) ;
#277 = FACE_OUTER_BOUND ( 'NONE', #264, .T. ) ;
#278 = CARTESIAN_POINT ( 'NONE',  ( 0.0000000000000000000, 0.0000000000000000000, 1.500000000000000222 ) ) ;
#279 = FACE_OUTER_BOUND ( 'NONE', #218, .T. ) ;
#280 = PRODUCT_DEFINITION_SHAPE ( 'NONE', 'NONE',  #300 ) ;
#281 =( CONVERSION_BASED_UNIT ( 'INCH', #27 ) LENGTH_UNIT ( ) NAMED_UNIT ( #67 ) );
#282 = ADVANCED_FACE ( 'NONE', ( #156 ), #178, .F. ) ;
#283 = CARTESIAN_POINT ( 'NONE',  ( -0.06250000000000000000, 0.0000000000000000000, 1.500000000000000222 ) ) ;
#284 = ORIENTED_EDGE ( 'NONE', *, *, #320, .T. ) ;
#285 = CARTESIAN_POINT ( 'NONE',  ( 0.0000000000000000000, 0.0000000000000000000, 0.5000000000000000000 ) ) ;
#286 = ORIENTED_EDGE ( 'NONE', *, *, #7, .F. ) ;
#287 = CIRCLE ( 'NONE', #231, 0.04750000000000064587 ) ;
#288 =( LENGTH_UNIT ( ) NAMED_UNIT ( * ) SI_UNIT ( $, .METRE. ) );
#289 = ORIENTED_EDGE ( 'NONE', *, *, #22, .T. ) ;
#290 = CARTESIAN_POINT ( 'NONE',  ( 0.0000000000000000000, 0.0000000000000000000, 0.0000000000000000000 ) ) ;
#291 = VERTEX_POINT ( 'NONE', #259 ) ;
#292 = ADVANCED_FACE ( 'NONE', ( #233 ), #260, .T. ) ;
#293 = AXIS2_PLACEMENT_3D ( 'NONE', #285, #126, #25 ) ;
#294 = CARTESIAN_POINT ( 'NONE',  ( 0.0000000000000000000, 0.0000000000000000000, 0.5000000000000000000 ) ) ;
#295 = FILL_AREA_STYLE ('',( #59 ) ) ;
#296 = FILL_AREA_STYLE ('',( #56 ) ) ;
#297 = ORIENTED_EDGE ( 'NONE', *, *, #99, .F. ) ;
#298 = ORIENTED_EDGE ( 'NONE', *, *, #311, .F. ) ;
#299 = DIRECTION ( 'NONE',  ( 0.7071067811865456854, 8.659560562354911904E-17, -0.7071067811865493491 ) ) ;
#300 = PRODUCT_DEFINITION ( 'UNKNOWN', '', #52, #215 ) ;
#301 = CARTESIAN_POINT ( 'NONE',  ( 0.0000000000000000000, 0.0000000000000000000, 1.500000000000000222 ) ) ;
#302 = FACE_BOUND ( 'NONE', #54, .T. ) ;
#303 = EDGE_CURVE ( 'NONE', #30, #266, #14, .T. ) ;
#304 = AXIS2_PLACEMENT_3D ( 'NONE', #183, #35, #116 ) ;
#305 = COLOUR_RGB ( '',0.7921568627450980005, 0.8196078431372548767, 0.9333333333333333481 ) ;
#306 = DIRECTION ( 'NONE',  ( -0.0000000000000000000, -0.0000000000000000000, -1.000000000000000000 ) ) ;
#307 = ORIENTED_EDGE ( 'NONE', *, *, #110, .F. ) ;
#308 = VERTEX_POINT ( 'NONE', #3 ) ;
#309 = VECTOR ( 'NONE', #306, 39.37007874015748143 ) ;
#310 = CARTESIAN_POINT ( 'NONE',  ( 0.0000000000000000000, 0.0000000000000000000, 1.500000000000000222 ) ) ;
#311 = EDGE_CURVE ( 'NONE', #266, #30, #243, .T. ) ;
#312 = ORIENTED_EDGE ( 'NONE', *, *, #222, .F. ) ;
#313 = SURFACE_STYLE_USAGE ( .BOTH. , #238 ) ;
#314 = DIRECTION ( 'NONE',  ( 0.0000000000000000000, 0.0000000000000000000, 1.000000000000000000 ) ) ;
#315 = ADVANCED_FACE ( 'NONE', ( #105 ), #2, .T. ) ;
#316 = AXIS2_PLACEMENT_3D ( 'NONE', #294, #144, #221 ) ;
#317 = ORIENTED_EDGE ( 'NONE', *, *, #120, .T. ) ;
#318 = CARTESIAN_POINT ( 'NONE',  ( 0.0000000000000000000, 0.0000000000000000000, 1.500000000000000222 ) ) ;
#319 =( CONVERSION_BASED_UNIT ( 'INCH', #117 ) LENGTH_UNIT ( ) NAMED_UNIT ( #271 ) );
#320 = EDGE_CURVE ( 'NONE', #291, #30, #204, .T. ) ;
#321 = CARTESIAN_POINT ( 'NONE',  ( 0.0000000000000000000, 0.0000000000000000000, 1.707404996040164512E-17 ) ) ;
#322 = CARTESIAN_POINT ( 'NONE',  ( 0.007499999999999999722, 0.0000000000000000000, 1.707404996040164512E-17 ) ) ;
#323 = ADVANCED_FACE ( 'NONE', ( #255 ), #23, .T. ) ;
#324 =( NAMED_UNIT ( * ) PLANE_ANGLE_UNIT ( ) SI_UNIT ( $, .RADIAN. ) );
#325 = CYLINDRICAL_SURFACE ( 'NONE', #24, 0.06250000000000000000 ) ;
#326 = VECTOR ( 'NONE', #247, 39.37007874015748143 ) ;
#327 = DIRECTION ( 'NONE',  ( -1.000000000000000000, 0.0000000000000000000, 0.0000000000000000000 ) ) ;
#328 = ORIENTED_EDGE ( 'NONE', *, *, #273, .F. ) ;
#329 = PRESENTATION_LAYER_ASSIGNMENT (  '', '', ( #145 ) ) ;
ENDSEC;
END-ISO-10303-21;
