ISO-10303-21;
HEADER;
FILE_DESCRIPTION (( 'STEP AP214' ),
    '1' );
FILE_NAME ('Micro_DM-500-290.STEP',
    '2021-09-02T16:06:59',
    ( '' ),
    ( '' ),
    'SwSTEP 2.0',
    'SolidWorks 2020',
    '' );
FILE_SCHEMA (( 'AUTOMOTIVE_DESIGN' ));
ENDSEC;

DATA;
#1 = DIRECTION ( 'NONE',  ( -1.000000000000000000, 0.0000000000000000000, 0.0000000000000000000 ) ) ;
#2 = LINE ( 'NONE', #231, #162 ) ;
#3 = UNCERTAINTY_MEASURE_WITH_UNIT (LENGTH_MEASURE( 1.000000000000000082E-05 ), #81, 'distance_accuracy_value', 'NONE');
#4 = DIRECTION ( 'NONE',  ( -0.0000000000000000000, -0.0000000000000000000, -1.000000000000000000 ) ) ;
#5 = DIRECTION ( 'NONE',  ( 1.000000000000000000, 0.0000000000000000000, -0.0000000000000000000 ) ) ;
#6 = PLANE ( 'NONE',  #119 ) ;
#7 = PRODUCT_DEFINITION_SHAPE ( 'NONE', 'NONE',  #308 ) ;
#8 = DIRECTION ( 'NONE',  ( -0.0000000000000000000, -0.0000000000000000000, -1.000000000000000000 ) ) ;
#9 = CARTESIAN_POINT ( 'NONE',  ( 0.0000000000000000000, 0.0000000000000000000, 3.000000000000000444 ) ) ;
#10 = CARTESIAN_POINT ( 'NONE',  ( -0.2500000000000000000, 0.0000000000000000000, 3.000000000000000444 ) ) ;
#11 = EDGE_CURVE ( 'NONE', #186, #271, #130, .T. ) ;
#12 = DIRECTION ( 'NONE',  ( 0.0000000000000000000, 0.0000000000000000000, 1.000000000000000000 ) ) ;
#13 =( NAMED_UNIT ( * ) SI_UNIT ( $, .STERADIAN. ) SOLID_ANGLE_UNIT ( ) );
#14 = CIRCLE ( 'NONE', #50, 0.2499500000000000333 ) ;
#15 = AXIS2_PLACEMENT_3D ( 'NONE', #72, #178, #1 ) ;
#16 = ORIENTED_EDGE ( 'NONE', *, *, #221, .F. ) ;
#17 = ORIENTED_EDGE ( 'NONE', *, *, #185, .T. ) ;
#18 = CIRCLE ( 'NONE', #255, 0.2499500000000001165 ) ;
#19 = DIRECTION ( 'NONE',  ( -0.7071067811865402453, 0.0000000000000000000, -0.7071067811865546782 ) ) ;
#20 = DIRECTION ( 'NONE',  ( 0.0000000000000000000, 0.0000000000000000000, 1.000000000000000000 ) ) ;
#21 = VECTOR ( 'NONE', #250, 39.37007874015748143 ) ;
#22 = ORIENTED_EDGE ( 'NONE', *, *, #173, .F. ) ;
#23 = CARTESIAN_POINT ( 'NONE',  ( 0.2500000000000000000, 3.061616997868382402E-17, 3.000000000000000444 ) ) ;
#24 = DIRECTION ( 'NONE',  ( -1.000000000000000000, 0.0000000000000000000, 0.0000000000000000000 ) ) ;
#25 = DIRECTION ( 'NONE',  ( 0.0000000000000000000, 0.0000000000000000000, -1.000000000000000000 ) ) ;
#26 =( NAMED_UNIT ( * ) SI_UNIT ( $, .STERADIAN. ) SOLID_ANGLE_UNIT ( ) );
#27 = DIRECTION ( 'NONE',  ( 1.000000000000000000, 0.0000000000000000000, 0.0000000000000000000 ) ) ;
#28 = SURFACE_SIDE_STYLE ('',( #304 ) ) ;
#29 = DIRECTION ( 'NONE',  ( -0.0000000000000000000, -0.0000000000000000000, -1.000000000000000000 ) ) ;
#30 =( LENGTH_UNIT ( ) NAMED_UNIT ( * ) SI_UNIT ( $, .METRE. ) );
#31 = AXIS2_PLACEMENT_3D ( 'NONE', #219, #8, #258 ) ;
#32 = ORIENTED_EDGE ( 'NONE', *, *, #221, .T. ) ;
#33 = EDGE_CURVE ( 'NONE', #94, #296, #46, .T. ) ;
#34 = EDGE_LOOP ( 'NONE', ( #169, #32 ) ) ;
#35 = ORIENTED_EDGE ( 'NONE', *, *, #43, .F. ) ;
#36 = COLOUR_RGB ( '',0.7921568627450980005, 0.8196078431372548767, 0.9333333333333333481 ) ;
#37 = ORIENTED_EDGE ( 'NONE', *, *, #254, .T. ) ;
#38 = VERTEX_POINT ( 'NONE', #116 ) ;
#39 = DIMENSIONAL_EXPONENTS ( 1.000000000000000000, 0.0000000000000000000, 0.0000000000000000000, 0.0000000000000000000, 0.0000000000000000000, 0.0000000000000000000, 0.0000000000000000000 ) ;
#40 = AXIS2_PLACEMENT_3D ( 'NONE', #309, #4, #101 ) ;
#41 = DIRECTION ( 'NONE',  ( 1.000000000000000000, 0.0000000000000000000, 0.0000000000000000000 ) ) ;
#42 = DIRECTION ( 'NONE',  ( -1.000000000000000000, 0.0000000000000000000, 0.0000000000000000000 ) ) ;
#43 = EDGE_CURVE ( 'NONE', #271, #186, #14, .T. ) ;
#44 = VECTOR ( 'NONE', #121, 39.37007874015748143 ) ;
#45 = CARTESIAN_POINT ( 'NONE',  ( -0.2499500000000000333, 3.061004674468809528E-17, 0.2424499999999991384 ) ) ;
#46 = LINE ( 'NONE', #69, #195 ) ;
#47 = CARTESIAN_POINT ( 'NONE',  ( 0.0000000000000000000, 0.0000000000000000000, 1.707404996040164512E-17 ) ) ;
#48 = DIRECTION ( 'NONE',  ( 1.000000000000000000, 0.0000000000000000000, 0.0000000000000000000 ) ) ;
#49 = DIRECTION ( 'NONE',  ( -0.0000000000000000000, -0.0000000000000000000, -1.000000000000000000 ) ) ;
#50 = AXIS2_PLACEMENT_3D ( 'NONE', #218, #216, #166 ) ;
#51 = DIRECTION ( 'NONE',  ( 0.0000000000000000000, 0.0000000000000000000, 1.000000000000000000 ) ) ;
#52 = DIRECTION ( 'NONE',  ( -1.000000000000000000, 0.0000000000000000000, 0.0000000000000000000 ) ) ;
#53 = LINE ( 'NONE', #201, #140 ) ;
#54 = CARTESIAN_POINT ( 'NONE',  ( 0.0000000000000000000, 0.0000000000000000000, 3.000000000000000444 ) ) ;
#55 = DIRECTION ( 'NONE',  ( -0.0000000000000000000, -0.0000000000000000000, -1.000000000000000000 ) ) ;
#56 = EDGE_LOOP ( 'NONE', ( #89, #133 ) ) ;
#57 = AXIS2_PLACEMENT_3D ( 'NONE', #176, #284, #24 ) ;
#58 = EDGE_CURVE ( 'NONE', #59, #271, #323, .T. ) ;
#59 = VERTEX_POINT ( 'NONE', #188 ) ;
#60 = ORIENTED_EDGE ( 'NONE', *, *, #11, .F. ) ;
#61 = EDGE_CURVE ( 'NONE', #301, #207, #191, .T. ) ;
#62 = CONICAL_SURFACE ( 'NONE', #214, 0.007499999999999999722, 0.7853981633974501664 ) ;
#63 = ORIENTED_EDGE ( 'NONE', *, *, #245, .F. ) ;
#64 = EDGE_LOOP ( 'NONE', ( #120, #297, #316, #246 ) ) ;
#65 = ORIENTED_EDGE ( 'NONE', *, *, #173, .T. ) ;
#66 = AXIS2_PLACEMENT_3D ( 'NONE', #172, #285, #153 ) ;
#67 =( GEOMETRIC_REPRESENTATION_CONTEXT ( 3 ) GLOBAL_UNCERTAINTY_ASSIGNED_CONTEXT ( ( #144 ) ) GLOBAL_UNIT_ASSIGNED_CONTEXT ( ( #198, #228, #26 ) ) REPRESENTATION_CONTEXT ( 'NONE', 'WORKASPACE' ) );
#68 = EDGE_CURVE ( 'NONE', #94, #319, #145, .T. ) ;
#69 = CARTESIAN_POINT ( 'NONE',  ( -0.2350000000000011524, 0.0000000000000000000, 3.000000000000000444 ) ) ;
#70 = DIRECTION ( 'NONE',  ( 1.000000000000000000, 0.0000000000000000000, 0.0000000000000000000 ) ) ;
#71 = AXIS2_PLACEMENT_3D ( 'NONE', #143, #273, #41 ) ;
#72 = CARTESIAN_POINT ( 'NONE',  ( 0.0000000000000000000, 0.0000000000000000000, 1.707404996040164512E-17 ) ) ;
#73 = DIRECTION ( 'NONE',  ( -1.000000000000000000, 0.0000000000000000000, 0.0000000000000000000 ) ) ;
#74 = DIRECTION ( 'NONE',  ( 1.000000000000000000, 0.0000000000000000000, -0.0000000000000000000 ) ) ;
#75 = DIRECTION ( 'NONE',  ( 0.0000000000000000000, 0.0000000000000000000, 1.000000000000000000 ) ) ;
#76 = CARTESIAN_POINT ( 'NONE',  ( 0.0000000000000000000, 0.0000000000000000000, 3.000000000000000444 ) ) ;
#77 = LENGTH_MEASURE_WITH_UNIT ( LENGTH_MEASURE( 0.02539999999999999897 ), #289 );
#78 = PLANE ( 'NONE',  #203 ) ;
#79 = PRESENTATION_STYLE_ASSIGNMENT (( #281 ) ) ;
#80 = CARTESIAN_POINT ( 'NONE',  ( 0.2500000000000000000, 3.061616997868382402E-17, 2.985000000000001208 ) ) ;
#81 =( CONVERSION_BASED_UNIT ( 'INCH', #320 ) LENGTH_UNIT ( ) NAMED_UNIT ( #87 ) );
#82 = ORIENTED_EDGE ( 'NONE', *, *, #312, .F. ) ;
#83 = SURFACE_STYLE_USAGE ( .BOTH. , #136 ) ;
#84 = EDGE_LOOP ( 'NONE', ( #269, #213, #35, #240 ) ) ;
#85 = AXIS2_PLACEMENT_3D ( 'NONE', #263, #12, #268 ) ;
#86 = ORIENTED_EDGE ( 'NONE', *, *, #142, .F. ) ;
#87 = DIMENSIONAL_EXPONENTS ( 1.000000000000000000, 0.0000000000000000000, 0.0000000000000000000, 0.0000000000000000000, 0.0000000000000000000, 0.0000000000000000000, 0.0000000000000000000 ) ;
#88 = ORIENTED_EDGE ( 'NONE', *, *, #303, .T. ) ;
#89 = ORIENTED_EDGE ( 'NONE', *, *, #61, .T. ) ;
#90 = VECTOR ( 'NONE', #314, 39.37007874015748143 ) ;
#91 = PRODUCT ( 'Micro_DM-500-290', 'Micro_DM-500-290', '', ( #206 ) ) ;
#92 = ADVANCED_FACE ( 'NONE', ( #272 ), #62, .T. ) ;
#93 = MANIFOLD_SOLID_BREP ( 'Cut-Revolve4', #277 ) ;
#94 = VERTEX_POINT ( 'NONE', #149 ) ;
#95 = ADVANCED_FACE ( 'NONE', ( #126 ), #118, .T. ) ;
#96 = AXIS2_PLACEMENT_3D ( 'NONE', #47, #51, #27 ) ;
#97 = EDGE_LOOP ( 'NONE', ( #264, #237 ) ) ;
#98 = DIMENSIONAL_EXPONENTS ( 1.000000000000000000, 0.0000000000000000000, 0.0000000000000000000, 0.0000000000000000000, 0.0000000000000000000, 0.0000000000000000000, 0.0000000000000000000 ) ;
#99 = FACE_OUTER_BOUND ( 'NONE', #324, .T. ) ;
#100 = AXIS2_PLACEMENT_3D ( 'NONE', #204, #25, #48 ) ;
#101 = DIRECTION ( 'NONE',  ( -1.000000000000000000, 0.0000000000000000000, 0.0000000000000000000 ) ) ;
#102 = CARTESIAN_POINT ( 'NONE',  ( -0.007499999999999999722, 1.576426592202430407E-17, 1.707404996040164512E-17 ) ) ;
#103 = CARTESIAN_POINT ( 'NONE',  ( 0.0000000000000000000, 0.0000000000000000000, 0.0000000000000000000 ) ) ;
#104 = CYLINDRICAL_SURFACE ( 'NONE', #57, 0.2500000000000000000 ) ;
#105 = FACE_OUTER_BOUND ( 'NONE', #137, .T. ) ;
#106 = FACE_OUTER_BOUND ( 'NONE', #115, .T. ) ;
#107 = MECHANICAL_DESIGN_GEOMETRIC_PRESENTATION_REPRESENTATION (  '', ( #224 ), #67 ) ;
#108 = CARTESIAN_POINT ( 'NONE',  ( 0.0000000000000000000, 0.0000000000000000000, 1.000000000000000000 ) ) ;
#109 = ADVANCED_FACE ( 'NONE', ( #105 ), #279, .T. ) ;
#110 = ORIENTED_EDGE ( 'NONE', *, *, #61, .F. ) ;
#111 = AXIS2_PLACEMENT_3D ( 'NONE', #175, #49, #253 ) ;
#112 = EDGE_LOOP ( 'NONE', ( #37, #88, #110, #114 ) ) ;
#113 = FILL_AREA_STYLE ('',( #293 ) ) ;
#114 = ORIENTED_EDGE ( 'NONE', *, *, #275, .F. ) ;
#115 = EDGE_LOOP ( 'NONE', ( #139, #134, #236, #86 ) ) ;
#116 = CARTESIAN_POINT ( 'NONE',  ( 0.007499999999999999722, 0.0000000000000000000, 1.707404996040164512E-17 ) ) ;
#117 = ORIENTED_EDGE ( 'NONE', *, *, #33, .F. ) ;
#118 = CYLINDRICAL_SURFACE ( 'NONE', #307, 0.2500000000000000000 ) ;
#119 = AXIS2_PLACEMENT_3D ( 'NONE', #249, #305, #152 ) ;
#120 = ORIENTED_EDGE ( 'NONE', *, *, #212, .F. ) ;
#121 = DIRECTION ( 'NONE',  ( -0.0000000000000000000, -0.0000000000000000000, -1.000000000000000000 ) ) ;
#122 = CARTESIAN_POINT ( 'NONE',  ( 0.0000000000000000000, 0.0000000000000000000, 3.000000000000000444 ) ) ;
#123 = CARTESIAN_POINT ( 'NONE',  ( -0.2500000000000000000, 0.0000000000000000000, 1.000000000000000000 ) ) ;
#124 = CONICAL_SURFACE ( 'NONE', #232, 0.2350000000000011524, 0.7853981633974380649 ) ;
#125 = FACE_BOUND ( 'NONE', #97, .T. ) ;
#126 = FACE_OUTER_BOUND ( 'NONE', #112, .T. ) ;
#127 = ADVANCED_FACE ( 'NONE', ( #288 ), #251, .F. ) ;
#128 = CARTESIAN_POINT ( 'NONE',  ( 0.2499500000000001443, 3.061004674468811376E-17, 1.000000000000000000 ) ) ;
#129 = DIRECTION ( 'NONE',  ( 1.000000000000000000, 0.0000000000000000000, 0.0000000000000000000 ) ) ;
#130 = CIRCLE ( 'NONE', #170, 0.2499500000000000333 ) ;
#131 = AXIS2_PLACEMENT_3D ( 'NONE', #54, #75, #129 ) ;
#132 = APPLICATION_CONTEXT ( 'automotive_design' ) ;
#133 = ORIENTED_EDGE ( 'NONE', *, *, #142, .T. ) ;
#134 = ORIENTED_EDGE ( 'NONE', *, *, #245, .T. ) ;
#135 = ADVANCED_FACE ( 'NONE', ( #202 ), #124, .T. ) ;
#136 = SURFACE_SIDE_STYLE ('',( #233 ) ) ;
#137 = EDGE_LOOP ( 'NONE', ( #22, #262, #270, #117 ) ) ;
#138 = MECHANICAL_DESIGN_GEOMETRIC_PRESENTATION_REPRESENTATION (  '', ( #317 ), #295 ) ;
#139 = ORIENTED_EDGE ( 'NONE', *, *, #303, .F. ) ;
#140 = VECTOR ( 'NONE', #174, 39.37007874015748854 ) ;
#141 = CARTESIAN_POINT ( 'NONE',  ( 0.0000000000000000000, 0.0000000000000000000, 1.707404996040164512E-17 ) ) ;
#142 = EDGE_CURVE ( 'NONE', #207, #301, #156, .T. ) ;
#143 = CARTESIAN_POINT ( 'NONE',  ( 0.0000000000000000000, 0.0000000000000000000, 3.000000000000000444 ) ) ;
#144 = UNCERTAINTY_MEASURE_WITH_UNIT (LENGTH_MEASURE( 1.000000000000000082E-05 ), #198, 'distance_accuracy_value', 'NONE');
#145 = CIRCLE ( 'NONE', #71, 0.2350000000000011524 ) ;
#146 = DIRECTION ( 'NONE',  ( -0.0000000000000000000, -0.0000000000000000000, -1.000000000000000000 ) ) ;
#147 = CYLINDRICAL_SURFACE ( 'NONE', #40, 0.2499500000000000888 ) ;
#148 = FACE_OUTER_BOUND ( 'NONE', #292, .T. ) ;
#149 = CARTESIAN_POINT ( 'NONE',  ( -0.2350000000000011524, 0.0000000000000000000, 3.000000000000000444 ) ) ;
#150 = EDGE_CURVE ( 'NONE', #38, #186, #2, .T. ) ;
#151 = AXIS2_PLACEMENT_3D ( 'NONE', #223, #29, #73 ) ;
#152 = DIRECTION ( 'NONE',  ( -1.000000000000000000, 0.0000000000000000000, 0.0000000000000000000 ) ) ;
#153 = DIRECTION ( 'NONE',  ( -1.000000000000000000, 0.0000000000000000000, 0.0000000000000000000 ) ) ;
#154 = LINE ( 'NONE', #276, #90 ) ;
#155 = DIRECTION ( 'NONE',  ( -1.000000000000000000, 0.0000000000000000000, 0.0000000000000000000 ) ) ;
#156 = CIRCLE ( 'NONE', #151, 0.2500000000000000000 ) ;
#157 = ORIENTED_EDGE ( 'NONE', *, *, #58, .T. ) ;
#158 = EDGE_CURVE ( 'NONE', #38, #290, #177, .T. ) ;
#159 = ORIENTED_EDGE ( 'NONE', *, *, #318, .F. ) ;
#160 = LENGTH_MEASURE_WITH_UNIT ( LENGTH_MEASURE( 0.02539999999999999897 ), #230 );
#161 = EDGE_LOOP ( 'NONE', ( #16, #163, #242, #209 ) ) ;
#162 = VECTOR ( 'NONE', #310, 39.37007874015748143 ) ;
#163 = ORIENTED_EDGE ( 'NONE', *, *, #212, .T. ) ;
#164 = CARTESIAN_POINT ( 'NONE',  ( 0.0000000000000000000, 0.0000000000000000000, 1.000000000000000000 ) ) ;
#165 = CIRCLE ( 'NONE', #131, 0.2350000000000011524 ) ;
#166 = DIRECTION ( 'NONE',  ( -1.000000000000000000, 0.0000000000000000000, 0.0000000000000000000 ) ) ;
#167 = ADVANCED_BREP_SHAPE_REPRESENTATION ( 'Micro_DM-500-290', ( #93, #85 ), #322 ) ;
#168 = CARTESIAN_POINT ( 'NONE',  ( 0.2500000000000000000, 3.061616997868382402E-17, 1.000000000000000000 ) ) ;
#169 = ORIENTED_EDGE ( 'NONE', *, *, #158, .T. ) ;
#170 = AXIS2_PLACEMENT_3D ( 'NONE', #278, #190, #42 ) ;
#171 = CARTESIAN_POINT ( 'NONE',  ( 0.0000000000000000000, 0.0000000000000000000, 2.985000000000001208 ) ) ;
#172 = CARTESIAN_POINT ( 'NONE',  ( 0.0000000000000000000, 0.0000000000000000000, 1.707404996040164512E-17 ) ) ;
#173 = EDGE_CURVE ( 'NONE', #319, #94, #165, .T. ) ;
#174 = DIRECTION ( 'NONE',  ( 0.7071067811865402453, 8.659560562354845344E-17, -0.7071067811865546782 ) ) ;
#175 = CARTESIAN_POINT ( 'NONE',  ( 0.0000000000000000000, 0.0000000000000000000, 1.000000000000000000 ) ) ;
#176 = CARTESIAN_POINT ( 'NONE',  ( 0.0000000000000000000, 0.0000000000000000000, 3.000000000000000444 ) ) ;
#177 = CIRCLE ( 'NONE', #66, 0.007499999999999999722 ) ;
#178 = DIRECTION ( 'NONE',  ( -0.0000000000000000000, -0.0000000000000000000, -1.000000000000000000 ) ) ;
#179 = DIRECTION ( 'NONE',  ( -1.000000000000000000, 0.0000000000000000000, 0.0000000000000000000 ) ) ;
#180 = SHAPE_DEFINITION_REPRESENTATION ( #7, #167 ) ;
#181 = DIRECTION ( 'NONE',  ( 0.0000000000000000000, 0.0000000000000000000, -1.000000000000000000 ) ) ;
#182 =( CONVERSION_BASED_UNIT ( 'INCH', #160 ) LENGTH_UNIT ( ) NAMED_UNIT ( #39 ) );
#183 = AXIS2_PLACEMENT_3D ( 'NONE', #164, #146, #274 ) ;
#184 = LINE ( 'NONE', #229, #21 ) ;
#185 = EDGE_CURVE ( 'NONE', #244, #59, #18, .T. ) ;
#186 = VERTEX_POINT ( 'NONE', #220 ) ;
#187 = VECTOR ( 'NONE', #257, 39.37007874015748143 ) ;
#188 = CARTESIAN_POINT ( 'NONE',  ( -0.2499500000000001165, 0.0000000000000000000, 1.000000000000000000 ) ) ;
#189 = EDGE_CURVE ( 'NONE', #59, #244, #294, .T. ) ;
#190 = DIRECTION ( 'NONE',  ( -0.0000000000000000000, -0.0000000000000000000, -1.000000000000000000 ) ) ;
#191 = CIRCLE ( 'NONE', #183, 0.2500000000000000000 ) ;
#192 = ORIENTED_EDGE ( 'NONE', *, *, #68, .T. ) ;
#193 = FILL_AREA_STYLE ('',( #327 ) ) ;
#194 = FACE_OUTER_BOUND ( 'NONE', #161, .T. ) ;
#195 = VECTOR ( 'NONE', #19, 39.37007874015748854 ) ;
#196 = CIRCLE ( 'NONE', #15, 0.007499999999999999722 ) ;
#197 = CARTESIAN_POINT ( 'NONE',  ( 0.2350000000000011524, 2.969768487932338510E-17, 3.000000000000000444 ) ) ;
#198 =( CONVERSION_BASED_UNIT ( 'INCH', #77 ) LENGTH_UNIT ( ) NAMED_UNIT ( #98 ) );
#199 = FACE_OUTER_BOUND ( 'NONE', #56, .T. ) ;
#200 = DIRECTION ( 'NONE',  ( 0.0000000000000000000, 0.0000000000000000000, 1.000000000000000000 ) ) ;
#201 = CARTESIAN_POINT ( 'NONE',  ( 0.2350000000000011524, 2.877919977996294002E-17, 3.000000000000000444 ) ) ;
#202 = FACE_OUTER_BOUND ( 'NONE', #217, .T. ) ;
#203 = AXIS2_PLACEMENT_3D ( 'NONE', #76, #315, #74 ) ;
#204 = CARTESIAN_POINT ( 'NONE',  ( 0.0000000000000000000, 0.0000000000000000000, 2.985000000000001208 ) ) ;
#205 = DIRECTION ( 'NONE',  ( -0.0000000000000000000, -0.0000000000000000000, -1.000000000000000000 ) ) ;
#206 = PRODUCT_CONTEXT ( 'NONE', #210, 'mechanical' ) ;
#207 = VERTEX_POINT ( 'NONE', #168 ) ;
#208 = AXIS2_PLACEMENT_3D ( 'NONE', #306, #181, #226 ) ;
#209 = ORIENTED_EDGE ( 'NONE', *, *, #150, .F. ) ;
#210 = APPLICATION_CONTEXT ( 'automotive_design' ) ;
#211 = APPLICATION_PROTOCOL_DEFINITION ( 'draft international standard', 'automotive_design', 1998, #210 ) ;
#212 = EDGE_CURVE ( 'NONE', #290, #271, #184, .T. ) ;
#213 = ORIENTED_EDGE ( 'NONE', *, *, #318, .T. ) ;
#214 = AXIS2_PLACEMENT_3D ( 'NONE', #141, #20, #70 ) ;
#215 = ORIENTED_EDGE ( 'NONE', *, *, #68, .F. ) ;
#216 = DIRECTION ( 'NONE',  ( -0.0000000000000000000, -0.0000000000000000000, -1.000000000000000000 ) ) ;
#217 = EDGE_LOOP ( 'NONE', ( #82, #215, #266, #63 ) ) ;
#218 = CARTESIAN_POINT ( 'NONE',  ( 0.0000000000000000000, 0.0000000000000000000, 0.2424499999999991384 ) ) ;
#219 = CARTESIAN_POINT ( 'NONE',  ( 0.0000000000000000000, 0.0000000000000000000, 0.0000000000000000000 ) ) ;
#220 = CARTESIAN_POINT ( 'NONE',  ( 0.2499500000000000333, 0.0000000000000000000, 0.2424499999999991384 ) ) ;
#221 = EDGE_CURVE ( 'NONE', #290, #38, #196, .T. ) ;
#222 = CYLINDRICAL_SURFACE ( 'NONE', #31, 0.2499500000000000888 ) ;
#223 = CARTESIAN_POINT ( 'NONE',  ( 0.0000000000000000000, 0.0000000000000000000, 1.000000000000000000 ) ) ;
#224 = STYLED_ITEM ( 'NONE', ( #79 ), #93 ) ;
#225 = LINE ( 'NONE', #10, #187 ) ;
#226 = DIRECTION ( 'NONE',  ( -1.000000000000000000, 0.0000000000000000000, 0.0000000000000000000 ) ) ;
#227 = FACE_OUTER_BOUND ( 'NONE', #84, .T. ) ;
#228 =( NAMED_UNIT ( * ) PLANE_ANGLE_UNIT ( ) SI_UNIT ( $, .RADIAN. ) );
#229 = CARTESIAN_POINT ( 'NONE',  ( -0.007499999999999999722, 9.184850993605147975E-19, 1.707404996040164512E-17 ) ) ;
#230 =( LENGTH_UNIT ( ) NAMED_UNIT ( * ) SI_UNIT ( $, .METRE. ) );
#231 = CARTESIAN_POINT ( 'NONE',  ( 0.007499999999999999722, 0.0000000000000000000, 1.707404996040164512E-17 ) ) ;
#232 = AXIS2_PLACEMENT_3D ( 'NONE', #122, #313, #179 ) ;
#233 = SURFACE_STYLE_FILL_AREA ( #113 ) ;
#234 =( NAMED_UNIT ( * ) PLANE_ANGLE_UNIT ( ) SI_UNIT ( $, .RADIAN. ) );
#235 = ADVANCED_FACE ( 'NONE', ( #148 ), #78, .T. ) ;
#236 = ORIENTED_EDGE ( 'NONE', *, *, #275, .T. ) ;
#237 = ORIENTED_EDGE ( 'NONE', *, *, #185, .F. ) ;
#238 = VECTOR ( 'NONE', #329, 39.37007874015748143 ) ;
#239 = CIRCLE ( 'NONE', #100, 0.2500000000000000000 ) ;
#240 = ORIENTED_EDGE ( 'NONE', *, *, #58, .F. ) ;
#241 = PRESENTATION_STYLE_ASSIGNMENT (( #83 ) ) ;
#242 = ORIENTED_EDGE ( 'NONE', *, *, #43, .T. ) ;
#243 = CIRCLE ( 'NONE', #248, 0.2500000000000000000 ) ;
#244 = VERTEX_POINT ( 'NONE', #128 ) ;
#245 = EDGE_CURVE ( 'NONE', #299, #296, #243, .T. ) ;
#246 = ORIENTED_EDGE ( 'NONE', *, *, #11, .T. ) ;
#247 = ADVANCED_FACE ( 'NONE', ( #106 ), #104, .T. ) ;
#248 = AXIS2_PLACEMENT_3D ( 'NONE', #171, #252, #287 ) ;
#249 = CARTESIAN_POINT ( 'NONE',  ( 0.2499500000000001165, 0.0000000000000000000, 1.000000000000000000 ) ) ;
#250 = DIRECTION ( 'NONE',  ( -0.7071067811865487940, 8.659560562354948882E-17, 0.7071067811865462405 ) ) ;
#251 = PLANE ( 'NONE',  #256 ) ;
#252 = DIRECTION ( 'NONE',  ( 0.0000000000000000000, 0.0000000000000000000, -1.000000000000000000 ) ) ;
#253 = DIRECTION ( 'NONE',  ( -1.000000000000000000, 0.0000000000000000000, 0.0000000000000000000 ) ) ;
#254 = EDGE_CURVE ( 'NONE', #296, #299, #239, .T. ) ;
#255 = AXIS2_PLACEMENT_3D ( 'NONE', #108, #55, #155 ) ;
#256 = AXIS2_PLACEMENT_3D ( 'NONE', #103, #200, #5 ) ;
#257 = DIRECTION ( 'NONE',  ( -0.0000000000000000000, -0.0000000000000000000, -1.000000000000000000 ) ) ;
#258 = DIRECTION ( 'NONE',  ( -1.000000000000000000, 0.0000000000000000000, 0.0000000000000000000 ) ) ;
#259 = PRESENTATION_LAYER_ASSIGNMENT (  '', '', ( #224 ) ) ;
#260 =( NAMED_UNIT ( * ) PLANE_ANGLE_UNIT ( ) SI_UNIT ( $, .RADIAN. ) );
#261 = ADVANCED_FACE ( 'NONE', ( #125, #199 ), #6, .T. ) ;
#262 = ORIENTED_EDGE ( 'NONE', *, *, #312, .T. ) ;
#263 = CARTESIAN_POINT ( 'NONE',  ( 0.0000000000000000000, 0.0000000000000000000, 0.0000000000000000000 ) ) ;
#264 = ORIENTED_EDGE ( 'NONE', *, *, #189, .F. ) ;
#265 =( NAMED_UNIT ( * ) SI_UNIT ( $, .STERADIAN. ) SOLID_ANGLE_UNIT ( ) );
#266 = ORIENTED_EDGE ( 'NONE', *, *, #33, .T. ) ;
#267 = COLOUR_RGB ( '',0.7921568627450980005, 0.8196078431372548767, 0.9333333333333333481 ) ;
#268 = DIRECTION ( 'NONE',  ( 1.000000000000000000, 0.0000000000000000000, 0.0000000000000000000 ) ) ;
#269 = ORIENTED_EDGE ( 'NONE', *, *, #189, .T. ) ;
#270 = ORIENTED_EDGE ( 'NONE', *, *, #254, .F. ) ;
#271 = VERTEX_POINT ( 'NONE', #45 ) ;
#272 = FACE_OUTER_BOUND ( 'NONE', #64, .T. ) ;
#273 = DIRECTION ( 'NONE',  ( 0.0000000000000000000, 0.0000000000000000000, 1.000000000000000000 ) ) ;
#274 = DIRECTION ( 'NONE',  ( -1.000000000000000000, 0.0000000000000000000, 0.0000000000000000000 ) ) ;
#275 = EDGE_CURVE ( 'NONE', #296, #301, #225, .T. ) ;
#276 = CARTESIAN_POINT ( 'NONE',  ( 0.2499500000000000888, 3.061004674468810760E-17, 0.0000000000000000000 ) ) ;
#277 = CLOSED_SHELL ( 'NONE', ( #325, #298, #109, #95, #247, #235, #135, #261, #92, #328, #127 ) ) ;
#278 = CARTESIAN_POINT ( 'NONE',  ( 0.0000000000000000000, 0.0000000000000000000, 0.2424499999999991384 ) ) ;
#279 = CONICAL_SURFACE ( 'NONE', #208, 0.2350000000000011524, 0.7853981633974380649 ) ;
#280 = CARTESIAN_POINT ( 'NONE',  ( -0.2500000000000000000, 0.0000000000000000000, 2.985000000000001208 ) ) ;
#281 = SURFACE_STYLE_USAGE ( .BOTH. , #28 ) ;
#282 = PRODUCT_DEFINITION_CONTEXT ( 'detailed design', #132, 'design' ) ;
#283 = LINE ( 'NONE', #23, #44 ) ;
#284 = DIRECTION ( 'NONE',  ( -0.0000000000000000000, -0.0000000000000000000, -1.000000000000000000 ) ) ;
#285 = DIRECTION ( 'NONE',  ( -0.0000000000000000000, -0.0000000000000000000, -1.000000000000000000 ) ) ;
#286 = PRESENTATION_LAYER_ASSIGNMENT (  '', '', ( #317 ) ) ;
#287 = DIRECTION ( 'NONE',  ( 1.000000000000000000, 0.0000000000000000000, 0.0000000000000000000 ) ) ;
#288 = FACE_OUTER_BOUND ( 'NONE', #34, .T. ) ;
#289 =( LENGTH_UNIT ( ) NAMED_UNIT ( * ) SI_UNIT ( $, .METRE. ) );
#290 = VERTEX_POINT ( 'NONE', #102 ) ;
#291 = CONICAL_SURFACE ( 'NONE', #96, 0.007499999999999999722, 0.7853981633974501664 ) ;
#292 = EDGE_LOOP ( 'NONE', ( #192, #65 ) ) ;
#293 = FILL_AREA_STYLE_COLOUR ( '', #267 ) ;
#294 = CIRCLE ( 'NONE', #111, 0.2499500000000001165 ) ;
#295 =( GEOMETRIC_REPRESENTATION_CONTEXT ( 3 ) GLOBAL_UNCERTAINTY_ASSIGNED_CONTEXT ( ( #3 ) ) GLOBAL_UNIT_ASSIGNED_CONTEXT ( ( #81, #234, #13 ) ) REPRESENTATION_CONTEXT ( 'NONE', 'WORKASPACE' ) );
#296 = VERTEX_POINT ( 'NONE', #280 ) ;
#297 = ORIENTED_EDGE ( 'NONE', *, *, #158, .F. ) ;
#298 = ADVANCED_FACE ( 'NONE', ( #194 ), #291, .T. ) ;
#299 = VERTEX_POINT ( 'NONE', #80 ) ;
#300 = PRODUCT_RELATED_PRODUCT_CATEGORY ( 'part', '', ( #91 ) ) ;
#301 = VERTEX_POINT ( 'NONE', #123 ) ;
#302 = CARTESIAN_POINT ( 'NONE',  ( -0.2499500000000000888, 0.0000000000000000000, 0.0000000000000000000 ) ) ;
#303 = EDGE_CURVE ( 'NONE', #299, #207, #283, .T. ) ;
#304 = SURFACE_STYLE_FILL_AREA ( #193 ) ;
#305 = DIRECTION ( 'NONE',  ( -0.0000000000000000000, 0.0000000000000000000, -1.000000000000000000 ) ) ;
#306 = CARTESIAN_POINT ( 'NONE',  ( 0.0000000000000000000, 0.0000000000000000000, 3.000000000000000444 ) ) ;
#307 = AXIS2_PLACEMENT_3D ( 'NONE', #9, #205, #52 ) ;
#308 = PRODUCT_DEFINITION ( 'UNKNOWN', '', #326, #282 ) ;
#309 = CARTESIAN_POINT ( 'NONE',  ( 0.0000000000000000000, 0.0000000000000000000, 0.0000000000000000000 ) ) ;
#310 = DIRECTION ( 'NONE',  ( 0.7071067811865487940, 0.0000000000000000000, 0.7071067811865462405 ) ) ;
#311 = UNCERTAINTY_MEASURE_WITH_UNIT (LENGTH_MEASURE( 1.000000000000000082E-05 ), #182, 'distance_accuracy_value', 'NONE');
#312 = EDGE_CURVE ( 'NONE', #319, #299, #53, .T. ) ;
#313 = DIRECTION ( 'NONE',  ( 0.0000000000000000000, 0.0000000000000000000, -1.000000000000000000 ) ) ;
#314 = DIRECTION ( 'NONE',  ( -0.0000000000000000000, -0.0000000000000000000, -1.000000000000000000 ) ) ;
#315 = DIRECTION ( 'NONE',  ( 0.0000000000000000000, 0.0000000000000000000, 1.000000000000000000 ) ) ;
#316 = ORIENTED_EDGE ( 'NONE', *, *, #150, .T. ) ;
#317 = STYLED_ITEM ( 'NONE', ( #241 ), #167 ) ;
#318 = EDGE_CURVE ( 'NONE', #244, #186, #154, .T. ) ;
#319 = VERTEX_POINT ( 'NONE', #197 ) ;
#320 = LENGTH_MEASURE_WITH_UNIT ( LENGTH_MEASURE( 0.02539999999999999897 ), #30 );
#321 = APPLICATION_PROTOCOL_DEFINITION ( 'draft international standard', 'automotive_design', 1998, #132 ) ;
#322 =( GEOMETRIC_REPRESENTATION_CONTEXT ( 3 ) GLOBAL_UNCERTAINTY_ASSIGNED_CONTEXT ( ( #311 ) ) GLOBAL_UNIT_ASSIGNED_CONTEXT ( ( #182, #260, #265 ) ) REPRESENTATION_CONTEXT ( 'NONE', 'WORKASPACE' ) );
#323 = LINE ( 'NONE', #302, #238 ) ;
#324 = EDGE_LOOP ( 'NONE', ( #159, #17, #157, #60 ) ) ;
#325 = ADVANCED_FACE ( 'NONE', ( #227 ), #222, .T. ) ;
#326 = PRODUCT_DEFINITION_FORMATION_WITH_SPECIFIED_SOURCE ( 'ANY', '', #91, .NOT_KNOWN. ) ;
#327 = FILL_AREA_STYLE_COLOUR ( '', #36 ) ;
#328 = ADVANCED_FACE ( 'NONE', ( #99 ), #147, .T. ) ;
#329 = DIRECTION ( 'NONE',  ( -0.0000000000000000000, -0.0000000000000000000, -1.000000000000000000 ) ) ;
ENDSEC;
END-ISO-10303-21;
