ISO-10303-21;
HEADER;
FILE_DESCRIPTION (( 'STEP AP214' ),
    '1' );
FILE_NAME ('Micro_SBMM-020-216X.STEP',
    '2021-09-02T17:04:45',
    ( '' ),
    ( '' ),
    'SwSTEP 2.0',
    'SolidWorks 2020',
    '' );
FILE_SCHEMA (( 'AUTOMOTIVE_DESIGN' ));
ENDSEC;

DATA;
#1 = DIRECTION ( 'NONE',  ( 1.000000000000000000, 0.0000000000000000000, 0.0000000000000000000 ) ) ;
#2 = ORIENTED_EDGE ( 'NONE', *, *, #339, .T. ) ;
#3 = CARTESIAN_POINT ( 'NONE',  ( -0.1181100000000000344, 0.0000000000000000000, 1.653542999999999985 ) ) ;
#4 = DIRECTION ( 'NONE',  ( -0.0000000000000000000, -0.0000000000000000000, -1.000000000000000000 ) ) ;
#5 = ORIENTED_EDGE ( 'NONE', *, *, #161, .F. ) ;
#6 = AXIS2_PLACEMENT_3D ( 'NONE', #66, #60, #326 ) ;
#7 = CARTESIAN_POINT ( 'NONE',  ( 0.0000000000000000000, 0.0000000000000000000, 2.952755999999999936 ) ) ;
#8 = ORIENTED_EDGE ( 'NONE', *, *, #154, .T. ) ;
#9 = SURFACE_STYLE_USAGE ( .BOTH. , #144 ) ;
#10 =( CONVERSION_BASED_UNIT ( 'INCH', #245 ) LENGTH_UNIT ( ) NAMED_UNIT ( #146 ) );
#11 = DIRECTION ( 'NONE',  ( -0.0000000000000000000, -0.0000000000000000000, -1.000000000000000000 ) ) ;
#12 = CIRCLE ( 'NONE', #134, 0.02559049999999998132 ) ;
#13 = DIRECTION ( 'NONE',  ( -0.0000000000000000000, -0.0000000000000000000, -1.000000000000000000 ) ) ;
#14 = EDGE_CURVE ( 'NONE', #206, #42, #24, .T. ) ;
#15 = PRODUCT_DEFINITION_CONTEXT ( 'detailed design', #231, 'design' ) ;
#16 = EDGE_CURVE ( 'NONE', #74, #261, #319, .T. ) ;
#17 = DIRECTION ( 'NONE',  ( -1.000000000000000000, 0.0000000000000000000, 0.0000000000000000000 ) ) ;
#18 =( NAMED_UNIT ( * ) PLANE_ANGLE_UNIT ( ) SI_UNIT ( $, .RADIAN. ) );
#19 = ORIENTED_EDGE ( 'NONE', *, *, #161, .T. ) ;
#20 = CIRCLE ( 'NONE', #316, 0.02559049999999998132 ) ;
#21 = EDGE_CURVE ( 'NONE', #109, #87, #157, .T. ) ;
#22 = CARTESIAN_POINT ( 'NONE',  ( -0.02559049999999992234, 8.799117868043706652E-18, 0.6299209999999999532 ) ) ;
#23 = LINE ( 'NONE', #340, #180 ) ;
#24 = CIRCLE ( 'NONE', #124, 0.1181100000000000344 ) ;
#25 = AXIS2_PLACEMENT_3D ( 'NONE', #150, #178, #205 ) ;
#26 = ORIENTED_EDGE ( 'NONE', *, *, #230, .T. ) ;
#27 = CARTESIAN_POINT ( 'NONE',  ( 0.1181100000000000344, 1.446430334472939084E-17, 2.937755999999999368 ) ) ;
#28 = ORIENTED_EDGE ( 'NONE', *, *, #297, .T. ) ;
#29 = CYLINDRICAL_SURFACE ( 'NONE', #61, 0.02559049999999995356 ) ;
#30 = EDGE_LOOP ( 'NONE', ( #135, #294, #165, #91 ) ) ;
#31 = DIRECTION ( 'NONE',  ( -1.000000000000000000, 0.0000000000000000000, 0.0000000000000000000 ) ) ;
#32 = ADVANCED_FACE ( 'NONE', ( #80 ), #273, .T. ) ;
#33 =( GEOMETRIC_REPRESENTATION_CONTEXT ( 3 ) GLOBAL_UNCERTAINTY_ASSIGNED_CONTEXT ( ( #330 ) ) GLOBAL_UNIT_ASSIGNED_CONTEXT ( ( #302, #334, #119 ) ) REPRESENTATION_CONTEXT ( 'NONE', 'WORKASPACE' ) );
#34 = ORIENTED_EDGE ( 'NONE', *, *, #320, .T. ) ;
#35 = DIRECTION ( 'NONE',  ( -1.000000000000000000, 0.0000000000000000000, 0.0000000000000000000 ) ) ;
#36 = DIRECTION ( 'NONE',  ( 0.0000000000000000000, 0.0000000000000000000, -1.000000000000000000 ) ) ;
#37 = DIRECTION ( 'NONE',  ( 0.7071067811865486830, 8.659560562354947649E-17, -0.7071067811865462405 ) ) ;
#38 = ORIENTED_EDGE ( 'NONE', *, *, #211, .F. ) ;
#39 = AXIS2_PLACEMENT_3D ( 'NONE', #97, #13, #96 ) ;
#40 = ORIENTED_EDGE ( 'NONE', *, *, #259, .T. ) ;
#41 = FACE_OUTER_BOUND ( 'NONE', #156, .T. ) ;
#42 = VERTEX_POINT ( 'NONE', #105 ) ;
#43 = CARTESIAN_POINT ( 'NONE',  ( 0.0000000000000000000, 0.0000000000000000000, 0.6299209999999999532 ) ) ;
#44 = UNCERTAINTY_MEASURE_WITH_UNIT (LENGTH_MEASURE( 1.000000000000000082E-05 ), #10, 'distance_accuracy_value', 'NONE');
#45 =( GEOMETRIC_REPRESENTATION_CONTEXT ( 3 ) GLOBAL_UNCERTAINTY_ASSIGNED_CONTEXT ( ( #44 ) ) GLOBAL_UNIT_ASSIGNED_CONTEXT ( ( #10, #114, #193 ) ) REPRESENTATION_CONTEXT ( 'NONE', 'WORKASPACE' ) );
#46 = PRESENTATION_LAYER_ASSIGNMENT (  '', '', ( #223 ) ) ;
#47 = DIRECTION ( 'NONE',  ( -0.0000000000000000000, -0.0000000000000000000, -1.000000000000000000 ) ) ;
#48 = ORIENTED_EDGE ( 'NONE', *, *, #259, .F. ) ;
#49 = CIRCLE ( 'NONE', #39, 0.02559049999999992234 ) ;
#50 = CARTESIAN_POINT ( 'NONE',  ( 0.0000000000000000000, 0.0000000000000000000, 2.952755999999999936 ) ) ;
#51 = CARTESIAN_POINT ( 'NONE',  ( 0.02559049999999992234, 0.0000000000000000000, 0.6299209999999999532 ) ) ;
#52 = ORIENTED_EDGE ( 'NONE', *, *, #230, .F. ) ;
#53 = DIRECTION ( 'NONE',  ( 1.000000000000000000, 0.0000000000000000000, -0.0000000000000000000 ) ) ;
#54 = PRODUCT_RELATED_PRODUCT_CATEGORY ( 'part', '', ( #315 ) ) ;
#55 = ORIENTED_EDGE ( 'NONE', *, *, #106, .F. ) ;
#56 = CARTESIAN_POINT ( 'NONE',  ( 0.0000000000000000000, 0.0000000000000000000, 0.0000000000000000000 ) ) ;
#57 = ORIENTED_EDGE ( 'NONE', *, *, #297, .F. ) ;
#58 = FACE_OUTER_BOUND ( 'NONE', #235, .T. ) ;
#59 = VERTEX_POINT ( 'NONE', #27 ) ;
#60 = DIRECTION ( 'NONE',  ( 1.000000000000000000, 0.0000000000000000000, 0.0000000000000000000 ) ) ;
#61 = AXIS2_PLACEMENT_3D ( 'NONE', #56, #163, #31 ) ;
#62 = EDGE_LOOP ( 'NONE', ( #115, #28, #55, #329 ) ) ;
#63 = CARTESIAN_POINT ( 'NONE',  ( 0.0000000000000000000, 0.02559049999999999173, 0.06928860975630385388 ) ) ;
#64 = CARTESIAN_POINT ( 'NONE',  ( 0.0000000000000000000, 0.0000000000000000000, 1.784218148936167481 ) ) ;
#65 = STYLED_ITEM ( 'NONE', ( #199 ), #242 ) ;
#66 = CARTESIAN_POINT ( 'NONE',  ( 0.0000000000000000000, 0.0000000000000000000, 0.03937000000000000915 ) ) ;
#67 = DIRECTION ( 'NONE',  ( 0.0000000000000000000, 0.0000000000000000000, 1.000000000000000000 ) ) ;
#68 = ADVANCED_FACE ( 'NONE', ( #236 ), #313, .T. ) ;
#69 = APPLICATION_PROTOCOL_DEFINITION ( 'draft international standard', 'automotive_design', 1998, #148 ) ;
#70 = EDGE_CURVE ( 'NONE', #137, #42, #184, .T. ) ;
#71 = AXIS2_PLACEMENT_3D ( 'NONE', #43, #47, #116 ) ;
#72 = MECHANICAL_DESIGN_GEOMETRIC_PRESENTATION_REPRESENTATION (  '', ( #223 ), #251 ) ;
#73 = DIRECTION ( 'NONE',  ( -1.000000000000000000, 0.0000000000000000000, 0.0000000000000000000 ) ) ;
#74 = VERTEX_POINT ( 'NONE', #75 ) ;
#75 = CARTESIAN_POINT ( 'NONE',  ( 0.1031099999999991745, 1.354581824536882559E-17, 2.952755999999999936 ) ) ;
#76 = COLOUR_RGB ( '',0.7921568627450980005, 0.8196078431372548767, 0.9333333333333333481 ) ;
#77 = ORIENTED_EDGE ( 'NONE', *, *, #339, .F. ) ;
#78 = DIRECTION ( 'NONE',  ( -1.000000000000000000, 0.0000000000000000000, 0.0000000000000000000 ) ) ;
#79 = CARTESIAN_POINT ( 'NONE',  ( 0.0000000000000000000, 0.0000000000000000000, 0.06928860975630385388 ) ) ;
#80 = FACE_OUTER_BOUND ( 'NONE', #62, .T. ) ;
#81 = CIRCLE ( 'NONE', #201, 0.1181100000000000344 ) ;
#82 = PRODUCT_CONTEXT ( 'NONE', #148, 'mechanical' ) ;
#83 = FACE_OUTER_BOUND ( 'NONE', #171, .T. ) ;
#84 = ADVANCED_FACE ( 'NONE', ( #229 ), #128, .T. ) ;
#85 = ORIENTED_EDGE ( 'NONE', *, *, #129, .F. ) ;
#86 = CARTESIAN_POINT ( 'NONE',  ( 0.0000000000000000000, 0.0000000000000000000, 2.952755999999999936 ) ) ;
#87 = VERTEX_POINT ( 'NONE', #312 ) ;
#88 = VECTOR ( 'NONE', #126, 39.37007874015748854 ) ;
#89 = FILL_AREA_STYLE ('',( #244 ) ) ;
#90 = DIRECTION ( 'NONE',  ( -0.0000000000000000000, -0.0000000000000000000, -1.000000000000000000 ) ) ;
#91 = ORIENTED_EDGE ( 'NONE', *, *, #14, .T. ) ;
#92 = DIRECTION ( 'NONE',  ( -1.224646799147352961E-16, 1.000000000000000000, 0.0000000000000000000 ) ) ;
#93 = AXIS2_PLACEMENT_3D ( 'NONE', #152, #11, #73 ) ;
#94 = LINE ( 'NONE', #298, #227 ) ;
#95 = ADVANCED_FACE ( 'NONE', ( #256 ), #160, .T. ) ;
#96 = DIRECTION ( 'NONE',  ( -1.000000000000000000, 0.0000000000000000000, 0.0000000000000000000 ) ) ;
#97 = CARTESIAN_POINT ( 'NONE',  ( 0.0000000000000000000, 0.0000000000000000000, 0.6299209999999999532 ) ) ;
#98 =( CONVERSION_BASED_UNIT ( 'INCH', #226 ) LENGTH_UNIT ( ) NAMED_UNIT ( #323 ) );
#99 = CONICAL_SURFACE ( 'NONE', #344, 0.1031099999999991745, 0.7853981633974500554 ) ;
#100 =( LENGTH_UNIT ( ) NAMED_UNIT ( * ) SI_UNIT ( $, .METRE. ) );
#101 = DIRECTION ( 'NONE',  ( 1.000000000000000000, 0.0000000000000000000, 0.0000000000000000000 ) ) ;
#102 = EDGE_LOOP ( 'NONE', ( #57, #276, #248, #198 ) ) ;
#103 = DIRECTION ( 'NONE',  ( 0.0000000000000000000, 0.0000000000000000000, 1.000000000000000000 ) ) ;
#104 = DIRECTION ( 'NONE',  ( -0.7071067811865486830, 0.0000000000000000000, -0.7071067811865462405 ) ) ;
#105 = CARTESIAN_POINT ( 'NONE',  ( 0.1181100000000000344, 1.446430334472939084E-17, 1.653542999999999985 ) ) ;
#106 = EDGE_CURVE ( 'NONE', #42, #206, #204, .T. ) ;
#107 = VECTOR ( 'NONE', #111, 39.37007874015748143 ) ;
#108 = ORIENTED_EDGE ( 'NONE', *, *, #286, .T. ) ;
#109 = VERTEX_POINT ( 'NONE', #22 ) ;
#110 = DIRECTION ( 'NONE',  ( 0.0000000000000000000, 0.0000000000000000000, 1.000000000000000000 ) ) ;
#111 = DIRECTION ( 'NONE',  ( -0.0000000000000000000, -0.0000000000000000000, -1.000000000000000000 ) ) ;
#112 = DIRECTION ( 'NONE',  ( 0.0000000000000000000, 0.0000000000000000000, 1.000000000000000000 ) ) ;
#113 = CIRCLE ( 'NONE', #305, 0.03936999999999999528 ) ;
#114 =( NAMED_UNIT ( * ) PLANE_ANGLE_UNIT ( ) SI_UNIT ( $, .RADIAN. ) );
#115 = ORIENTED_EDGE ( 'NONE', *, *, #286, .F. ) ;
#116 = DIRECTION ( 'NONE',  ( -1.000000000000000000, 0.0000000000000000000, 0.0000000000000000000 ) ) ;
#117 = AXIS2_PLACEMENT_3D ( 'NONE', #64, #112, #292 ) ;
#118 = PRESENTATION_STYLE_ASSIGNMENT (( #151 ) ) ;
#119 =( NAMED_UNIT ( * ) SI_UNIT ( $, .STERADIAN. ) SOLID_ANGLE_UNIT ( ) );
#120 = CARTESIAN_POINT ( 'NONE',  ( 0.0000000000000000000, 0.0000000000000000000, 2.937755999999999368 ) ) ;
#121 = ADVANCED_FACE ( 'NONE', ( #58 ), #29, .T. ) ;
#122 = EDGE_CURVE ( 'NONE', #325, #266, #20, .T. ) ;
#123 = VERTEX_POINT ( 'NONE', #277 ) ;
#124 = AXIS2_PLACEMENT_3D ( 'NONE', #278, #212, #188 ) ;
#125 = CIRCLE ( 'NONE', #321, 0.1181100000000000344 ) ;
#126 = DIRECTION ( 'NONE',  ( 0.09001749462147055902, 0.0000000000000000000, 0.9959401842791932857 ) ) ;
#127 = ORIENTED_EDGE ( 'NONE', *, *, #318, .F. ) ;
#128 = CYLINDRICAL_SURFACE ( 'NONE', #296, 0.02559049999999995356 ) ;
#129 = EDGE_CURVE ( 'NONE', #285, #59, #81, .T. ) ;
#130 = DIRECTION ( 'NONE',  ( -1.000000000000000000, 0.0000000000000000000, 0.0000000000000000000 ) ) ;
#131 = ORIENTED_EDGE ( 'NONE', *, *, #122, .T. ) ;
#132 = SPHERICAL_SURFACE ( 'NONE', #247, 0.03936999999999999528 ) ;
#133 = AXIS2_PLACEMENT_3D ( 'NONE', #253, #110, #335 ) ;
#134 = AXIS2_PLACEMENT_3D ( 'NONE', #263, #90, #218 ) ;
#135 = ORIENTED_EDGE ( 'NONE', *, *, #228, .F. ) ;
#136 = CARTESIAN_POINT ( 'NONE',  ( 0.1181100000000000344, 1.446430334472939084E-17, 2.952755999999999936 ) ) ;
#137 = VERTEX_POINT ( 'NONE', #51 ) ;
#138 = DIMENSIONAL_EXPONENTS ( 1.000000000000000000, 0.0000000000000000000, 0.0000000000000000000, 0.0000000000000000000, 0.0000000000000000000, 0.0000000000000000000, 0.0000000000000000000 ) ;
#139 = DIRECTION ( 'NONE',  ( 1.000000000000000000, 0.0000000000000000000, 0.0000000000000000000 ) ) ;
#140 = DIRECTION ( 'NONE',  ( 0.0000000000000000000, 0.0000000000000000000, -1.000000000000000000 ) ) ;
#141 = AXIS2_PLACEMENT_3D ( 'NONE', #222, #17, #67 ) ;
#142 = FACE_OUTER_BOUND ( 'NONE', #102, .T. ) ;
#143 = ORIENTED_EDGE ( 'NONE', *, *, #272, .F. ) ;
#144 = SURFACE_SIDE_STYLE ('',( #324 ) ) ;
#145 = ORIENTED_EDGE ( 'NONE', *, *, #320, .F. ) ;
#146 = DIMENSIONAL_EXPONENTS ( 1.000000000000000000, 0.0000000000000000000, 0.0000000000000000000, 0.0000000000000000000, 0.0000000000000000000, 0.0000000000000000000, 0.0000000000000000000 ) ;
#147 = CARTESIAN_POINT ( 'NONE',  ( -0.1181100000000000344, 0.0000000000000000000, 2.937755999999999368 ) ) ;
#148 = APPLICATION_CONTEXT ( 'automotive_design' ) ;
#149 = CONICAL_SURFACE ( 'NONE', #177, 0.1031099999999991745, 0.7853981633974500554 ) ;
#150 = CARTESIAN_POINT ( 'NONE',  ( 0.0000000000000000000, 0.0000000000000000000, 2.952755999999999936 ) ) ;
#151 = SURFACE_STYLE_USAGE ( .BOTH. , #269 ) ;
#152 = CARTESIAN_POINT ( 'NONE',  ( 0.0000000000000000000, 0.0000000000000000000, 0.06928860975630385388 ) ) ;
#153 = CIRCLE ( 'NONE', #288, 0.02559049999999998132 ) ;
#154 = EDGE_CURVE ( 'NONE', #261, #285, #23, .T. ) ;
#155 = DIRECTION ( 'NONE',  ( -0.0000000000000000000, -0.0000000000000000000, -1.000000000000000000 ) ) ;
#156 = EDGE_LOOP ( 'NONE', ( #48, #200, #8, #143 ) ) ;
#157 = LINE ( 'NONE', #338, #237 ) ;
#158 = CARTESIAN_POINT ( 'NONE',  ( 0.0000000000000000000, 0.0000000000000000000, 0.0000000000000000000 ) ) ;
#159 = PRESENTATION_LAYER_ASSIGNMENT (  '', '', ( #65 ) ) ;
#160 = CYLINDRICAL_SURFACE ( 'NONE', #309, 0.1181100000000000344 ) ;
#161 = EDGE_CURVE ( 'NONE', #266, #87, #153, .T. ) ;
#162 = DIRECTION ( 'NONE',  ( -0.0000000000000000000, -0.0000000000000000000, -1.000000000000000000 ) ) ;
#163 = DIRECTION ( 'NONE',  ( -0.0000000000000000000, -0.0000000000000000000, -1.000000000000000000 ) ) ;
#164 = CYLINDRICAL_SURFACE ( 'NONE', #274, 0.1181100000000000344 ) ;
#165 = ORIENTED_EDGE ( 'NONE', *, *, #207, .T. ) ;
#166 = CARTESIAN_POINT ( 'NONE',  ( 3.133932391358032860E-18, -0.02559049999999999173, 0.06928860975630385388 ) ) ;
#167 = ORIENTED_EDGE ( 'NONE', *, *, #318, .T. ) ;
#168 =( LENGTH_UNIT ( ) NAMED_UNIT ( * ) SI_UNIT ( $, .METRE. ) );
#169 = AXIS2_PLACEMENT_3D ( 'NONE', #258, #103, #187 ) ;
#170 = ADVANCED_FACE ( 'NONE', ( #216 ), #132, .T. ) ;
#171 = EDGE_LOOP ( 'NONE', ( #224, #186, #182, #343 ) ) ;
#172 = DIRECTION ( 'NONE',  ( 0.0000000000000000000, 1.000000000000000000, 0.0000000000000000000 ) ) ;
#173 = SURFACE_STYLE_FILL_AREA ( #202 ) ;
#174 = ORIENTED_EDGE ( 'NONE', *, *, #21, .F. ) ;
#175 = DIRECTION ( 'NONE',  ( 0.0000000000000000000, 0.0000000000000000000, -1.000000000000000000 ) ) ;
#176 = ADVANCED_FACE ( 'NONE', ( #83 ), #164, .T. ) ;
#177 = AXIS2_PLACEMENT_3D ( 'NONE', #86, #140, #219 ) ;
#178 = DIRECTION ( 'NONE',  ( 0.0000000000000000000, 0.0000000000000000000, 1.000000000000000000 ) ) ;
#179 = ADVANCED_BREP_SHAPE_REPRESENTATION ( 'Micro_SBMM-020-216X', ( #242, #290 ), #33 ) ;
#180 = VECTOR ( 'NONE', #104, 39.37007874015748854 ) ;
#181 = DIRECTION ( 'NONE',  ( -1.000000000000000000, 0.0000000000000000000, 0.0000000000000000000 ) ) ;
#182 = ORIENTED_EDGE ( 'NONE', *, *, #106, .T. ) ;
#183 = CARTESIAN_POINT ( 'NONE',  ( 0.0000000000000000000, 0.0000000000000000000, 2.952755999999999936 ) ) ;
#184 = LINE ( 'NONE', #307, #88 ) ;
#185 = ADVANCED_FACE ( 'NONE', ( #142 ), #262, .T. ) ;
#186 = ORIENTED_EDGE ( 'NONE', *, *, #228, .T. ) ;
#187 = DIRECTION ( 'NONE',  ( 1.000000000000000000, 0.0000000000000000000, 0.0000000000000000000 ) ) ;
#188 = DIRECTION ( 'NONE',  ( 1.000000000000000000, 0.0000000000000000000, 0.0000000000000000000 ) ) ;
#189 = ORIENTED_EDGE ( 'NONE', *, *, #211, .T. ) ;
#190 = ADVANCED_FACE ( 'NONE', ( #41 ), #149, .T. ) ;
#191 = LINE ( 'NONE', #240, #250 ) ;
#192 = EDGE_LOOP ( 'NONE', ( #77, #341, #210, #5, #336 ) ) ;
#193 =( NAMED_UNIT ( * ) SI_UNIT ( $, .STERADIAN. ) SOLID_ANGLE_UNIT ( ) );
#194 = MECHANICAL_DESIGN_GEOMETRIC_PRESENTATION_REPRESENTATION (  '', ( #65 ), #45 ) ;
#195 = EDGE_LOOP ( 'NONE', ( #167, #131, #26, #145 ) ) ;
#196 = DIRECTION ( 'NONE',  ( -0.0000000000000000000, -0.0000000000000000000, -1.000000000000000000 ) ) ;
#197 = EDGE_LOOP ( 'NONE', ( #299, #40, #85, #268 ) ) ;
#198 = ORIENTED_EDGE ( 'NONE', *, *, #14, .F. ) ;
#199 = PRESENTATION_STYLE_ASSIGNMENT (( #9 ) ) ;
#200 = ORIENTED_EDGE ( 'NONE', *, *, #289, .F. ) ;
#201 = AXIS2_PLACEMENT_3D ( 'NONE', #120, #234, #260 ) ;
#202 = FILL_AREA_STYLE ('',( #252 ) ) ;
#203 = DIRECTION ( 'NONE',  ( -0.09001749462147055902, 1.102396366554480072E-17, 0.9959401842791932857 ) ) ;
#204 = CIRCLE ( 'NONE', #169, 0.1181100000000000344 ) ;
#205 = DIRECTION ( 'NONE',  ( 1.000000000000000000, 0.0000000000000000000, 0.0000000000000000000 ) ) ;
#206 = VERTEX_POINT ( 'NONE', #3 ) ;
#207 = EDGE_CURVE ( 'NONE', #285, #206, #191, .T. ) ;
#208 =( NAMED_UNIT ( * ) SI_UNIT ( $, .STERADIAN. ) SOLID_ANGLE_UNIT ( ) );
#209 = DIRECTION ( 'NONE',  ( 0.0000000000000000000, 0.0000000000000000000, 1.000000000000000000 ) ) ;
#210 = ORIENTED_EDGE ( 'NONE', *, *, #21, .T. ) ;
#211 = EDGE_CURVE ( 'NONE', #87, #264, #12, .T. ) ;
#212 = DIRECTION ( 'NONE',  ( 0.0000000000000000000, 0.0000000000000000000, 1.000000000000000000 ) ) ;
#213 = CARTESIAN_POINT ( 'NONE',  ( 0.0000000000000000000, 0.0000000000000000000, 2.952755999999999936 ) ) ;
#214 = PRODUCT_DEFINITION_SHAPE ( 'NONE', 'NONE',  #311 ) ;
#215 = DIRECTION ( 'NONE',  ( 0.0000000000000000000, 0.0000000000000000000, 1.000000000000000000 ) ) ;
#216 = FACE_OUTER_BOUND ( 'NONE', #195, .T. ) ;
#217 = ORIENTED_EDGE ( 'NONE', *, *, #16, .T. ) ;
#218 = DIRECTION ( 'NONE',  ( -1.000000000000000000, 0.0000000000000000000, 0.0000000000000000000 ) ) ;
#219 = DIRECTION ( 'NONE',  ( -1.000000000000000000, 0.0000000000000000000, 0.0000000000000000000 ) ) ;
#220 = SPHERICAL_SURFACE ( 'NONE', #6, 0.03936999999999999528 ) ;
#221 = CARTESIAN_POINT ( 'NONE',  ( -0.1031099999999991745, 0.0000000000000000000, 2.952755999999999936 ) ) ;
#222 = CARTESIAN_POINT ( 'NONE',  ( 0.0000000000000000000, 0.0000000000000000000, 0.03937000000000000915 ) ) ;
#223 = STYLED_ITEM ( 'NONE', ( #118 ), #179 ) ;
#224 = ORIENTED_EDGE ( 'NONE', *, *, #129, .T. ) ;
#225 = DIRECTION ( 'NONE',  ( -1.000000000000000000, 0.0000000000000000000, 0.0000000000000000000 ) ) ;
#226 = LENGTH_MEASURE_WITH_UNIT ( LENGTH_MEASURE( 0.02539999999999999897 ), #100 );
#227 = VECTOR ( 'NONE', #203, 39.37007874015748854 ) ;
#228 = EDGE_CURVE ( 'NONE', #59, #42, #322, .T. ) ;
#229 = FACE_OUTER_BOUND ( 'NONE', #192, .T. ) ;
#230 = EDGE_CURVE ( 'NONE', #266, #123, #113, .T. ) ;
#231 = APPLICATION_CONTEXT ( 'automotive_design' ) ;
#232 = VECTOR ( 'NONE', #37, 39.37007874015748854 ) ;
#233 = DIRECTION ( 'NONE',  ( -0.0000000000000000000, -0.0000000000000000000, -1.000000000000000000 ) ) ;
#234 = DIRECTION ( 'NONE',  ( 0.0000000000000000000, 0.0000000000000000000, -1.000000000000000000 ) ) ;
#235 = EDGE_LOOP ( 'NONE', ( #108, #2, #127, #38, #174 ) ) ;
#236 = FACE_OUTER_BOUND ( 'NONE', #301, .T. ) ;
#237 = VECTOR ( 'NONE', #155, 39.37007874015748143 ) ;
#238 = CIRCLE ( 'NONE', #25, 0.1031099999999991745 ) ;
#239 = CARTESIAN_POINT ( 'NONE',  ( 0.0000000000000000000, 0.0000000000000000000, 0.03937000000000000915 ) ) ;
#240 = CARTESIAN_POINT ( 'NONE',  ( -0.1181100000000000344, 0.0000000000000000000, 2.952755999999999936 ) ) ;
#241 = FACE_OUTER_BOUND ( 'NONE', #197, .T. ) ;
#242 = MANIFOLD_SOLID_BREP ( 'Cut-Revolve3', #271 ) ;
#243 = CIRCLE ( 'NONE', #71, 0.02559049999999992234 ) ;
#244 = FILL_AREA_STYLE_COLOUR ( '', #308 ) ;
#245 = LENGTH_MEASURE_WITH_UNIT ( LENGTH_MEASURE( 0.02539999999999999897 ), #168 );
#246 = ADVANCED_FACE ( 'NONE', ( #295 ), #220, .T. ) ;
#247 = AXIS2_PLACEMENT_3D ( 'NONE', #239, #1, #172 ) ;
#248 = ORIENTED_EDGE ( 'NONE', *, *, #70, .T. ) ;
#249 = LENGTH_MEASURE_WITH_UNIT ( LENGTH_MEASURE( 0.02539999999999999897 ), #303 );
#250 = VECTOR ( 'NONE', #196, 39.37007874015748143 ) ;
#251 =( GEOMETRIC_REPRESENTATION_CONTEXT ( 3 ) GLOBAL_UNCERTAINTY_ASSIGNED_CONTEXT ( ( #300 ) ) GLOBAL_UNIT_ASSIGNED_CONTEXT ( ( #98, #18, #208 ) ) REPRESENTATION_CONTEXT ( 'NONE', 'WORKASPACE' ) );
#252 = FILL_AREA_STYLE_COLOUR ( '', #76 ) ;
#253 = CARTESIAN_POINT ( 'NONE',  ( 0.0000000000000000000, 0.0000000000000000000, 1.784218148936167481 ) ) ;
#254 = DIRECTION ( 'NONE',  ( -0.0000000000000000000, -0.0000000000000000000, -1.000000000000000000 ) ) ;
#255 = CIRCLE ( 'NONE', #93, 0.02559049999999998132 ) ;
#256 = FACE_OUTER_BOUND ( 'NONE', #30, .T. ) ;
#257 = SHAPE_DEFINITION_REPRESENTATION ( #214, #179 ) ;
#258 = CARTESIAN_POINT ( 'NONE',  ( 0.0000000000000000000, 0.0000000000000000000, 1.653542999999999985 ) ) ;
#259 = EDGE_CURVE ( 'NONE', #74, #59, #287, .T. ) ;
#260 = DIRECTION ( 'NONE',  ( 1.000000000000000000, 0.0000000000000000000, 0.0000000000000000000 ) ) ;
#261 = VERTEX_POINT ( 'NONE', #221 ) ;
#262 = CONICAL_SURFACE ( 'NONE', #117, 0.1299209999999997867, 0.09013951093658498226 ) ;
#263 = CARTESIAN_POINT ( 'NONE',  ( 0.0000000000000000000, 0.0000000000000000000, 0.06928860975630385388 ) ) ;
#264 = VERTEX_POINT ( 'NONE', #63 ) ;
#265 = CARTESIAN_POINT ( 'NONE',  ( 0.0000000000000000000, 0.0000000000000000000, 2.937755999999999368 ) ) ;
#266 = VERTEX_POINT ( 'NONE', #166 ) ;
#267 = CARTESIAN_POINT ( 'NONE',  ( 0.0000000000000000000, 0.0000000000000000000, 0.03937000000000000915 ) ) ;
#268 = ORIENTED_EDGE ( 'NONE', *, *, #154, .F. ) ;
#269 = SURFACE_SIDE_STYLE ('',( #173 ) ) ;
#270 = CARTESIAN_POINT ( 'NONE',  ( 0.02559049999999995356, 3.133932391358028623E-18, 0.0000000000000000000 ) ) ;
#271 = CLOSED_SHELL ( 'NONE', ( #121, #170, #32, #283, #176, #95, #68, #190, #185, #246, #84 ) ) ;
#272 = EDGE_CURVE ( 'NONE', #59, #285, #125, .T. ) ;
#273 = CONICAL_SURFACE ( 'NONE', #133, 0.1299209999999997867, 0.09013951093658498226 ) ;
#274 = AXIS2_PLACEMENT_3D ( 'NONE', #7, #4, #35 ) ;
#275 = DIRECTION ( 'NONE',  ( -0.0000000000000000000, -0.0000000000000000000, -1.000000000000000000 ) ) ;
#276 = ORIENTED_EDGE ( 'NONE', *, *, #306, .F. ) ;
#277 = CARTESIAN_POINT ( 'NONE',  ( 0.0000000000000000000, 2.410717224121564242E-18, 1.707404996040164512E-17 ) ) ;
#278 = CARTESIAN_POINT ( 'NONE',  ( 0.0000000000000000000, 0.0000000000000000000, 1.653542999999999985 ) ) ;
#279 = AXIS2_PLACEMENT_3D ( 'NONE', #213, #209, #53 ) ;
#280 = EDGE_LOOP ( 'NONE', ( #52, #19, #189, #34 ) ) ;
#281 = CIRCLE ( 'NONE', #141, 0.03936999999999999528 ) ;
#282 = CARTESIAN_POINT ( 'NONE',  ( 0.0000000000000000000, 0.0000000000000000000, 0.06928860975630385388 ) ) ;
#283 = ADVANCED_FACE ( 'NONE', ( #241 ), #99, .T. ) ;
#284 = DIRECTION ( 'NONE',  ( 0.0000000000000000000, 0.0000000000000000000, 1.000000000000000000 ) ) ;
#285 = VERTEX_POINT ( 'NONE', #147 ) ;
#286 = EDGE_CURVE ( 'NONE', #109, #137, #49, .T. ) ;
#287 = LINE ( 'NONE', #291, #232 ) ;
#288 = AXIS2_PLACEMENT_3D ( 'NONE', #282, #162, #130 ) ;
#289 = EDGE_CURVE ( 'NONE', #261, #74, #238, .T. ) ;
#290 = AXIS2_PLACEMENT_3D ( 'NONE', #158, #215, #317 ) ;
#291 = CARTESIAN_POINT ( 'NONE',  ( 0.1031099999999991745, 1.262733314600825725E-17, 2.952755999999999936 ) ) ;
#292 = DIRECTION ( 'NONE',  ( 1.000000000000000000, 0.0000000000000000000, 0.0000000000000000000 ) ) ;
#293 = DIRECTION ( 'NONE',  ( 1.000000000000000000, 1.224646799147353207E-16, -0.0000000000000000000 ) ) ;
#294 = ORIENTED_EDGE ( 'NONE', *, *, #272, .T. ) ;
#295 = FACE_OUTER_BOUND ( 'NONE', #280, .T. ) ;
#296 = AXIS2_PLACEMENT_3D ( 'NONE', #342, #254, #181 ) ;
#297 = EDGE_CURVE ( 'NONE', #109, #206, #94, .T. ) ;
#298 = CARTESIAN_POINT ( 'NONE',  ( -0.1299209999999997867, 1.591073367920230343E-17, 1.784218148936167481 ) ) ;
#299 = ORIENTED_EDGE ( 'NONE', *, *, #16, .F. ) ;
#300 = UNCERTAINTY_MEASURE_WITH_UNIT (LENGTH_MEASURE( 1.000000000000000082E-05 ), #98, 'distance_accuracy_value', 'NONE');
#301 = EDGE_LOOP ( 'NONE', ( #345, #217 ) ) ;
#302 =( CONVERSION_BASED_UNIT ( 'INCH', #249 ) LENGTH_UNIT ( ) NAMED_UNIT ( #138 ) );
#303 =( LENGTH_UNIT ( ) NAMED_UNIT ( * ) SI_UNIT ( $, .METRE. ) );
#304 = AXIS2_PLACEMENT_3D ( 'NONE', #183, #284, #101 ) ;
#305 = AXIS2_PLACEMENT_3D ( 'NONE', #267, #293, #92 ) ;
#306 = EDGE_CURVE ( 'NONE', #137, #109, #243, .T. ) ;
#307 = CARTESIAN_POINT ( 'NONE',  ( 0.1299209999999997867, 0.0000000000000000000, 1.784218148936167481 ) ) ;
#308 = COLOUR_RGB ( '',0.7921568627450980005, 0.8196078431372548767, 0.9333333333333333481 ) ;
#309 = AXIS2_PLACEMENT_3D ( 'NONE', #50, #233, #314 ) ;
#310 = PRODUCT_DEFINITION_FORMATION_WITH_SPECIFIED_SOURCE ( 'ANY', '', #315, .NOT_KNOWN. ) ;
#311 = PRODUCT_DEFINITION ( 'UNKNOWN', '', #310, #15 ) ;
#312 = CARTESIAN_POINT ( 'NONE',  ( -0.02559049999999998132, 0.0000000000000000000, 0.06928860975630385388 ) ) ;
#313 = PLANE ( 'NONE',  #279 ) ;
#314 = DIRECTION ( 'NONE',  ( -1.000000000000000000, 0.0000000000000000000, 0.0000000000000000000 ) ) ;
#315 = PRODUCT ( 'Micro_SBMM-020-216X', 'Micro_SBMM-020-216X', '', ( #82 ) ) ;
#316 = AXIS2_PLACEMENT_3D ( 'NONE', #79, #275, #78 ) ;
#317 = DIRECTION ( 'NONE',  ( 1.000000000000000000, 0.0000000000000000000, 0.0000000000000000000 ) ) ;
#318 = EDGE_CURVE ( 'NONE', #264, #325, #255, .T. ) ;
#319 = CIRCLE ( 'NONE', #304, 0.1031099999999991745 ) ;
#320 = EDGE_CURVE ( 'NONE', #264, #123, #281, .T. ) ;
#321 = AXIS2_PLACEMENT_3D ( 'NONE', #265, #36, #139 ) ;
#322 = LINE ( 'NONE', #136, #107 ) ;
#323 = DIMENSIONAL_EXPONENTS ( 1.000000000000000000, 0.0000000000000000000, 0.0000000000000000000, 0.0000000000000000000, 0.0000000000000000000, 0.0000000000000000000, 0.0000000000000000000 ) ;
#324 = SURFACE_STYLE_FILL_AREA ( #89 ) ;
#325 = VERTEX_POINT ( 'NONE', #331 ) ;
#326 = DIRECTION ( 'NONE',  ( 0.0000000000000000000, 1.000000000000000000, 0.0000000000000000000 ) ) ;
#327 = LINE ( 'NONE', #270, #333 ) ;
#328 = CARTESIAN_POINT ( 'NONE',  ( 0.0000000000000000000, 0.0000000000000000000, 2.952755999999999936 ) ) ;
#329 = ORIENTED_EDGE ( 'NONE', *, *, #70, .F. ) ;
#330 = UNCERTAINTY_MEASURE_WITH_UNIT (LENGTH_MEASURE( 1.000000000000000082E-05 ), #302, 'distance_accuracy_value', 'NONE');
#331 = CARTESIAN_POINT ( 'NONE',  ( 0.02559049999999998132, 3.133932391358031704E-18, 0.06928860975630385388 ) ) ;
#332 = DIRECTION ( 'NONE',  ( -0.0000000000000000000, -0.0000000000000000000, -1.000000000000000000 ) ) ;
#333 = VECTOR ( 'NONE', #332, 39.37007874015748143 ) ;
#334 =( NAMED_UNIT ( * ) PLANE_ANGLE_UNIT ( ) SI_UNIT ( $, .RADIAN. ) );
#335 = DIRECTION ( 'NONE',  ( 1.000000000000000000, 0.0000000000000000000, 0.0000000000000000000 ) ) ;
#336 = ORIENTED_EDGE ( 'NONE', *, *, #122, .F. ) ;
#337 = APPLICATION_PROTOCOL_DEFINITION ( 'draft international standard', 'automotive_design', 1998, #231 ) ;
#338 = CARTESIAN_POINT ( 'NONE',  ( -0.02559049999999995356, 0.0000000000000000000, 0.0000000000000000000 ) ) ;
#339 = EDGE_CURVE ( 'NONE', #137, #325, #327, .T. ) ;
#340 = CARTESIAN_POINT ( 'NONE',  ( -0.1031099999999991745, 0.0000000000000000000, 2.952755999999999936 ) ) ;
#341 = ORIENTED_EDGE ( 'NONE', *, *, #306, .T. ) ;
#342 = CARTESIAN_POINT ( 'NONE',  ( 0.0000000000000000000, 0.0000000000000000000, 0.0000000000000000000 ) ) ;
#343 = ORIENTED_EDGE ( 'NONE', *, *, #207, .F. ) ;
#344 = AXIS2_PLACEMENT_3D ( 'NONE', #328, #175, #225 ) ;
#345 = ORIENTED_EDGE ( 'NONE', *, *, #289, .T. ) ;
ENDSEC;
END-ISO-10303-21;
