ISO-10303-21;
HEADER;
FILE_DESCRIPTION (( 'STEP AP214' ),
    '1' );
FILE_NAME ('Micro_SD-437.STEP',
    '2021-09-02T13:23:50',
    ( '' ),
    ( '' ),
    'SwSTEP 2.0',
    'SolidWorks 2020',
    '' );
FILE_SCHEMA (( 'AUTOMOTIVE_DESIGN' ));
ENDSEC;

DATA;
#1 = CARTESIAN_POINT ( 'NONE',  ( -0.2037499999999991263, 0.0000000000000000000, 2.500000000000000000 ) ) ;
#2 = DIRECTION ( 'NONE',  ( 0.0000000000000000000, 0.0000000000000000000, -1.000000000000000000 ) ) ;
#3 = AXIS2_PLACEMENT_3D ( 'NONE', #320, #217, #93 ) ;
#4 = DIRECTION ( 'NONE',  ( -1.000000000000000000, 0.0000000000000000000, 0.0000000000000000000 ) ) ;
#5 = DIRECTION ( 'NONE',  ( -1.000000000000000000, 0.0000000000000000000, 0.0000000000000000000 ) ) ;
#6 = ORIENTED_EDGE ( 'NONE', *, *, #285, .F. ) ;
#7 = ORIENTED_EDGE ( 'NONE', *, *, #238, .F. ) ;
#8 = DIRECTION ( 'NONE',  ( -1.000000000000000000, 0.0000000000000000000, 0.0000000000000000000 ) ) ;
#9 = EDGE_LOOP ( 'NONE', ( #284, #140, #279, #115 ) ) ;
#10 =( NAMED_UNIT ( * ) PLANE_ANGLE_UNIT ( ) SI_UNIT ( $, .RADIAN. ) );
#11 = ORIENTED_EDGE ( 'NONE', *, *, #249, .F. ) ;
#12 = DIMENSIONAL_EXPONENTS ( 1.000000000000000000, 0.0000000000000000000, 0.0000000000000000000, 0.0000000000000000000, 0.0000000000000000000, 0.0000000000000000000, 0.0000000000000000000 ) ;
#13 =( LENGTH_UNIT ( ) NAMED_UNIT ( * ) SI_UNIT ( $, .METRE. ) );
#14 = EDGE_CURVE ( 'NONE', #80, #185, #133, .T. ) ;
#15 = ORIENTED_EDGE ( 'NONE', *, *, #121, .T. ) ;
#16 = DIRECTION ( 'NONE',  ( 1.000000000000000000, 0.0000000000000000000, 0.0000000000000000000 ) ) ;
#17 = DIMENSIONAL_EXPONENTS ( 1.000000000000000000, 0.0000000000000000000, 0.0000000000000000000, 0.0000000000000000000, 0.0000000000000000000, 0.0000000000000000000, 0.0000000000000000000 ) ;
#18 = EDGE_CURVE ( 'NONE', #204, #42, #229, .T. ) ;
#19 = VECTOR ( 'NONE', #242, 39.37007874015748143 ) ;
#20 = CARTESIAN_POINT ( 'NONE',  ( 0.0000000000000000000, 0.0000000000000000000, 1.129999999999999893 ) ) ;
#21 = DIRECTION ( 'NONE',  ( 0.0000000000000000000, 0.0000000000000000000, 1.000000000000000000 ) ) ;
#22 = CARTESIAN_POINT ( 'NONE',  ( -0.2187000000000000888, 0.0000000000000000000, 0.0000000000000000000 ) ) ;
#23 = AXIS2_PLACEMENT_3D ( 'NONE', #144, #318, #114 ) ;
#24 = DIRECTION ( 'NONE',  ( 0.7071067811865621167, 8.659560562355110352E-17, -0.7071067811865330288 ) ) ;
#25 = AXIS2_PLACEMENT_3D ( 'NONE', #20, #199, #5 ) ;
#26 =( GEOMETRIC_REPRESENTATION_CONTEXT ( 3 ) GLOBAL_UNCERTAINTY_ASSIGNED_CONTEXT ( ( #149 ) ) GLOBAL_UNIT_ASSIGNED_CONTEXT ( ( #317, #10, #282 ) ) REPRESENTATION_CONTEXT ( 'NONE', 'WORKASPACE' ) );
#27 = DIRECTION ( 'NONE',  ( 1.000000000000000000, 0.0000000000000000000, 0.0000000000000000000 ) ) ;
#28 = PRODUCT_RELATED_PRODUCT_CATEGORY ( 'part', '', ( #278 ) ) ;
#29 = ORIENTED_EDGE ( 'NONE', *, *, #238, .T. ) ;
#30 = DIRECTION ( 'NONE',  ( -1.000000000000000000, 0.0000000000000000000, 0.0000000000000000000 ) ) ;
#31 = VECTOR ( 'NONE', #117, 39.37007874015748143 ) ;
#32 = VERTEX_POINT ( 'NONE', #241 ) ;
#33 = CARTESIAN_POINT ( 'NONE',  ( 0.0000000000000000000, 0.0000000000000000000, 2.484999999999999876 ) ) ;
#34 = AXIS2_PLACEMENT_3D ( 'NONE', #252, #108, #30 ) ;
#35 = PRESENTATION_LAYER_ASSIGNMENT (  '', '', ( #291 ) ) ;
#36 = EDGE_CURVE ( 'NONE', #157, #111, #292, .T. ) ;
#37 = CARTESIAN_POINT ( 'NONE',  ( 0.2187000000000000888, 2.678302549735262498E-17, 0.0000000000000000000 ) ) ;
#38 = CYLINDRICAL_SURFACE ( 'NONE', #240, 0.2187000000000000888 ) ;
#39 = ORIENTED_EDGE ( 'NONE', *, *, #68, .F. ) ;
#40 = CARTESIAN_POINT ( 'NONE',  ( 0.0000000000000000000, 0.0000000000000000000, 0.0000000000000000000 ) ) ;
#41 = ADVANCED_FACE ( 'NONE', ( #321 ), #173, .T. ) ;
#42 = VERTEX_POINT ( 'NONE', #194 ) ;
#43 = CIRCLE ( 'NONE', #255, 0.2187500000000000000 ) ;
#44 = AXIS2_PLACEMENT_3D ( 'NONE', #197, #267, #195 ) ;
#45 = FACE_OUTER_BOUND ( 'NONE', #211, .T. ) ;
#46 = CIRCLE ( 'NONE', #25, 0.2187000000000001443 ) ;
#47 = ADVANCED_FACE ( 'NONE', ( #266 ), #311, .T. ) ;
#48 = EDGE_CURVE ( 'NONE', #80, #204, #46, .T. ) ;
#49 = UNCERTAINTY_MEASURE_WITH_UNIT (LENGTH_MEASURE( 1.000000000000000082E-05 ), #164, 'distance_accuracy_value', 'NONE');
#50 = PLANE ( 'NONE',  #283 ) ;
#51 =( LENGTH_UNIT ( ) NAMED_UNIT ( * ) SI_UNIT ( $, .METRE. ) );
#52 = CARTESIAN_POINT ( 'NONE',  ( 0.2037499999999991263, 2.495217853262720780E-17, 2.500000000000000000 ) ) ;
#53 = FILL_AREA_STYLE ('',( #134 ) ) ;
#54 = AXIS2_PLACEMENT_3D ( 'NONE', #272, #2, #98 ) ;
#55 = LINE ( 'NONE', #184, #120 ) ;
#56 = ORIENTED_EDGE ( 'NONE', *, *, #162, .F. ) ;
#57 = FACE_OUTER_BOUND ( 'NONE', #256, .T. ) ;
#58 = ORIENTED_EDGE ( 'NONE', *, *, #262, .F. ) ;
#59 = LINE ( 'NONE', #156, #268 ) ;
#60 = DIRECTION ( 'NONE',  ( -0.7071067811865480168, 8.659560562354939021E-17, 0.7071067811865469066 ) ) ;
#61 = STYLED_ITEM ( 'NONE', ( #79 ), #265 ) ;
#62 = EDGE_LOOP ( 'NONE', ( #29, #78 ) ) ;
#63 = EDGE_LOOP ( 'NONE', ( #135, #231, #269 ) ) ;
#64 = LENGTH_MEASURE_WITH_UNIT ( LENGTH_MEASURE( 0.02539999999999999897 ), #165 );
#65 = EDGE_CURVE ( 'NONE', #32, #128, #102, .T. ) ;
#66 = CARTESIAN_POINT ( 'NONE',  ( 0.0000000000000000000, 0.0000000000000000000, 39.37007874015748143 ) ) ;
#67 = ADVANCED_FACE ( 'NONE', ( #294 ), #100, .T. ) ;
#68 = EDGE_CURVE ( 'NONE', #225, #137, #203, .T. ) ;
#69 =( NAMED_UNIT ( * ) SI_UNIT ( $, .STERADIAN. ) SOLID_ANGLE_UNIT ( ) );
#70 = CONICAL_SURFACE ( 'NONE', #221, 65.52281426576885792, 1.029744258676657420 ) ;
#71 = CONICAL_SURFACE ( 'NONE', #216, 65.52281426576885792, 1.029744258676657420 ) ;
#72 = CARTESIAN_POINT ( 'NONE',  ( -0.2187000000000001443, 2.678608711435049243E-17, 1.129999999999999893 ) ) ;
#73 = CARTESIAN_POINT ( 'NONE',  ( -0.2187500000000000000, 0.0000000000000000000, 1.130049999999999555 ) ) ;
#74 = PRODUCT_DEFINITION_CONTEXT ( 'detailed design', #91, 'design' ) ;
#75 = DIRECTION ( 'NONE',  ( 0.0000000000000000000, 0.0000000000000000000, -1.000000000000000000 ) ) ;
#76 = CARTESIAN_POINT ( 'NONE',  ( -0.2037499999999991263, 0.0000000000000000000, 2.500000000000000000 ) ) ;
#77 = DIRECTION ( 'NONE',  ( 0.0000000000000000000, 0.0000000000000000000, -1.000000000000000000 ) ) ;
#78 = ORIENTED_EDGE ( 'NONE', *, *, #162, .T. ) ;
#79 = PRESENTATION_STYLE_ASSIGNMENT (( #177 ) ) ;
#80 = VERTEX_POINT ( 'NONE', #72 ) ;
#81 = DIRECTION ( 'NONE',  ( 1.000000000000000000, 0.0000000000000000000, 0.0000000000000000000 ) ) ;
#82 = EDGE_CURVE ( 'NONE', #32, #42, #126, .T. ) ;
#83 = ORIENTED_EDGE ( 'NONE', *, *, #48, .T. ) ;
#84 = DIRECTION ( 'NONE',  ( -0.0000000000000000000, -0.0000000000000000000, -1.000000000000000000 ) ) ;
#85 = ORIENTED_EDGE ( 'NONE', *, *, #105, .T. ) ;
#86 = SURFACE_STYLE_USAGE ( .BOTH. , #310 ) ;
#87 = AXIS2_PLACEMENT_3D ( 'NONE', #33, #77, #27 ) ;
#88 = VECTOR ( 'NONE', #257, 39.37007874015748143 ) ;
#89 = EDGE_LOOP ( 'NONE', ( #39, #7, #163, #303 ) ) ;
#90 = FILL_AREA_STYLE ('',( #113 ) ) ;
#91 = APPLICATION_CONTEXT ( 'automotive_design' ) ;
#92 = ADVANCED_FACE ( 'NONE', ( #246 ), #123, .T. ) ;
#93 = DIRECTION ( 'NONE',  ( -1.000000000000000000, 0.0000000000000000000, 0.0000000000000000000 ) ) ;
#94 = EDGE_CURVE ( 'NONE', #137, #111, #192, .T. ) ;
#95 = VECTOR ( 'NONE', #170, 39.37007874015747433 ) ;
#96 = ADVANCED_FACE ( 'NONE', ( #270 ), #50, .T. ) ;
#97 = ORIENTED_EDGE ( 'NONE', *, *, #105, .F. ) ;
#98 = DIRECTION ( 'NONE',  ( 1.000000000000000000, 0.0000000000000000000, 0.0000000000000000000 ) ) ;
#99 = SURFACE_STYLE_FILL_AREA ( #53 ) ;
#100 = CONICAL_SURFACE ( 'NONE', #206, 0.2037499999999991263, 0.7853981633974688181 ) ;
#101 = AXIS2_PLACEMENT_3D ( 'NONE', #287, #233, #232 ) ;
#102 = LINE ( 'NONE', #150, #19 ) ;
#103 =( NAMED_UNIT ( * ) PLANE_ANGLE_UNIT ( ) SI_UNIT ( $, .RADIAN. ) );
#104 = DIRECTION ( 'NONE',  ( -1.000000000000000000, 0.0000000000000000000, 0.0000000000000000000 ) ) ;
#105 = EDGE_CURVE ( 'NONE', #128, #42, #218, .T. ) ;
#106 =( NAMED_UNIT ( * ) SI_UNIT ( $, .STERADIAN. ) SOLID_ANGLE_UNIT ( ) );
#107 = EDGE_LOOP ( 'NONE', ( #189, #258, #190, #109 ) ) ;
#108 = DIRECTION ( 'NONE',  ( -0.0000000000000000000, -0.0000000000000000000, -1.000000000000000000 ) ) ;
#109 = ORIENTED_EDGE ( 'NONE', *, *, #235, .F. ) ;
#110 = CARTESIAN_POINT ( 'NONE',  ( 0.0000000000000000000, 0.0000000000000000000, 1.130049999999999555 ) ) ;
#111 = VERTEX_POINT ( 'NONE', #178 ) ;
#112 = ORIENTED_EDGE ( 'NONE', *, *, #176, .F. ) ;
#113 = FILL_AREA_STYLE_COLOUR ( '', #319 ) ;
#114 = DIRECTION ( 'NONE',  ( 1.000000000000000000, 0.0000000000000000000, 0.0000000000000000000 ) ) ;
#115 = ORIENTED_EDGE ( 'NONE', *, *, #235, .T. ) ;
#116 = CIRCLE ( 'NONE', #193, 0.2187500000000000000 ) ;
#117 = DIRECTION ( 'NONE',  ( -0.0000000000000000000, -0.0000000000000000000, -1.000000000000000000 ) ) ;
#118 = PRESENTATION_STYLE_ASSIGNMENT (( #86 ) ) ;
#119 = DIRECTION ( 'NONE',  ( -0.0000000000000000000, -0.0000000000000000000, -1.000000000000000000 ) ) ;
#120 = VECTOR ( 'NONE', #208, 39.37007874015748854 ) ;
#121 = EDGE_CURVE ( 'NONE', #137, #227, #59, .T. ) ;
#122 = APPLICATION_PROTOCOL_DEFINITION ( 'draft international standard', 'automotive_design', 1998, #91 ) ;
#123 = CYLINDRICAL_SURFACE ( 'NONE', #290, 0.2187500000000000000 ) ;
#124 = CARTESIAN_POINT ( 'NONE',  ( 0.0000000000000000000, 0.0000000000000000000, 0.1314082173813266030 ) ) ;
#125 = DIRECTION ( 'NONE',  ( 0.0000000000000000000, 0.0000000000000000000, 1.000000000000000000 ) ) ;
#126 = LINE ( 'NONE', #202, #196 ) ;
#127 = CARTESIAN_POINT ( 'NONE',  ( 0.2187500000000000000, 2.678914873134835064E-17, 1.130049999999999555 ) ) ;
#128 = VERTEX_POINT ( 'NONE', #180 ) ;
#129 = DIRECTION ( 'NONE',  ( -0.0000000000000000000, -0.0000000000000000000, -1.000000000000000000 ) ) ;
#130 = ADVANCED_FACE ( 'NONE', ( #57 ), #274, .T. ) ;
#131 = VECTOR ( 'NONE', #60, 39.37007874015748854 ) ;
#132 = CIRCLE ( 'NONE', #171, 0.2187000000000001443 ) ;
#133 = LINE ( 'NONE', #307, #131 ) ;
#134 = FILL_AREA_STYLE_COLOUR ( '', #166 ) ;
#135 = ORIENTED_EDGE ( 'NONE', *, *, #65, .F. ) ;
#136 = DIMENSIONAL_EXPONENTS ( 1.000000000000000000, 0.0000000000000000000, 0.0000000000000000000, 0.0000000000000000000, 0.0000000000000000000, 0.0000000000000000000, 0.0000000000000000000 ) ;
#137 = VERTEX_POINT ( 'NONE', #275 ) ;
#138 = DIRECTION ( 'NONE',  ( -1.000000000000000000, 0.0000000000000000000, 0.0000000000000000000 ) ) ;
#139 = PRODUCT_DEFINITION ( 'UNKNOWN', '', #297, #74 ) ;
#140 = ORIENTED_EDGE ( 'NONE', *, *, #145, .F. ) ;
#141 = CIRCLE ( 'NONE', #322, 0.2187000000000000055 ) ;
#142 = CARTESIAN_POINT ( 'NONE',  ( 0.0000000000000000000, 0.0000000000000000000, 2.500000000000000000 ) ) ;
#143 = PRESENTATION_LAYER_ASSIGNMENT (  '', '', ( #61 ) ) ;
#144 = CARTESIAN_POINT ( 'NONE',  ( 0.0000000000000000000, 0.0000000000000000000, 1.129999999999999893 ) ) ;
#145 = EDGE_CURVE ( 'NONE', #204, #80, #132, .T. ) ;
#146 = DIRECTION ( 'NONE',  ( 0.8571673007021137769, 0.0000000000000000000, 0.5150380749100517130 ) ) ;
#147 = CARTESIAN_POINT ( 'NONE',  ( 0.0000000000000000000, 0.0000000000000000000, 2.500000000000000000 ) ) ;
#148 = DIRECTION ( 'NONE',  ( -0.0000000000000000000, -0.0000000000000000000, -1.000000000000000000 ) ) ;
#149 = UNCERTAINTY_MEASURE_WITH_UNIT (LENGTH_MEASURE( 1.000000000000000082E-05 ), #317, 'distance_accuracy_value', 'NONE');
#150 = CARTESIAN_POINT ( 'NONE',  ( 0.0000000000000000000, 0.0000000000000000000, 0.0000000000000000000 ) ) ;
#151 = DIRECTION ( 'NONE',  ( -0.0000000000000000000, -0.0000000000000000000, -1.000000000000000000 ) ) ;
#152 = VECTOR ( 'NONE', #24, 39.37007874015747433 ) ;
#153 = MECHANICAL_DESIGN_GEOMETRIC_PRESENTATION_REPRESENTATION (  '', ( #291 ), #172 ) ;
#154 = DIRECTION ( 'NONE',  ( -0.0000000000000000000, -0.0000000000000000000, -1.000000000000000000 ) ) ;
#155 = EDGE_LOOP ( 'NONE', ( #286, #277, #213, #58 ) ) ;
#156 = CARTESIAN_POINT ( 'NONE',  ( 0.2187500000000000000, 2.678914873134835064E-17, 2.500000000000000000 ) ) ;
#157 = VERTEX_POINT ( 'NONE', #76 ) ;
#158 = DIRECTION ( 'NONE',  ( 1.000000000000000000, 0.0000000000000000000, 0.0000000000000000000 ) ) ;
#159 = ORIENTED_EDGE ( 'NONE', *, *, #316, .F. ) ;
#160 = APPLICATION_PROTOCOL_DEFINITION ( 'draft international standard', 'automotive_design', 1998, #239 ) ;
#161 = ORIENTED_EDGE ( 'NONE', *, *, #145, .T. ) ;
#162 = EDGE_CURVE ( 'NONE', #225, #157, #215, .T. ) ;
#163 = ORIENTED_EDGE ( 'NONE', *, *, #36, .T. ) ;
#164 =( CONVERSION_BASED_UNIT ( 'INCH', #64 ) LENGTH_UNIT ( ) NAMED_UNIT ( #136 ) );
#165 =( LENGTH_UNIT ( ) NAMED_UNIT ( * ) SI_UNIT ( $, .METRE. ) );
#166 = COLOUR_RGB ( '',0.7921568627450980005, 0.8196078431372548767, 0.9333333333333333481 ) ;
#167 = ADVANCED_FACE ( 'NONE', ( #301 ), #70, .T. ) ;
#168 = DIRECTION ( 'NONE',  ( 0.0000000000000000000, 0.0000000000000000000, 1.000000000000000000 ) ) ;
#169 = EDGE_CURVE ( 'NONE', #42, #128, #141, .T. ) ;
#170 = DIRECTION ( 'NONE',  ( -0.7071067811865621167, 0.0000000000000000000, -0.7071067811865330288 ) ) ;
#171 = AXIS2_PLACEMENT_3D ( 'NONE', #226, #129, #8 ) ;
#172 =( GEOMETRIC_REPRESENTATION_CONTEXT ( 3 ) GLOBAL_UNCERTAINTY_ASSIGNED_CONTEXT ( ( #49 ) ) GLOBAL_UNIT_ASSIGNED_CONTEXT ( ( #164, #191, #69 ) ) REPRESENTATION_CONTEXT ( 'NONE', 'WORKASPACE' ) );
#173 = CYLINDRICAL_SURFACE ( 'NONE', #3, 0.2187500000000000000 ) ;
#174 = UNCERTAINTY_MEASURE_WITH_UNIT (LENGTH_MEASURE( 1.000000000000000082E-05 ), #223, 'distance_accuracy_value', 'NONE');
#175 = CARTESIAN_POINT ( 'NONE',  ( 0.0000000000000000000, 0.0000000000000000000, 2.500000000000000000 ) ) ;
#176 = EDGE_CURVE ( 'NONE', #111, #137, #261, .T. ) ;
#177 = SURFACE_STYLE_USAGE ( .BOTH. , #298 ) ;
#178 = CARTESIAN_POINT ( 'NONE',  ( -0.2187500000000000000, 0.0000000000000000000, 2.484999999999999876 ) ) ;
#179 = CARTESIAN_POINT ( 'NONE',  ( 0.0000000000000000000, 0.0000000000000000000, 0.1314082173813266030 ) ) ;
#180 = CARTESIAN_POINT ( 'NONE',  ( -0.2187000000000000055, 0.0000000000000000000, 0.1314082173813266030 ) ) ;
#181 = ORIENTED_EDGE ( 'NONE', *, *, #18, .F. ) ;
#182 = CARTESIAN_POINT ( 'NONE',  ( 0.2187000000000001443, 0.0000000000000000000, 1.129999999999999893 ) ) ;
#183 = EDGE_LOOP ( 'NONE', ( #251, #15, #159, #6 ) ) ;
#184 = CARTESIAN_POINT ( 'NONE',  ( 0.2187000000000001443, 0.0000000000000000000, 1.129999999999999893 ) ) ;
#185 = VERTEX_POINT ( 'NONE', #73 ) ;
#186 = LENGTH_MEASURE_WITH_UNIT ( LENGTH_MEASURE( 0.02539999999999999897 ), #13 );
#187 = CLOSED_SHELL ( 'NONE', ( #167, #295, #47, #302, #41, #92, #96, #67, #323, #130, #309 ) ) ;
#188 = VECTOR ( 'NONE', #148, 39.37007874015748143 ) ;
#189 = ORIENTED_EDGE ( 'NONE', *, *, #121, .F. ) ;
#190 = ORIENTED_EDGE ( 'NONE', *, *, #285, .T. ) ;
#191 =( NAMED_UNIT ( * ) PLANE_ANGLE_UNIT ( ) SI_UNIT ( $, .RADIAN. ) );
#192 = CIRCLE ( 'NONE', #54, 0.2187500000000000000 ) ;
#193 = AXIS2_PLACEMENT_3D ( 'NONE', #288, #119, #16 ) ;
#194 = CARTESIAN_POINT ( 'NONE',  ( 0.2187000000000000055, 2.678302549735262190E-17, 0.1314082173813266030 ) ) ;
#195 = DIRECTION ( 'NONE',  ( 1.000000000000000000, 0.0000000000000000000, 0.0000000000000000000 ) ) ;
#196 = VECTOR ( 'NONE', #146, 39.37007874015748143 ) ;
#197 = CARTESIAN_POINT ( 'NONE',  ( 0.0000000000000000000, 0.0000000000000000000, 0.0000000000000000000 ) ) ;
#198 = ORIENTED_EDGE ( 'NONE', *, *, #169, .F. ) ;
#199 = DIRECTION ( 'NONE',  ( -0.0000000000000000000, -0.0000000000000000000, -1.000000000000000000 ) ) ;
#200 = CARTESIAN_POINT ( 'NONE',  ( 0.0000000000000000000, 0.0000000000000000000, 2.500000000000000000 ) ) ;
#201 = AXIS2_PLACEMENT_3D ( 'NONE', #271, #205, #228 ) ;
#202 = CARTESIAN_POINT ( 'NONE',  ( 0.0000000000000000000, 0.0000000000000000000, 0.0000000000000000000 ) ) ;
#203 = LINE ( 'NONE', #52, #152 ) ;
#204 = VERTEX_POINT ( 'NONE', #182 ) ;
#205 = DIRECTION ( 'NONE',  ( 0.0000000000000000000, 0.0000000000000000000, 1.000000000000000000 ) ) ;
#206 = AXIS2_PLACEMENT_3D ( 'NONE', #299, #75, #104 ) ;
#207 = ORIENTED_EDGE ( 'NONE', *, *, #82, .F. ) ;
#208 = DIRECTION ( 'NONE',  ( 0.7071067811865480168, 0.0000000000000000000, 0.7071067811865469066 ) ) ;
#209 = EDGE_LOOP ( 'NONE', ( #207, #308, #85 ) ) ;
#210 = DIRECTION ( 'NONE',  ( 0.0000000000000000000, 0.0000000000000000000, -1.000000000000000000 ) ) ;
#211 = EDGE_LOOP ( 'NONE', ( #83, #314, #97, #11 ) ) ;
#212 = SURFACE_STYLE_FILL_AREA ( #90 ) ;
#213 = ORIENTED_EDGE ( 'NONE', *, *, #316, .T. ) ;
#214 = CARTESIAN_POINT ( 'NONE',  ( -0.2187500000000000000, 0.0000000000000000000, 2.500000000000000000 ) ) ;
#215 = CIRCLE ( 'NONE', #296, 0.2037499999999991263 ) ;
#216 = AXIS2_PLACEMENT_3D ( 'NONE', #66, #168, #315 ) ;
#217 = DIRECTION ( 'NONE',  ( -0.0000000000000000000, -0.0000000000000000000, -1.000000000000000000 ) ) ;
#218 = CIRCLE ( 'NONE', #276, 0.2187000000000000055 ) ;
#219 = DIRECTION ( 'NONE',  ( -1.000000000000000000, 0.0000000000000000000, 0.0000000000000000000 ) ) ;
#220 = DIRECTION ( 'NONE',  ( -0.0000000000000000000, -0.0000000000000000000, -1.000000000000000000 ) ) ;
#221 = AXIS2_PLACEMENT_3D ( 'NONE', #254, #125, #250 ) ;
#222 = DIRECTION ( 'NONE',  ( 1.000000000000000000, 0.0000000000000000000, -0.0000000000000000000 ) ) ;
#223 =( CONVERSION_BASED_UNIT ( 'INCH', #245 ) LENGTH_UNIT ( ) NAMED_UNIT ( #17 ) );
#224 = LINE ( 'NONE', #214, #88 ) ;
#225 = VERTEX_POINT ( 'NONE', #247 ) ;
#226 = CARTESIAN_POINT ( 'NONE',  ( 0.0000000000000000000, 0.0000000000000000000, 1.129999999999999893 ) ) ;
#227 = VERTEX_POINT ( 'NONE', #127 ) ;
#228 = DIRECTION ( 'NONE',  ( 1.000000000000000000, 0.0000000000000000000, 0.0000000000000000000 ) ) ;
#229 = LINE ( 'NONE', #37, #31 ) ;
#230 = FACE_OUTER_BOUND ( 'NONE', #273, .T. ) ;
#231 = ORIENTED_EDGE ( 'NONE', *, *, #82, .T. ) ;
#232 = DIRECTION ( 'NONE',  ( 1.000000000000000000, 0.0000000000000000000, 0.0000000000000000000 ) ) ;
#233 = DIRECTION ( 'NONE',  ( 0.0000000000000000000, 0.0000000000000000000, 1.000000000000000000 ) ) ;
#234 = FACE_OUTER_BOUND ( 'NONE', #63, .T. ) ;
#235 = EDGE_CURVE ( 'NONE', #227, #185, #43, .T. ) ;
#236 =( GEOMETRIC_REPRESENTATION_CONTEXT ( 3 ) GLOBAL_UNCERTAINTY_ASSIGNED_CONTEXT ( ( #174 ) ) GLOBAL_UNIT_ASSIGNED_CONTEXT ( ( #223, #103, #106 ) ) REPRESENTATION_CONTEXT ( 'NONE', 'WORKASPACE' ) );
#237 = CONICAL_SURFACE ( 'NONE', #101, 0.2187000000000001443, 0.7853981633974490562 ) ;
#238 = EDGE_CURVE ( 'NONE', #157, #225, #312, .T. ) ;
#239 = APPLICATION_CONTEXT ( 'automotive_design' ) ;
#240 = AXIS2_PLACEMENT_3D ( 'NONE', #40, #84, #260 ) ;
#241 = CARTESIAN_POINT ( 'NONE',  ( 0.0000000000000000000, 0.0000000000000000000, 0.0000000000000000000 ) ) ;
#242 = DIRECTION ( 'NONE',  ( -0.8571673007021137769, 1.049727191138620545E-16, 0.5150380749100517130 ) ) ;
#243 = PRODUCT_DEFINITION_SHAPE ( 'NONE', 'NONE',  #139 ) ;
#244 = DIRECTION ( 'NONE',  ( -0.0000000000000000000, -0.0000000000000000000, -1.000000000000000000 ) ) ;
#245 = LENGTH_MEASURE_WITH_UNIT ( LENGTH_MEASURE( 0.02539999999999999897 ), #51 );
#246 = FACE_OUTER_BOUND ( 'NONE', #107, .T. ) ;
#247 = CARTESIAN_POINT ( 'NONE',  ( 0.2037499999999991263, 2.587066363198777614E-17, 2.500000000000000000 ) ) ;
#248 = ADVANCED_BREP_SHAPE_REPRESENTATION ( 'Micro_SD-437', ( #265, #44 ), #26 ) ;
#249 = EDGE_CURVE ( 'NONE', #80, #128, #300, .T. ) ;
#250 = DIRECTION ( 'NONE',  ( 1.000000000000000000, 0.0000000000000000000, 0.0000000000000000000 ) ) ;
#251 = ORIENTED_EDGE ( 'NONE', *, *, #176, .T. ) ;
#252 = CARTESIAN_POINT ( 'NONE',  ( 0.0000000000000000000, 0.0000000000000000000, 0.0000000000000000000 ) ) ;
#253 = ORIENTED_EDGE ( 'NONE', *, *, #249, .T. ) ;
#254 = CARTESIAN_POINT ( 'NONE',  ( 0.0000000000000000000, 0.0000000000000000000, 39.37007874015748143 ) ) ;
#255 = AXIS2_PLACEMENT_3D ( 'NONE', #110, #306, #81 ) ;
#256 = EDGE_LOOP ( 'NONE', ( #181, #161, #253, #198 ) ) ;
#257 = DIRECTION ( 'NONE',  ( -0.0000000000000000000, -0.0000000000000000000, -1.000000000000000000 ) ) ;
#258 = ORIENTED_EDGE ( 'NONE', *, *, #94, .T. ) ;
#259 = ORIENTED_EDGE ( 'NONE', *, *, #36, .F. ) ;
#260 = DIRECTION ( 'NONE',  ( -1.000000000000000000, 0.0000000000000000000, 0.0000000000000000000 ) ) ;
#261 = CIRCLE ( 'NONE', #87, 0.2187500000000000000 ) ;
#262 = EDGE_CURVE ( 'NONE', #204, #227, #55, .T. ) ;
#263 = CONICAL_SURFACE ( 'NONE', #313, 0.2037499999999991263, 0.7853981633974688181 ) ;
#264 = FACE_OUTER_BOUND ( 'NONE', #9, .T. ) ;
#265 = MANIFOLD_SOLID_BREP ( 'Cut-Revolve2', #187 ) ;
#266 = FACE_OUTER_BOUND ( 'NONE', #155, .T. ) ;
#267 = DIRECTION ( 'NONE',  ( 0.0000000000000000000, 0.0000000000000000000, 1.000000000000000000 ) ) ;
#268 = VECTOR ( 'NONE', #151, 39.37007874015748143 ) ;
#269 = ORIENTED_EDGE ( 'NONE', *, *, #169, .T. ) ;
#270 = FACE_OUTER_BOUND ( 'NONE', #62, .T. ) ;
#271 = CARTESIAN_POINT ( 'NONE',  ( 0.0000000000000000000, 0.0000000000000000000, 2.500000000000000000 ) ) ;
#272 = CARTESIAN_POINT ( 'NONE',  ( 0.0000000000000000000, 0.0000000000000000000, 2.484999999999999876 ) ) ;
#273 = EDGE_LOOP ( 'NONE', ( #56, #281, #112, #259 ) ) ;
#274 = CYLINDRICAL_SURFACE ( 'NONE', #34, 0.2187000000000000888 ) ;
#275 = CARTESIAN_POINT ( 'NONE',  ( 0.2187500000000000000, 2.678914873134835064E-17, 2.484999999999999876 ) ) ;
#276 = AXIS2_PLACEMENT_3D ( 'NONE', #124, #220, #4 ) ;
#277 = ORIENTED_EDGE ( 'NONE', *, *, #14, .T. ) ;
#278 = PRODUCT ( 'Micro_SD-437', 'Micro_SD-437', '', ( #293 ) ) ;
#279 = ORIENTED_EDGE ( 'NONE', *, *, #262, .T. ) ;
#280 = DIRECTION ( 'NONE',  ( 0.0000000000000000000, 0.0000000000000000000, 1.000000000000000000 ) ) ;
#281 = ORIENTED_EDGE ( 'NONE', *, *, #68, .T. ) ;
#282 =( NAMED_UNIT ( * ) SI_UNIT ( $, .STERADIAN. ) SOLID_ANGLE_UNIT ( ) );
#283 = AXIS2_PLACEMENT_3D ( 'NONE', #147, #21, #222 ) ;
#284 = ORIENTED_EDGE ( 'NONE', *, *, #14, .F. ) ;
#285 = EDGE_CURVE ( 'NONE', #111, #185, #224, .T. ) ;
#286 = ORIENTED_EDGE ( 'NONE', *, *, #48, .F. ) ;
#287 = CARTESIAN_POINT ( 'NONE',  ( 0.0000000000000000000, 0.0000000000000000000, 1.129999999999999893 ) ) ;
#288 = CARTESIAN_POINT ( 'NONE',  ( 0.0000000000000000000, 0.0000000000000000000, 1.130049999999999555 ) ) ;
#289 = SHAPE_DEFINITION_REPRESENTATION ( #243, #248 ) ;
#290 = AXIS2_PLACEMENT_3D ( 'NONE', #175, #244, #219 ) ;
#291 = STYLED_ITEM ( 'NONE', ( #118 ), #248 ) ;
#292 = LINE ( 'NONE', #1, #95 ) ;
#293 = PRODUCT_CONTEXT ( 'NONE', #239, 'mechanical' ) ;
#294 = FACE_OUTER_BOUND ( 'NONE', #89, .T. ) ;
#295 = ADVANCED_FACE ( 'NONE', ( #45 ), #38, .T. ) ;
#296 = AXIS2_PLACEMENT_3D ( 'NONE', #200, #280, #158 ) ;
#297 = PRODUCT_DEFINITION_FORMATION_WITH_SPECIFIED_SOURCE ( 'ANY', '', #278, .NOT_KNOWN. ) ;
#298 = SURFACE_SIDE_STYLE ('',( #99 ) ) ;
#299 = CARTESIAN_POINT ( 'NONE',  ( 0.0000000000000000000, 0.0000000000000000000, 2.500000000000000000 ) ) ;
#300 = LINE ( 'NONE', #22, #188 ) ;
#301 = FACE_OUTER_BOUND ( 'NONE', #209, .T. ) ;
#302 = ADVANCED_FACE ( 'NONE', ( #230 ), #263, .T. ) ;
#303 = ORIENTED_EDGE ( 'NONE', *, *, #94, .F. ) ;
#304 = DIRECTION ( 'NONE',  ( -1.000000000000000000, 0.0000000000000000000, 0.0000000000000000000 ) ) ;
#305 = MECHANICAL_DESIGN_GEOMETRIC_PRESENTATION_REPRESENTATION (  '', ( #61 ), #236 ) ;
#306 = DIRECTION ( 'NONE',  ( -0.0000000000000000000, -0.0000000000000000000, -1.000000000000000000 ) ) ;
#307 = CARTESIAN_POINT ( 'NONE',  ( -0.2187000000000001443, 2.678302549735263422E-17, 1.129999999999999893 ) ) ;
#308 = ORIENTED_EDGE ( 'NONE', *, *, #65, .T. ) ;
#309 = ADVANCED_FACE ( 'NONE', ( #234 ), #71, .T. ) ;
#310 = SURFACE_SIDE_STYLE ('',( #212 ) ) ;
#311 = CONICAL_SURFACE ( 'NONE', #23, 0.2187000000000001443, 0.7853981633974490562 ) ;
#312 = CIRCLE ( 'NONE', #201, 0.2037499999999991263 ) ;
#313 = AXIS2_PLACEMENT_3D ( 'NONE', #142, #210, #138 ) ;
#314 = ORIENTED_EDGE ( 'NONE', *, *, #18, .T. ) ;
#315 = DIRECTION ( 'NONE',  ( 1.000000000000000000, 0.0000000000000000000, 0.0000000000000000000 ) ) ;
#316 = EDGE_CURVE ( 'NONE', #185, #227, #116, .T. ) ;
#317 =( CONVERSION_BASED_UNIT ( 'INCH', #186 ) LENGTH_UNIT ( ) NAMED_UNIT ( #12 ) );
#318 = DIRECTION ( 'NONE',  ( 0.0000000000000000000, 0.0000000000000000000, 1.000000000000000000 ) ) ;
#319 = COLOUR_RGB ( '',0.7921568627450980005, 0.8196078431372548767, 0.9333333333333333481 ) ;
#320 = CARTESIAN_POINT ( 'NONE',  ( 0.0000000000000000000, 0.0000000000000000000, 2.500000000000000000 ) ) ;
#321 = FACE_OUTER_BOUND ( 'NONE', #183, .T. ) ;
#322 = AXIS2_PLACEMENT_3D ( 'NONE', #179, #154, #304 ) ;
#323 = ADVANCED_FACE ( 'NONE', ( #264 ), #237, .T. ) ;
ENDSEC;
END-ISO-10303-21;
