ISO-10303-21;
HEADER;
FILE_DESCRIPTION (( 'STEP AP214' ),
    '1' );
FILE_NAME ('59851W.STEP',
    '2023-06-22T23:36:35',
    ( '' ),
    ( '' ),
    'SwSTEP 2.0',
    'SolidWorks 2023',
    '' );
FILE_SCHEMA (( 'AUTOMOTIVE_DESIGN' ));
ENDSEC;

DATA;
#1 = MANIFOLD_SOLID_BREP ( 'Revolve - Tool Body (Straight Shanked)', #165 ) ;
#2 = CARTESIAN_POINT ( 'NONE',  ( 0.000000000000000000, 0.000000000000000000, 0.000000000000000000 ) ) ;
#3 = ORIENTED_EDGE ( 'NONE', *, *, #226, .F. ) ;
#4 = VERTEX_POINT ( 'NONE', #220 ) ;
#5 = VERTEX_POINT ( 'NONE', #48 ) ;
#6 = CIRCLE ( 'NONE', #30, 0.3125000000000000000 ) ;
#7 = DIRECTION ( 'NONE',  ( -0.000000000000000000, -1.000000000000000000, -0.000000000000000000 ) ) ;
#8 = SURFACE_STYLE_FILL_AREA ( #57 ) ;
#9 =( NAMED_UNIT ( * ) SI_UNIT ( $, .STERADIAN. ) SOLID_ANGLE_UNIT ( ) );
#10 =( NAMED_UNIT ( * ) PLANE_ANGLE_UNIT ( ) SI_UNIT ( $, .RADIAN. ) );
#11 = ORIENTED_EDGE ( 'NONE', *, *, #127, .F. ) ;
#12 = MECHANICAL_DESIGN_GEOMETRIC_PRESENTATION_REPRESENTATION (  '', ( #67 ), #229 ) ;
#13 = CARTESIAN_POINT ( 'NONE',  ( 0.000000000000000000, 0.000000000000000000, -0.3125000000000000000 ) ) ;
#14 = DIRECTION ( 'NONE',  ( -0.000000000000000000, -1.000000000000000000, -0.000000000000000000 ) ) ;
#15 = ORIENTED_EDGE ( 'NONE', *, *, #47, .T. ) ;
#16 = AXIS2_PLACEMENT_3D ( 'NONE', #41, #14, #20 ) ;
#17 = CIRCLE ( 'NONE', #234, 0.3125000000000000555 ) ;
#18 = DIRECTION ( 'NONE',  ( -1.000000000000000000, 0.000000000000000000, 0.000000000000000000 ) ) ;
#19 = ADVANCED_FACE ( 'NONE', ( #245 ), #170, .F. ) ;
#20 = DIRECTION ( 'NONE',  ( 0.000000000000000000, 0.000000000000000000, -1.000000000000000000 ) ) ;
#21 = UNCERTAINTY_MEASURE_WITH_UNIT (LENGTH_MEASURE( 1.000000000000000082E-05 ), #106, 'distance_accuracy_value', 'NONE');
#22 = FILL_AREA_STYLE_COLOUR ( '', #181 ) ;
#23 = PRODUCT ( '59851W', '59851W', '', ( #34 ) ) ;
#24 = COLOUR_RGB ( '',1.000000000000000000, 0.000000000000000000, 0.000000000000000000 ) ;
#25 = CARTESIAN_POINT ( 'NONE',  ( 7.582401355855259480E-33, 1.625000000000000000, 0.000000000000000000 ) ) ;
#26 = ADVANCED_BREP_SHAPE_REPRESENTATION ( '59851W', ( #212, #1, #156 ), #183 ) ;
#27 = DIRECTION ( 'NONE',  ( 0.000000000000000000, -1.000000000000000000, -0.000000000000000000 ) ) ;
#28 = CARTESIAN_POINT ( 'NONE',  ( 0.000000000000000000, 1.625000000000000000, 0.000000000000000000 ) ) ;
#29 =( CONVERSION_BASED_UNIT ( 'INCH', #172 ) LENGTH_UNIT ( ) NAMED_UNIT ( #65 ) );
#30 = AXIS2_PLACEMENT_3D ( 'NONE', #133, #252, #206 ) ;
#31 = FILL_AREA_STYLE ('',( #162 ) ) ;
#32 = CARTESIAN_POINT ( 'NONE',  ( -0.3125000000000000000, 1.625000000000000000, 0.000000000000000000 ) ) ;
#33 = LENGTH_MEASURE_WITH_UNIT ( LENGTH_MEASURE( 0.02539999999999999897 ), #184 );
#34 = PRODUCT_CONTEXT ( 'NONE', #104, 'mechanical' ) ;
#35 = CARTESIAN_POINT ( 'NONE',  ( 1.666399758513172697E-34, 1.625000000000000000, 0.000000000000000000 ) ) ;
#36 = AXIS2_PLACEMENT_3D ( 'NONE', #216, #286, #160 ) ;
#37 = EDGE_CURVE ( 'NONE', #4, #58, #150, .T. ) ;
#38 = SURFACE_STYLE_USAGE ( .BOTH. , #87 ) ;
#39 = PRODUCT_DEFINITION ( 'UNKNOWN', '', #242, #115 ) ;
#40 = ADVANCED_FACE ( 'NONE', ( #173 ), #46, .T. ) ;
#41 = CARTESIAN_POINT ( 'NONE',  ( 0.000000000000000000, 0.000000000000000000, 0.000000000000000000 ) ) ;
#42 = AXIS2_PLACEMENT_3D ( 'NONE', #2, #289, #113 ) ;
#43 = VECTOR ( 'NONE', #195, 39.37007874015748143 ) ;
#44 = AXIS2_PLACEMENT_3D ( 'NONE', #300, #52, #103 ) ;
#45 = SURFACE_STYLE_USAGE ( .BOTH. , #215 ) ;
#46 = CYLINDRICAL_SURFACE ( 'NONE', #42, 0.3125000000000000000 ) ;
#47 = EDGE_CURVE ( 'NONE', #261, #5, #279, .T. ) ;
#48 = CARTESIAN_POINT ( 'NONE',  ( 0.3125000000000000000, 1.625000000000000000, 3.827021247335478926E-17 ) ) ;
#49 =( GEOMETRIC_REPRESENTATION_CONTEXT ( 3 ) GLOBAL_UNCERTAINTY_ASSIGNED_CONTEXT ( ( #21 ) ) GLOBAL_UNIT_ASSIGNED_CONTEXT ( ( #106, #179, #209 ) ) REPRESENTATION_CONTEXT ( 'NONE', 'WORKASPACE' ) );
#50 = DIRECTION ( 'NONE',  ( 0.000000000000000000, 0.000000000000000000, -1.000000000000000000 ) ) ;
#51 = UNCERTAINTY_MEASURE_WITH_UNIT (LENGTH_MEASURE( 1.000000000000000082E-05 ), #280, 'distance_accuracy_value', 'NONE');
#52 = DIRECTION ( 'NONE',  ( 0.000000000000000000, 1.000000000000000000, 0.000000000000000000 ) ) ;
#53 =( NAMED_UNIT ( * ) PLANE_ANGLE_UNIT ( ) SI_UNIT ( $, .RADIAN. ) );
#54 =( LENGTH_UNIT ( ) NAMED_UNIT ( * ) SI_UNIT ( $, .METRE. ) );
#55 = CARTESIAN_POINT ( 'NONE',  ( 0.000000000000000000, 0.000000000000000000, -0.3125000000000000000 ) ) ;
#56 = ADVANCED_FACE ( 'NONE', ( #163 ), #244, .T. ) ;
#57 = FILL_AREA_STYLE ('',( #224 ) ) ;
#58 = VERTEX_POINT ( 'NONE', #13 ) ;
#59 = DIRECTION ( 'NONE',  ( -0.000000000000000000, -1.000000000000000000, -0.000000000000000000 ) ) ;
#60 = ORIENTED_EDGE ( 'NONE', *, *, #185, .F. ) ;
#61 = CARTESIAN_POINT ( 'NONE',  ( 0.000000000000000000, 1.625000000000000000, -0.3125000000000000000 ) ) ;
#62 = SURFACE_STYLE_FILL_AREA ( #278 ) ;
#63 = PRESENTATION_LAYER_ASSIGNMENT (  '', '', ( #202 ) ) ;
#64 = VECTOR ( 'NONE', #153, 39.37007874015748143 ) ;
#65 = DIMENSIONAL_EXPONENTS ( 1.000000000000000000, 0.000000000000000000, 0.000000000000000000, 0.000000000000000000, 0.000000000000000000, 0.000000000000000000, 0.000000000000000000 ) ;
#66 =( NAMED_UNIT ( * ) SI_UNIT ( $, .STERADIAN. ) SOLID_ANGLE_UNIT ( ) );
#67 = STYLED_ITEM ( 'NONE', ( #174 ), #276 ) ;
#68 =( NAMED_UNIT ( * ) PLANE_ANGLE_UNIT ( ) SI_UNIT ( $, .RADIAN. ) );
#69 = DIRECTION ( 'NONE',  ( -3.265724797726272713E-17, 1.000000000000000000, -0.000000000000000000 ) ) ;
#70 = AXIS2_PLACEMENT_3D ( 'NONE', #73, #27, #71 ) ;
#71 = DIRECTION ( 'NONE',  ( 0.000000000000000000, 0.000000000000000000, -1.000000000000000000 ) ) ;
#72 = EDGE_CURVE ( 'NONE', #128, #130, #302, .T. ) ;
#73 = CARTESIAN_POINT ( 'NONE',  ( 0.000000000000000000, 0.000000000000000000, 0.000000000000000000 ) ) ;
#74 = PLANE ( 'NONE',  #44 ) ;
#75 = CARTESIAN_POINT ( 'NONE',  ( 0.000000000000000000, 0.000000000000000000, 0.000000000000000000 ) ) ;
#76 = DIRECTION ( 'NONE',  ( -1.000000000000000000, 0.000000000000000000, 0.000000000000000000 ) ) ;
#77 = PRESENTATION_STYLE_ASSIGNMENT (( #301 ) ) ;
#78 = FACE_OUTER_BOUND ( 'NONE', #117, .T. ) ;
#79 = CARTESIAN_POINT ( 'NONE',  ( -6.123233995736759873E-17, 3.500000000000000000, 0.000000000000000000 ) ) ;
#80 = MECHANICAL_DESIGN_GEOMETRIC_PRESENTATION_REPRESENTATION (  '', ( #97 ), #90 ) ;
#81 = DIMENSIONAL_EXPONENTS ( 1.000000000000000000, 0.000000000000000000, 0.000000000000000000, 0.000000000000000000, 0.000000000000000000, 0.000000000000000000, 0.000000000000000000 ) ;
#82 = EDGE_LOOP ( 'NONE', ( #126, #275 ) ) ;
#83 = APPLICATION_PROTOCOL_DEFINITION ( 'draft international standard', 'automotive_design', 1998, #129 ) ;
#84 = PRESENTATION_LAYER_ASSIGNMENT (  '', '', ( #246 ) ) ;
#85 = SURFACE_SIDE_STYLE ('',( #157 ) ) ;
#86 = ADVANCED_FACE ( 'NONE', ( #188 ), #114, .T. ) ;
#87 = SURFACE_SIDE_STYLE ('',( #143 ) ) ;
#88 = ORIENTED_EDGE ( 'NONE', *, *, #111, .T. ) ;
#89 = SURFACE_STYLE_USAGE ( .BOTH. , #85 ) ;
#90 =( GEOMETRIC_REPRESENTATION_CONTEXT ( 3 ) GLOBAL_UNCERTAINTY_ASSIGNED_CONTEXT ( ( #118 ) ) GLOBAL_UNIT_ASSIGNED_CONTEXT ( ( #308, #238, #66 ) ) REPRESENTATION_CONTEXT ( 'NONE', 'WORKASPACE' ) );
#91 = ORIENTED_EDGE ( 'NONE', *, *, #111, .F. ) ;
#92 = FACE_OUTER_BOUND ( 'NONE', #287, .T. ) ;
#93 = DIRECTION ( 'NONE',  ( -1.000000000000000000, 0.000000000000000000, 0.000000000000000000 ) ) ;
#94 = CARTESIAN_POINT ( 'NONE',  ( -6.123233995736759873E-17, 3.500000000000000000, 0.000000000000000000 ) ) ;
#95 = ORIENTED_EDGE ( 'NONE', *, *, #204, .F. ) ;
#96 = COLOUR_RGB ( '',1.000000000000000000, 0.000000000000000000, 0.000000000000000000 ) ;
#97 = STYLED_ITEM ( 'NONE', ( #193 ), #212 ) ;
#98 = DIRECTION ( 'NONE',  ( 0.000000000000000000, 0.000000000000000000, -1.000000000000000000 ) ) ;
#99 =( LENGTH_UNIT ( ) NAMED_UNIT ( * ) SI_UNIT ( $, .METRE. ) );
#100 = PRODUCT_RELATED_PRODUCT_CATEGORY ( 'part', '', ( #23 ) ) ;
#101 = EDGE_CURVE ( 'NONE', #58, #4, #203, .T. ) ;
#102 = SURFACE_STYLE_FILL_AREA ( #159 ) ;
#103 = DIRECTION ( 'NONE',  ( 0.000000000000000000, -0.000000000000000000, 1.000000000000000000 ) ) ;
#104 = APPLICATION_CONTEXT ( 'automotive_design' ) ;
#105 = DIMENSIONAL_EXPONENTS ( 1.000000000000000000, 0.000000000000000000, 0.000000000000000000, 0.000000000000000000, 0.000000000000000000, 0.000000000000000000, 0.000000000000000000 ) ;
#106 =( CONVERSION_BASED_UNIT ( 'INCH', #33 ) LENGTH_UNIT ( ) NAMED_UNIT ( #282 ) );
#107 = EDGE_CURVE ( 'NONE', #130, #128, #134, .T. ) ;
#108 = VECTOR ( 'NONE', #271, 39.37007874015748143 ) ;
#109 = CARTESIAN_POINT ( 'NONE',  ( 0.000000000000000000, 1.625000000000000000, 0.000000000000000000 ) ) ;
#110 = EDGE_LOOP ( 'NONE', ( #214, #293, #205, #91 ) ) ;
#111 = EDGE_CURVE ( 'NONE', #128, #58, #292, .T. ) ;
#112 = CIRCLE ( 'NONE', #145, 0.3125000000000000555 ) ;
#113 = DIRECTION ( 'NONE',  ( 0.000000000000000000, 0.000000000000000000, -1.000000000000000000 ) ) ;
#114 = PLANE ( 'NONE',  #70 ) ;
#115 = PRODUCT_DEFINITION_CONTEXT ( 'detailed design', #129, 'design' ) ;
#116 = ORIENTED_EDGE ( 'NONE', *, *, #127, .T. ) ;
#117 = EDGE_LOOP ( 'NONE', ( #60, #139, #88, #217 ) ) ;
#118 = UNCERTAINTY_MEASURE_WITH_UNIT (LENGTH_MEASURE( 1.000000000000000082E-05 ), #308, 'distance_accuracy_value', 'NONE');
#119 = PRESENTATION_LAYER_ASSIGNMENT (  '', '', ( #166 ) ) ;
#120 = LENGTH_MEASURE_WITH_UNIT ( LENGTH_MEASURE( 0.02539999999999999897 ), #232 );
#121 =( NAMED_UNIT ( * ) PLANE_ANGLE_UNIT ( ) SI_UNIT ( $, .RADIAN. ) );
#122 = CARTESIAN_POINT ( 'NONE',  ( -0.3125000000000001665, 3.500000000000000000, 0.000000000000000000 ) ) ;
#123 = FACE_OUTER_BOUND ( 'NONE', #82, .T. ) ;
#124 = FACE_OUTER_BOUND ( 'NONE', #177, .T. ) ;
#125 = CARTESIAN_POINT ( 'NONE',  ( -0.3125000000000000555, 3.500000000000000000, 0.000000000000000000 ) ) ;
#126 = ORIENTED_EDGE ( 'NONE', *, *, #72, .F. ) ;
#127 = EDGE_CURVE ( 'NONE', #270, #180, #112, .T. ) ;
#128 = VERTEX_POINT ( 'NONE', #61 ) ;
#129 = APPLICATION_CONTEXT ( 'automotive_design' ) ;
#130 = VERTEX_POINT ( 'NONE', #132 ) ;
#131 = AXIS2_PLACEMENT_3D ( 'NONE', #94, #69, #141 ) ;
#132 = CARTESIAN_POINT ( 'NONE',  ( 3.827021247335478926E-17, 1.625000000000000000, 0.3125000000000000000 ) ) ;
#133 = CARTESIAN_POINT ( 'NONE',  ( 7.582401355855259480E-33, 1.625000000000000000, 0.000000000000000000 ) ) ;
#134 = CIRCLE ( 'NONE', #257, 0.3125000000000000000 ) ;
#135 = DIRECTION ( 'NONE',  ( -3.265724797726272713E-17, 1.000000000000000000, -0.000000000000000000 ) ) ;
#136 = DIRECTION ( 'NONE',  ( -3.265724797726272713E-17, 1.000000000000000000, -0.000000000000000000 ) ) ;
#137 = CARTESIAN_POINT ( 'NONE',  ( 0.3125000000000000000, 3.500000000000000000, 3.827021247335478926E-17 ) ) ;
#138 = DIRECTION ( 'NONE',  ( 0.000000000000000000, 0.000000000000000000, -1.000000000000000000 ) ) ;
#139 = ORIENTED_EDGE ( 'NONE', *, *, #107, .T. ) ;
#140 = AXIS2_PLACEMENT_3D ( 'NONE', #25, #135, #93 ) ;
#141 = DIRECTION ( 'NONE',  ( -1.000000000000000000, 0.000000000000000000, 0.000000000000000000 ) ) ;
#142 =( NAMED_UNIT ( * ) SI_UNIT ( $, .STERADIAN. ) SOLID_ANGLE_UNIT ( ) );
#143 = SURFACE_STYLE_FILL_AREA ( #31 ) ;
#144 = DIRECTION ( 'NONE',  ( -0.000000000000000000, -1.000000000000000000, -0.000000000000000000 ) ) ;
#145 = AXIS2_PLACEMENT_3D ( 'NONE', #79, #255, #207 ) ;
#146 = LINE ( 'NONE', #125, #108 ) ;
#147 = ORIENTED_EDGE ( 'NONE', *, *, #37, .T. ) ;
#148 = SURFACE_STYLE_USAGE ( .BOTH. , #201 ) ;
#149 = EDGE_LOOP ( 'NONE', ( #151, #265, #168, #95 ) ) ;
#150 = CIRCLE ( 'NONE', #16, 0.3125000000000000000 ) ;
#151 = ORIENTED_EDGE ( 'NONE', *, *, #164, .F. ) ;
#152 = DIRECTION ( 'NONE',  ( -3.265724797726272713E-17, 1.000000000000000000, 0.000000000000000000 ) ) ;
#153 = DIRECTION ( 'NONE',  ( -3.265724797726272713E-17, 1.000000000000000000, -0.000000000000000000 ) ) ;
#154 = CLOSED_SHELL ( 'NONE', ( #40, #248, #276, #86 ) ) ;
#155 = AXIS2_PLACEMENT_3D ( 'NONE', #109, #210, #138 ) ;
#156 = AXIS2_PLACEMENT_3D ( 'NONE', #75, #175, #249 ) ;
#157 = SURFACE_STYLE_FILL_AREA ( #189 ) ;
#158 = MECHANICAL_DESIGN_GEOMETRIC_PRESENTATION_REPRESENTATION (  '', ( #166 ), #274 ) ;
#159 = FILL_AREA_STYLE ('',( #303 ) ) ;
#160 = DIRECTION ( 'NONE',  ( 1.000000000000000000, 3.265724797726272713E-17, 0.000000000000000000 ) ) ;
#161 =( CONVERSION_BASED_UNIT ( 'INCH', #218 ) LENGTH_UNIT ( ) NAMED_UNIT ( #273 ) );
#162 = FILL_AREA_STYLE_COLOUR ( '', #96 ) ;
#163 = FACE_OUTER_BOUND ( 'NONE', #149, .T. ) ;
#164 = EDGE_CURVE ( 'NONE', #5, #180, #269, .T. ) ;
#165 = CLOSED_SHELL ( 'NONE', ( #178, #235, #56, #19 ) ) ;
#166 = STYLED_ITEM ( 'NONE', ( #288 ), #248 ) ;
#167 = UNCERTAINTY_MEASURE_WITH_UNIT (LENGTH_MEASURE( 1.000000000000000082E-05 ), #225, 'distance_accuracy_value', 'NONE');
#168 = ORIENTED_EDGE ( 'NONE', *, *, #260, .T. ) ;
#169 = CARTESIAN_POINT ( 'NONE',  ( 0.000000000000000000, 0.000000000000000000, 0.000000000000000000 ) ) ;
#170 = PLANE ( 'NONE',  #36 ) ;
#171 = STYLED_ITEM ( 'NONE', ( #277 ), #40 ) ;
#172 = LENGTH_MEASURE_WITH_UNIT ( LENGTH_MEASURE( 0.02539999999999999897 ), #99 );
#173 = FACE_OUTER_BOUND ( 'NONE', #110, .T. ) ;
#174 = PRESENTATION_STYLE_ASSIGNMENT (( #148 ) ) ;
#175 = DIRECTION ( 'NONE',  ( 0.000000000000000000, 0.000000000000000000, 1.000000000000000000 ) ) ;
#176 =( NAMED_UNIT ( * ) SI_UNIT ( $, .STERADIAN. ) SOLID_ANGLE_UNIT ( ) );
#177 = EDGE_LOOP ( 'NONE', ( #15, #186, #11, #233 ) ) ;
#178 = ADVANCED_FACE ( 'NONE', ( #124 ), #227, .T. ) ;
#179 =( NAMED_UNIT ( * ) PLANE_ANGLE_UNIT ( ) SI_UNIT ( $, .RADIAN. ) );
#180 = VERTEX_POINT ( 'NONE', #137 ) ;
#181 = COLOUR_RGB ( '',0.7921568627450980005, 0.8196078431372548767, 0.9333333333333333481 ) ;
#182 = COLOUR_RGB ( '',1.000000000000000000, 0.000000000000000000, 0.000000000000000000 ) ;
#183 =( GEOMETRIC_REPRESENTATION_CONTEXT ( 3 ) GLOBAL_UNCERTAINTY_ASSIGNED_CONTEXT ( ( #194 ) ) GLOBAL_UNIT_ASSIGNED_CONTEXT ( ( #29, #294, #268 ) ) REPRESENTATION_CONTEXT ( 'NONE', 'WORKASPACE' ) );
#184 =( LENGTH_UNIT ( ) NAMED_UNIT ( * ) SI_UNIT ( $, .METRE. ) );
#185 = EDGE_CURVE ( 'NONE', #130, #4, #306, .T. ) ;
#186 = ORIENTED_EDGE ( 'NONE', *, *, #164, .T. ) ;
#187 = SHAPE_DEFINITION_REPRESENTATION ( #190, #26 ) ;
#188 = FACE_OUTER_BOUND ( 'NONE', #219, .T. ) ;
#189 = FILL_AREA_STYLE ('',( #22 ) ) ;
#190 = PRODUCT_DEFINITION_SHAPE ( 'NONE', 'NONE',  #39 ) ;
#191 = COLOUR_RGB ( '',0.7921568627450980005, 0.8196078431372548767, 0.9333333333333333481 ) ;
#192 = AXIS2_PLACEMENT_3D ( 'NONE', #230, #144, #299 ) ;
#193 = PRESENTATION_STYLE_ASSIGNMENT (( #89 ) ) ;
#194 = UNCERTAINTY_MEASURE_WITH_UNIT (LENGTH_MEASURE( 1.000000000000000082E-05 ), #29, 'distance_accuracy_value', 'NONE');
#195 = DIRECTION ( 'NONE',  ( -0.000000000000000000, -1.000000000000000000, -0.000000000000000000 ) ) ;
#196 = SURFACE_STYLE_FILL_AREA ( #266 ) ;
#197 = ORIENTED_EDGE ( 'NONE', *, *, #101, .T. ) ;
#198 = SURFACE_STYLE_USAGE ( .BOTH. , #297 ) ;
#199 =( LENGTH_UNIT ( ) NAMED_UNIT ( * ) SI_UNIT ( $, .METRE. ) );
#200 = UNCERTAINTY_MEASURE_WITH_UNIT (LENGTH_MEASURE( 1.000000000000000082E-05 ), #161, 'distance_accuracy_value', 'NONE');
#201 = SURFACE_SIDE_STYLE ('',( #8 ) ) ;
#202 = STYLED_ITEM ( 'NONE', ( #77 ), #1 ) ;
#203 = CIRCLE ( 'NONE', #221, 0.3125000000000000000 ) ;
#204 = EDGE_CURVE ( 'NONE', #180, #270, #17, .T. ) ;
#205 = ORIENTED_EDGE ( 'NONE', *, *, #101, .F. ) ;
#206 = DIRECTION ( 'NONE',  ( -1.000000000000000000, 0.000000000000000000, 0.000000000000000000 ) ) ;
#207 = DIRECTION ( 'NONE',  ( -1.000000000000000000, 0.000000000000000000, 0.000000000000000000 ) ) ;
#208 = COLOUR_RGB ( '',1.000000000000000000, 0.000000000000000000, 0.000000000000000000 ) ;
#209 =( NAMED_UNIT ( * ) SI_UNIT ( $, .STERADIAN. ) SOLID_ANGLE_UNIT ( ) );
#210 = DIRECTION ( 'NONE',  ( -0.000000000000000000, -1.000000000000000000, -0.000000000000000000 ) ) ;
#211 = EDGE_LOOP ( 'NONE', ( #116, #305 ) ) ;
#212 = MANIFOLD_SOLID_BREP ( 'Revolve - Cutting Edge', #154 ) ;
#213 = LENGTH_MEASURE_WITH_UNIT ( LENGTH_MEASURE( 0.02539999999999999897 ), #54 );
#214 = ORIENTED_EDGE ( 'NONE', *, *, #72, .T. ) ;
#215 = SURFACE_SIDE_STYLE ('',( #62 ) ) ;
#216 = CARTESIAN_POINT ( 'NONE',  ( 0.3125000000000000000, 3.500000000000000000, 0.000000000000000000 ) ) ;
#217 = ORIENTED_EDGE ( 'NONE', *, *, #37, .F. ) ;
#218 = LENGTH_MEASURE_WITH_UNIT ( LENGTH_MEASURE( 0.02539999999999999897 ), #285 );
#219 = EDGE_LOOP ( 'NONE', ( #197, #147 ) ) ;
#220 = CARTESIAN_POINT ( 'NONE',  ( 3.827021247335478926E-17, 0.000000000000000000, 0.3125000000000000000 ) ) ;
#221 = AXIS2_PLACEMENT_3D ( 'NONE', #169, #263, #50 ) ;
#222 = LENGTH_MEASURE_WITH_UNIT ( LENGTH_MEASURE( 0.02539999999999999897 ), #199 );
#223 =( CONVERSION_BASED_UNIT ( 'INCH', #120 ) LENGTH_UNIT ( ) NAMED_UNIT ( #253 ) );
#224 = FILL_AREA_STYLE_COLOUR ( '', #208 ) ;
#225 =( CONVERSION_BASED_UNIT ( 'INCH', #222 ) LENGTH_UNIT ( ) NAMED_UNIT ( #236 ) );
#226 = EDGE_CURVE ( 'NONE', #5, #261, #6, .T. ) ;
#227 = CYLINDRICAL_SURFACE ( 'NONE', #291, 0.3125000000000000000 ) ;
#228 = MECHANICAL_DESIGN_GEOMETRIC_PRESENTATION_REPRESENTATION (  '', ( #246 ), #262 ) ;
#229 =( GEOMETRIC_REPRESENTATION_CONTEXT ( 3 ) GLOBAL_UNCERTAINTY_ASSIGNED_CONTEXT ( ( #51 ) ) GLOBAL_UNIT_ASSIGNED_CONTEXT ( ( #280, #53, #247 ) ) REPRESENTATION_CONTEXT ( 'NONE', 'WORKASPACE' ) );
#230 = CARTESIAN_POINT ( 'NONE',  ( 0.000000000000000000, 0.000000000000000000, 0.000000000000000000 ) ) ;
#231 = DIRECTION ( 'NONE',  ( -1.000000000000000000, -3.265724797726272713E-17, 0.000000000000000000 ) ) ;
#232 =( LENGTH_UNIT ( ) NAMED_UNIT ( * ) SI_UNIT ( $, .METRE. ) );
#233 = ORIENTED_EDGE ( 'NONE', *, *, #260, .F. ) ;
#234 = AXIS2_PLACEMENT_3D ( 'NONE', #239, #136, #18 ) ;
#235 = ADVANCED_FACE ( 'NONE', ( #92 ), #272, .F. ) ;
#236 = DIMENSIONAL_EXPONENTS ( 1.000000000000000000, 0.000000000000000000, 0.000000000000000000, 0.000000000000000000, 0.000000000000000000, 0.000000000000000000, 0.000000000000000000 ) ;
#237 = CARTESIAN_POINT ( 'NONE',  ( 0.3124999999999999445, 3.500000000000000000, 3.827021247335478926E-17 ) ) ;
#238 =( NAMED_UNIT ( * ) PLANE_ANGLE_UNIT ( ) SI_UNIT ( $, .RADIAN. ) );
#239 = CARTESIAN_POINT ( 'NONE',  ( -6.123233995736759873E-17, 3.500000000000000000, 0.000000000000000000 ) ) ;
#240 = MECHANICAL_DESIGN_GEOMETRIC_PRESENTATION_REPRESENTATION (  '', ( #202 ), #307 ) ;
#241 = PRESENTATION_LAYER_ASSIGNMENT (  '', '', ( #97 ) ) ;
#242 = PRODUCT_DEFINITION_FORMATION_WITH_SPECIFIED_SOURCE ( 'ANY', '', #23, .NOT_KNOWN. ) ;
#243 = FILL_AREA_STYLE_COLOUR ( '', #182 ) ;
#244 = CYLINDRICAL_SURFACE ( 'NONE', #131, 0.3125000000000000000 ) ;
#245 = FACE_OUTER_BOUND ( 'NONE', #211, .T. ) ;
#246 = STYLED_ITEM ( 'NONE', ( #284 ), #86 ) ;
#247 =( NAMED_UNIT ( * ) SI_UNIT ( $, .STERADIAN. ) SOLID_ANGLE_UNIT ( ) );
#248 = ADVANCED_FACE ( 'NONE', ( #123 ), #74, .T. ) ;
#249 = DIRECTION ( 'NONE',  ( 1.000000000000000000, 0.000000000000000000, 0.000000000000000000 ) ) ;
#250 = CYLINDRICAL_SURFACE ( 'NONE', #192, 0.3125000000000000000 ) ;
#251 = VECTOR ( 'NONE', #59, 39.37007874015748143 ) ;
#252 = DIRECTION ( 'NONE',  ( -3.265724797726272713E-17, 1.000000000000000000, -0.000000000000000000 ) ) ;
#253 = DIMENSIONAL_EXPONENTS ( 1.000000000000000000, 0.000000000000000000, 0.000000000000000000, 0.000000000000000000, 0.000000000000000000, 0.000000000000000000, 0.000000000000000000 ) ;
#254 = DIRECTION ( 'NONE',  ( -3.265724797726272713E-17, 1.000000000000000000, -0.000000000000000000 ) ) ;
#255 = DIRECTION ( 'NONE',  ( -3.265724797726272713E-17, 1.000000000000000000, -0.000000000000000000 ) ) ;
#256 = ORIENTED_EDGE ( 'NONE', *, *, #47, .F. ) ;
#257 = AXIS2_PLACEMENT_3D ( 'NONE', #28, #7, #98 ) ;
#258 = LENGTH_MEASURE_WITH_UNIT ( LENGTH_MEASURE( 0.02539999999999999897 ), #281 );
#259 = AXIS2_PLACEMENT_3D ( 'NONE', #35, #152, #231 ) ;
#260 = EDGE_CURVE ( 'NONE', #261, #270, #146, .T. ) ;
#261 = VERTEX_POINT ( 'NONE', #32 ) ;
#262 =( GEOMETRIC_REPRESENTATION_CONTEXT ( 3 ) GLOBAL_UNCERTAINTY_ASSIGNED_CONTEXT ( ( #167 ) ) GLOBAL_UNIT_ASSIGNED_CONTEXT ( ( #225, #121, #9 ) ) REPRESENTATION_CONTEXT ( 'NONE', 'WORKASPACE' ) );
#263 = DIRECTION ( 'NONE',  ( -0.000000000000000000, -1.000000000000000000, -0.000000000000000000 ) ) ;
#264 = SURFACE_SIDE_STYLE ('',( #102 ) ) ;
#265 = ORIENTED_EDGE ( 'NONE', *, *, #226, .T. ) ;
#266 = FILL_AREA_STYLE ('',( #243 ) ) ;
#267 = MECHANICAL_DESIGN_GEOMETRIC_PRESENTATION_REPRESENTATION (  '', ( #171 ), #49 ) ;
#268 =( NAMED_UNIT ( * ) SI_UNIT ( $, .STERADIAN. ) SOLID_ANGLE_UNIT ( ) );
#269 = LINE ( 'NONE', #237, #64 ) ;
#270 = VERTEX_POINT ( 'NONE', #122 ) ;
#271 = DIRECTION ( 'NONE',  ( -3.265724797726272713E-17, 1.000000000000000000, -0.000000000000000000 ) ) ;
#272 = PLANE ( 'NONE',  #259 ) ;
#273 = DIMENSIONAL_EXPONENTS ( 1.000000000000000000, 0.000000000000000000, 0.000000000000000000, 0.000000000000000000, 0.000000000000000000, 0.000000000000000000, 0.000000000000000000 ) ;
#274 =( GEOMETRIC_REPRESENTATION_CONTEXT ( 3 ) GLOBAL_UNCERTAINTY_ASSIGNED_CONTEXT ( ( #200 ) ) GLOBAL_UNIT_ASSIGNED_CONTEXT ( ( #161, #10, #176 ) ) REPRESENTATION_CONTEXT ( 'NONE', 'WORKASPACE' ) );
#275 = ORIENTED_EDGE ( 'NONE', *, *, #107, .F. ) ;
#276 = ADVANCED_FACE ( 'NONE', ( #78 ), #250, .T. ) ;
#277 = PRESENTATION_STYLE_ASSIGNMENT (( #38 ) ) ;
#278 = FILL_AREA_STYLE ('',( #304 ) ) ;
#279 = CIRCLE ( 'NONE', #140, 0.3125000000000000000 ) ;
#280 =( CONVERSION_BASED_UNIT ( 'INCH', #213 ) LENGTH_UNIT ( ) NAMED_UNIT ( #105 ) );
#281 =( LENGTH_UNIT ( ) NAMED_UNIT ( * ) SI_UNIT ( $, .METRE. ) );
#282 = DIMENSIONAL_EXPONENTS ( 1.000000000000000000, 0.000000000000000000, 0.000000000000000000, 0.000000000000000000, 0.000000000000000000, 0.000000000000000000, 0.000000000000000000 ) ;
#283 = PRESENTATION_LAYER_ASSIGNMENT (  '', '', ( #67 ) ) ;
#284 = PRESENTATION_STYLE_ASSIGNMENT (( #45 ) ) ;
#285 =( LENGTH_UNIT ( ) NAMED_UNIT ( * ) SI_UNIT ( $, .METRE. ) );
#286 = DIRECTION ( 'NONE',  ( 3.265724797726272713E-17, -1.000000000000000000, 0.000000000000000000 ) ) ;
#287 = EDGE_LOOP ( 'NONE', ( #256, #3 ) ) ;
#288 = PRESENTATION_STYLE_ASSIGNMENT (( #198 ) ) ;
#289 = DIRECTION ( 'NONE',  ( -0.000000000000000000, -1.000000000000000000, -0.000000000000000000 ) ) ;
#290 = UNCERTAINTY_MEASURE_WITH_UNIT (LENGTH_MEASURE( 1.000000000000000082E-05 ), #223, 'distance_accuracy_value', 'NONE');
#291 = AXIS2_PLACEMENT_3D ( 'NONE', #298, #254, #76 ) ;
#292 = LINE ( 'NONE', #55, #251 ) ;
#293 = ORIENTED_EDGE ( 'NONE', *, *, #185, .T. ) ;
#294 =( NAMED_UNIT ( * ) PLANE_ANGLE_UNIT ( ) SI_UNIT ( $, .RADIAN. ) );
#295 = PRESENTATION_LAYER_ASSIGNMENT (  '', '', ( #171 ) ) ;
#296 = APPLICATION_PROTOCOL_DEFINITION ( 'draft international standard', 'automotive_design', 1998, #104 ) ;
#297 = SURFACE_SIDE_STYLE ('',( #196 ) ) ;
#298 = CARTESIAN_POINT ( 'NONE',  ( -6.123233995736759873E-17, 3.500000000000000000, 0.000000000000000000 ) ) ;
#299 = DIRECTION ( 'NONE',  ( 0.000000000000000000, 0.000000000000000000, -1.000000000000000000 ) ) ;
#300 = CARTESIAN_POINT ( 'NONE',  ( 0.000000000000000000, 1.625000000000000000, 0.000000000000000000 ) ) ;
#301 = SURFACE_STYLE_USAGE ( .BOTH. , #264 ) ;
#302 = CIRCLE ( 'NONE', #155, 0.3125000000000000000 ) ;
#303 = FILL_AREA_STYLE_COLOUR ( '', #191 ) ;
#304 = FILL_AREA_STYLE_COLOUR ( '', #24 ) ;
#305 = ORIENTED_EDGE ( 'NONE', *, *, #204, .T. ) ;
#306 = LINE ( 'NONE', #309, #43 ) ;
#307 =( GEOMETRIC_REPRESENTATION_CONTEXT ( 3 ) GLOBAL_UNCERTAINTY_ASSIGNED_CONTEXT ( ( #290 ) ) GLOBAL_UNIT_ASSIGNED_CONTEXT ( ( #223, #68, #142 ) ) REPRESENTATION_CONTEXT ( 'NONE', 'WORKASPACE' ) );
#308 =( CONVERSION_BASED_UNIT ( 'INCH', #258 ) LENGTH_UNIT ( ) NAMED_UNIT ( #81 ) );
#309 = CARTESIAN_POINT ( 'NONE',  ( 3.827021247335478926E-17, 0.000000000000000000, 0.3125000000000000000 ) ) ;
ENDSEC;
END-ISO-10303-21;
