ISO-10303-21;
HEADER;
FILE_DESCRIPTION (( 'STEP AP214' ),
    '1' );
FILE_NAME ('Micro_GEC-250-4-010X.STEP',
    '2021-09-03T17:15:57',
    ( '' ),
    ( '' ),
    'SwSTEP 2.0',
    'SolidWorks 2020',
    '' );
FILE_SCHEMA (( 'AUTOMOTIVE_DESIGN' ));
ENDSEC;

DATA;
#1 = PRODUCT_RELATED_PRODUCT_CATEGORY ( 'part', '', ( #264 ) ) ;
#2 = CARTESIAN_POINT ( 'NONE',  ( -0.1100000000000001948, 0.0000000000000000000, 2.500000000000000000 ) ) ;
#3 = CARTESIAN_POINT ( 'NONE',  ( 0.0000000000000000000, 0.0000000000000000000, 2.485000000000000320 ) ) ;
#4 = VECTOR ( 'NONE', #203, 39.37007874015748143 ) ;
#5 = TOROIDAL_SURFACE ( 'NONE', #113, 0.1148750000000000049, 0.01000000000000000021 ) ;
#6 = CARTESIAN_POINT ( 'NONE',  ( 1.224646799147353384E-18, 0.0000000000000000000, 0.0000000000000000000 ) ) ;
#7 = DIRECTION ( 'NONE',  ( 1.000000000000000000, 0.0000000000000000000, 0.0000000000000000000 ) ) ;
#8 = CARTESIAN_POINT ( 'NONE',  ( 0.1148750000000000049, 0.0000000000000000000, 0.01000000000000000021 ) ) ;
#9 = ORIENTED_EDGE ( 'NONE', *, *, #102, .T. ) ;
#10 = CYLINDRICAL_SURFACE ( 'NONE', #13, 0.1248749999999999999 ) ;
#11 = VERTEX_POINT ( 'NONE', #90 ) ;
#12 = AXIS2_PLACEMENT_3D ( 'NONE', #6, #302, #168 ) ;
#13 = AXIS2_PLACEMENT_3D ( 'NONE', #327, #201, #276 ) ;
#14 = FACE_OUTER_BOUND ( 'NONE', #184, .T. ) ;
#15 = DIRECTION ( 'NONE',  ( -1.224646799147353207E-16, -0.0000000000000000000, -1.000000000000000000 ) ) ;
#16 = EDGE_CURVE ( 'NONE', #348, #212, #239, .T. ) ;
#17 = DIRECTION ( 'NONE',  ( 0.1736481776669313026, 0.0000000000000000000, 0.9848077530122077983 ) ) ;
#18 = ORIENTED_EDGE ( 'NONE', *, *, #149, .F. ) ;
#19 = EDGE_CURVE ( 'NONE', #22, #348, #227, .T. ) ;
#20 = SURFACE_SIDE_STYLE ('',( #341 ) ) ;
#21 = AXIS2_PLACEMENT_3D ( 'NONE', #181, #103, #286 ) ;
#22 = VERTEX_POINT ( 'NONE', #47 ) ;
#23 = ORIENTED_EDGE ( 'NONE', *, *, #314, .T. ) ;
#24 = ORIENTED_EDGE ( 'NONE', *, *, #322, .F. ) ;
#25 = CIRCLE ( 'NONE', #266, 0.1250000000000000000 ) ;
#26 =( LENGTH_UNIT ( ) NAMED_UNIT ( * ) SI_UNIT ( $, .METRE. ) );
#27 = ORIENTED_EDGE ( 'NONE', *, *, #253, .T. ) ;
#28 = EDGE_CURVE ( 'NONE', #22, #34, #344, .T. ) ;
#29 = DIRECTION ( 'NONE',  ( -1.224646799147353207E-16, -0.0000000000000000000, -1.000000000000000000 ) ) ;
#30 = AXIS2_PLACEMENT_3D ( 'NONE', #277, #167, #307 ) ;
#31 = EDGE_CURVE ( 'NONE', #11, #156, #233, .T. ) ;
#32 = CARTESIAN_POINT ( 'NONE',  ( 0.1248749999999999999, 1.529277690435257475E-17, -1.529277690435257475E-17 ) ) ;
#33 = DIRECTION ( 'NONE',  ( 0.0000000000000000000, 0.0000000000000000000, 1.000000000000000000 ) ) ;
#34 = VERTEX_POINT ( 'NONE', #94 ) ;
#35 = CARTESIAN_POINT ( 'NONE',  ( -0.1148750000000000049, 1.468045350477889642E-17, 0.0000000000000000000 ) ) ;
#36 = CARTESIAN_POINT ( 'NONE',  ( -0.1248749999999999999, 0.0000000000000000000, 0.01000000000000000194 ) ) ;
#37 = VERTEX_POINT ( 'NONE', #261 ) ;
#38 = DIRECTION ( 'NONE',  ( 1.000000000000000000, 0.0000000000000000000, 0.0000000000000000000 ) ) ;
#39 =( GEOMETRIC_REPRESENTATION_CONTEXT ( 3 ) GLOBAL_UNCERTAINTY_ASSIGNED_CONTEXT ( ( #146 ) ) GLOBAL_UNIT_ASSIGNED_CONTEXT ( ( #321, #82, #267 ) ) REPRESENTATION_CONTEXT ( 'NONE', 'WORKASPACE' ) );
#40 = FACE_OUTER_BOUND ( 'NONE', #132, .T. ) ;
#41 = CARTESIAN_POINT ( 'NONE',  ( 0.1250000000000000000, 1.530808498934191509E-17, 2.485000000000000320 ) ) ;
#42 = AXIS2_PLACEMENT_3D ( 'NONE', #211, #315, #123 ) ;
#43 = ORIENTED_EDGE ( 'NONE', *, *, #19, .T. ) ;
#44 = DIRECTION ( 'NONE',  ( 0.0000000000000000000, 0.0000000000000000000, 1.000000000000000000 ) ) ;
#45 = LENGTH_MEASURE_WITH_UNIT ( LENGTH_MEASURE( 0.02539999999999999897 ), #129 );
#46 = ORIENTED_EDGE ( 'NONE', *, *, #216, .T. ) ;
#47 = CARTESIAN_POINT ( 'NONE',  ( 0.1248750000000000970, 0.0000000000000000000, 0.7500000000000001110 ) ) ;
#48 = ORIENTED_EDGE ( 'NONE', *, *, #322, .T. ) ;
#49 = CIRCLE ( 'NONE', #173, 0.1250000000000000000 ) ;
#50 = ORIENTED_EDGE ( 'NONE', *, *, #311, .F. ) ;
#51 = ORIENTED_EDGE ( 'NONE', *, *, #80, .F. ) ;
#52 = ORIENTED_EDGE ( 'NONE', *, *, #101, .F. ) ;
#53 = FACE_OUTER_BOUND ( 'NONE', #251, .T. ) ;
#54 = ORIENTED_EDGE ( 'NONE', *, *, #149, .T. ) ;
#55 = AXIS2_PLACEMENT_3D ( 'NONE', #83, #242, #292 ) ;
#56 = SURFACE_STYLE_FILL_AREA ( #294 ) ;
#57 = DIRECTION ( 'NONE',  ( 1.000000000000000000, 0.0000000000000000000, 0.0000000000000000000 ) ) ;
#58 = DIRECTION ( 'NONE',  ( -1.000000000000000000, 0.0000000000000000000, 0.0000000000000000000 ) ) ;
#59 = DIRECTION ( 'NONE',  ( 0.0000000000000000000, 0.0000000000000000000, 1.000000000000000000 ) ) ;
#60 = CIRCLE ( 'NONE', #55, 0.1100000000000001948 ) ;
#61 = CONICAL_SURFACE ( 'NONE', #199, 0.1100000000000001948, 0.7853981633974517207 ) ;
#62 = ORIENTED_EDGE ( 'NONE', *, *, #28, .F. ) ;
#63 = CARTESIAN_POINT ( 'NONE',  ( 0.0000000000000000000, 0.0000000000000000000, 2.485000000000000320 ) ) ;
#64 = DIRECTION ( 'NONE',  ( -1.000000000000000000, 0.0000000000000000000, 1.224646799147353454E-16 ) ) ;
#65 = EDGE_LOOP ( 'NONE', ( #185, #62, #43, #121 ) ) ;
#66 = DIRECTION ( 'NONE',  ( 0.0000000000000000000, 0.0000000000000000000, 1.000000000000000000 ) ) ;
#67 = FACE_OUTER_BOUND ( 'NONE', #166, .T. ) ;
#68 = CARTESIAN_POINT ( 'NONE',  ( 9.184850993605150903E-17, 0.0000000000000000000, 0.7500000000000001110 ) ) ;
#69 = ADVANCED_FACE ( 'NONE', ( #67 ), #210, .F. ) ;
#70 = PRESENTATION_LAYER_ASSIGNMENT (  '', '', ( #351 ) ) ;
#71 = CARTESIAN_POINT ( 'NONE',  ( 9.184850993605150903E-17, 0.0000000000000000000, 0.7500000000000001110 ) ) ;
#72 = EDGE_CURVE ( 'NONE', #34, #212, #170, .T. ) ;
#73 =( NAMED_UNIT ( * ) PLANE_ANGLE_UNIT ( ) SI_UNIT ( $, .RADIAN. ) );
#74 = VECTOR ( 'NONE', #161, 39.37007874015748143 ) ;
#75 = MECHANICAL_DESIGN_GEOMETRIC_PRESENTATION_REPRESENTATION (  '', ( #351 ), #309 ) ;
#76 = EDGE_LOOP ( 'NONE', ( #301, #23, #165, #52 ) ) ;
#77 = CARTESIAN_POINT ( 'NONE',  ( 0.0000000000000000000, 0.0000000000000000000, 0.0000000000000000000 ) ) ;
#78 = ADVANCED_FACE ( 'NONE', ( #346 ), #319, .T. ) ;
#79 = DIRECTION ( 'NONE',  ( -1.224646799147353207E-16, -0.0000000000000000000, -1.000000000000000000 ) ) ;
#80 = EDGE_CURVE ( 'NONE', #265, #37, #89, .T. ) ;
#81 = ORIENTED_EDGE ( 'NONE', *, *, #154, .T. ) ;
#82 =( NAMED_UNIT ( * ) PLANE_ANGLE_UNIT ( ) SI_UNIT ( $, .RADIAN. ) );
#83 = CARTESIAN_POINT ( 'NONE',  ( 0.0000000000000000000, 0.0000000000000000000, 2.500000000000000000 ) ) ;
#84 = DIRECTION ( 'NONE',  ( -1.224646799147353207E-16, -0.0000000000000000000, -1.000000000000000000 ) ) ;
#85 = ORIENTED_EDGE ( 'NONE', *, *, #253, .F. ) ;
#86 = DIRECTION ( 'NONE',  ( 0.0000000000000000000, 0.0000000000000000000, -1.000000000000000000 ) ) ;
#87 = DIRECTION ( 'NONE',  ( 1.000000000000000000, 0.0000000000000000000, 0.0000000000000000000 ) ) ;
#88 = DIRECTION ( 'NONE',  ( -1.000000000000000000, 1.224646799147354933E-16, 0.0000000000000000000 ) ) ;
#89 = CIRCLE ( 'NONE', #240, 0.1248749999999999999 ) ;
#90 = CARTESIAN_POINT ( 'NONE',  ( 0.1148750000000000049, 0.0000000000000000000, 0.0000000000000000000 ) ) ;
#91 = AXIS2_PLACEMENT_3D ( 'NONE', #77, #182, #287 ) ;
#92 = ORIENTED_EDGE ( 'NONE', *, *, #243, .T. ) ;
#93 = LINE ( 'NONE', #144, #256 ) ;
#94 = CARTESIAN_POINT ( 'NONE',  ( -0.1248749999999999166, 1.530043094684724646E-17, 0.7500000000000001110 ) ) ;
#95 = ORIENTED_EDGE ( 'NONE', *, *, #328, .F. ) ;
#96 = LINE ( 'NONE', #169, #4 ) ;
#97 = ADVANCED_BREP_SHAPE_REPRESENTATION ( 'Micro_GEC-250-4-010X', ( #180, #91 ), #219 ) ;
#98 = CARTESIAN_POINT ( 'NONE',  ( 1.224646799147353384E-18, 0.0000000000000000000, 0.01000000000000000021 ) ) ;
#99 = AXIS2_PLACEMENT_3D ( 'NONE', #313, #79, #279 ) ;
#100 = DIRECTION ( 'NONE',  ( 0.0000000000000000000, 0.0000000000000000000, -1.000000000000000000 ) ) ;
#101 = EDGE_CURVE ( 'NONE', #130, #111, #195, .T. ) ;
#102 = EDGE_CURVE ( 'NONE', #273, #111, #284, .T. ) ;
#103 = DIRECTION ( 'NONE',  ( -0.0000000000000000000, -0.0000000000000000000, -1.000000000000000000 ) ) ;
#104 = CIRCLE ( 'NONE', #293, 0.01000000000000000021 ) ;
#105 = EDGE_CURVE ( 'NONE', #212, #348, #49, .T. ) ;
#106 = ORIENTED_EDGE ( 'NONE', *, *, #243, .F. ) ;
#107 = PLANE ( 'NONE',  #271 ) ;
#108 = EDGE_LOOP ( 'NONE', ( #92, #159 ) ) ;
#109 = DIRECTION ( 'NONE',  ( -0.0000000000000000000, -0.0000000000000000000, -1.000000000000000000 ) ) ;
#110 = VECTOR ( 'NONE', #17, 39.37007874015748143 ) ;
#111 = VERTEX_POINT ( 'NONE', #268 ) ;
#112 = AXIS2_PLACEMENT_3D ( 'NONE', #229, #116, #255 ) ;
#113 = AXIS2_PLACEMENT_3D ( 'NONE', #298, #59, #162 ) ;
#114 = DIMENSIONAL_EXPONENTS ( 1.000000000000000000, 0.0000000000000000000, 0.0000000000000000000, 0.0000000000000000000, 0.0000000000000000000, 0.0000000000000000000, 0.0000000000000000000 ) ;
#115 = FACE_OUTER_BOUND ( 'NONE', #349, .T. ) ;
#116 = DIRECTION ( 'NONE',  ( 0.0000000000000000000, 0.0000000000000000000, 1.000000000000000000 ) ) ;
#117 = ORIENTED_EDGE ( 'NONE', *, *, #311, .T. ) ;
#118 = DIRECTION ( 'NONE',  ( 1.000000000000000000, 0.0000000000000000000, -0.0000000000000000000 ) ) ;
#119 = CYLINDRICAL_SURFACE ( 'NONE', #30, 0.1250000000000000000 ) ;
#120 = CIRCLE ( 'NONE', #257, 0.009999999999999995004 ) ;
#121 = ORIENTED_EDGE ( 'NONE', *, *, #16, .T. ) ;
#122 = DIRECTION ( 'NONE',  ( 1.000000000000000000, 0.0000000000000000000, 0.0000000000000000000 ) ) ;
#123 = DIRECTION ( 'NONE',  ( 1.000000000000000000, 0.0000000000000000000, 0.0000000000000000000 ) ) ;
#124 = DIRECTION ( 'NONE',  ( -1.000000000000000000, 0.0000000000000000000, 0.0000000000000000000 ) ) ;
#125 =( NAMED_UNIT ( * ) PLANE_ANGLE_UNIT ( ) SI_UNIT ( $, .RADIAN. ) );
#126 = ADVANCED_FACE ( 'NONE', ( #136 ), #107, .T. ) ;
#127 =( LENGTH_UNIT ( ) NAMED_UNIT ( * ) SI_UNIT ( $, .METRE. ) );
#128 = AXIS2_PLACEMENT_3D ( 'NONE', #3, #295, #223 ) ;
#129 =( LENGTH_UNIT ( ) NAMED_UNIT ( * ) SI_UNIT ( $, .METRE. ) );
#130 = VERTEX_POINT ( 'NONE', #2 ) ;
#131 = PRODUCT_DEFINITION_SHAPE ( 'NONE', 'NONE',  #177 ) ;
#132 = EDGE_LOOP ( 'NONE', ( #95, #259, #27, #329 ) ) ;
#133 = LENGTH_MEASURE_WITH_UNIT ( LENGTH_MEASURE( 0.02539999999999999897 ), #26 );
#134 = PRODUCT_DEFINITION_FORMATION_WITH_SPECIFIED_SOURCE ( 'ANY', '', #264, .NOT_KNOWN. ) ;
#135 = ADVANCED_FACE ( 'NONE', ( #217 ), #297, .T. ) ;
#136 = FACE_OUTER_BOUND ( 'NONE', #108, .T. ) ;
#137 = AXIS2_PLACEMENT_3D ( 'NONE', #71, #15, #124 ) ;
#138 = FACE_OUTER_BOUND ( 'NONE', #65, .T. ) ;
#139 = ORIENTED_EDGE ( 'NONE', *, *, #16, .F. ) ;
#140 = PRODUCT_DEFINITION_CONTEXT ( 'detailed design', #176, 'design' ) ;
#141 = ORIENTED_EDGE ( 'NONE', *, *, #160, .F. ) ;
#142 = DIRECTION ( 'NONE',  ( -0.0000000000000000000, -0.0000000000000000000, -1.000000000000000000 ) ) ;
#143 = ORIENTED_EDGE ( 'NONE', *, *, #19, .F. ) ;
#144 = CARTESIAN_POINT ( 'NONE',  ( -0.1250000000000000000, 0.0000000000000000000, 2.500000000000000000 ) ) ;
#145 = CIRCLE ( 'NONE', #112, 0.1248749999999999999 ) ;
#146 = UNCERTAINTY_MEASURE_WITH_UNIT (LENGTH_MEASURE( 1.000000000000000082E-05 ), #321, 'distance_accuracy_value', 'NONE');
#147 = LINE ( 'NONE', #252, #190 ) ;
#148 = LINE ( 'NONE', #32, #198 ) ;
#149 = EDGE_CURVE ( 'NONE', #273, #348, #270, .T. ) ;
#150 = DIRECTION ( 'NONE',  ( -1.000000000000000000, 0.0000000000000000000, 0.0000000000000000000 ) ) ;
#151 = CONICAL_SURFACE ( 'NONE', #244, 0.1100000000000001948, 0.7853981633974517207 ) ;
#152 = DIRECTION ( 'NONE',  ( 1.000000000000000000, 0.0000000000000000000, -0.0000000000000000000 ) ) ;
#153 = AXIS2_PLACEMENT_3D ( 'NONE', #68, #333, #171 ) ;
#154 = EDGE_CURVE ( 'NONE', #111, #273, #25, .T. ) ;
#155 = ORIENTED_EDGE ( 'NONE', *, *, #72, .T. ) ;
#156 = VERTEX_POINT ( 'NONE', #35 ) ;
#157 = CIRCLE ( 'NONE', #12, 0.1148750000000000049 ) ;
#158 = SURFACE_SIDE_STYLE ('',( #56 ) ) ;
#159 = ORIENTED_EDGE ( 'NONE', *, *, #187, .T. ) ;
#160 = EDGE_CURVE ( 'NONE', #156, #11, #157, .T. ) ;
#161 = DIRECTION ( 'NONE',  ( -0.0000000000000000000, -0.0000000000000000000, -1.000000000000000000 ) ) ;
#162 = DIRECTION ( 'NONE',  ( 1.000000000000000000, 0.0000000000000000000, 0.0000000000000000000 ) ) ;
#163 = CARTESIAN_POINT ( 'NONE',  ( -0.1100000000000001948, 0.0000000000000000000, 2.500000000000000000 ) ) ;
#164 = CONICAL_SURFACE ( 'NONE', #153, 0.1248749999999999999, 0.1745329251994338082 ) ;
#165 = ORIENTED_EDGE ( 'NONE', *, *, #154, .F. ) ;
#166 = EDGE_LOOP ( 'NONE', ( #202, #214 ) ) ;
#167 = DIRECTION ( 'NONE',  ( -0.0000000000000000000, -0.0000000000000000000, -1.000000000000000000 ) ) ;
#168 = DIRECTION ( 'NONE',  ( 1.000000000000000000, 0.0000000000000000000, 0.0000000000000000000 ) ) ;
#169 = CARTESIAN_POINT ( 'NONE',  ( 0.1100000000000001948, 1.347111479062090784E-17, 2.500000000000000000 ) ) ;
#170 = LINE ( 'NONE', #172, #226 ) ;
#171 = DIRECTION ( 'NONE',  ( 1.000000000000000000, 0.0000000000000000000, 0.0000000000000000000 ) ) ;
#172 = CARTESIAN_POINT ( 'NONE',  ( -0.1248749999999999166, 1.529277690435257475E-17, 0.7500000000000001110 ) ) ;
#173 = AXIS2_PLACEMENT_3D ( 'NONE', #250, #84, #326 ) ;
#174 = UNCERTAINTY_MEASURE_WITH_UNIT (LENGTH_MEASURE( 1.000000000000000082E-05 ), #232, 'distance_accuracy_value', 'NONE');
#175 = ORIENTED_EDGE ( 'NONE', *, *, #105, .T. ) ;
#176 = APPLICATION_CONTEXT ( 'automotive_design' ) ;
#177 = PRODUCT_DEFINITION ( 'UNKNOWN', '', #134, #140 ) ;
#178 = APPLICATION_PROTOCOL_DEFINITION ( 'draft international standard', 'automotive_design', 1998, #176 ) ;
#179 = DIMENSIONAL_EXPONENTS ( 1.000000000000000000, 0.0000000000000000000, 0.0000000000000000000, 0.0000000000000000000, 0.0000000000000000000, 0.0000000000000000000, 0.0000000000000000000 ) ;
#180 = MANIFOLD_SOLID_BREP ( 'Fillet1', #231 ) ;
#181 = CARTESIAN_POINT ( 'NONE',  ( 1.224646799147353384E-18, 0.0000000000000000000, 0.0000000000000000000 ) ) ;
#182 = DIRECTION ( 'NONE',  ( 0.0000000000000000000, 0.0000000000000000000, 1.000000000000000000 ) ) ;
#183 = FACE_OUTER_BOUND ( 'NONE', #76, .T. ) ;
#184 = EDGE_LOOP ( 'NONE', ( #141, #304, #332, #316 ) ) ;
#185 = ORIENTED_EDGE ( 'NONE', *, *, #72, .F. ) ;
#186 = MECHANICAL_DESIGN_GEOMETRIC_PRESENTATION_REPRESENTATION (  '', ( #337 ), #39 ) ;
#187 = EDGE_CURVE ( 'NONE', #288, #130, #60, .T. ) ;
#188 = SURFACE_STYLE_USAGE ( .BOTH. , #158 ) ;
#189 = AXIS2_PLACEMENT_3D ( 'NONE', #269, #29, #7 ) ;
#190 = VECTOR ( 'NONE', #230, 39.37007874015748143 ) ;
#191 = FILL_AREA_STYLE_COLOUR ( '', #209 ) ;
#192 = DIRECTION ( 'NONE',  ( 0.0000000000000000000, 0.0000000000000000000, 1.000000000000000000 ) ) ;
#193 = DIRECTION ( 'NONE',  ( -0.7071067811865499042, 0.0000000000000000000, -0.7071067811865451302 ) ) ;
#194 = CARTESIAN_POINT ( 'NONE',  ( 0.1250000000000000833, 1.530808498934192433E-17, 0.7507089102274522308 ) ) ;
#195 = LINE ( 'NONE', #163, #330 ) ;
#196 = CARTESIAN_POINT ( 'NONE',  ( 0.1250000000000000000, 1.530808498934191509E-17, 2.500000000000000000 ) ) ;
#197 = CYLINDRICAL_SURFACE ( 'NONE', #278, 0.1248749999999999999 ) ;
#198 = VECTOR ( 'NONE', #204, 39.37007874015748143 ) ;
#199 = AXIS2_PLACEMENT_3D ( 'NONE', #339, #100, #150 ) ;
#200 = EDGE_LOOP ( 'NONE', ( #318, #106, #275, #248 ) ) ;
#201 = DIRECTION ( 'NONE',  ( -1.224646799147353207E-16, -0.0000000000000000000, -1.000000000000000000 ) ) ;
#202 = ORIENTED_EDGE ( 'NONE', *, *, #31, .T. ) ;
#203 = DIRECTION ( 'NONE',  ( 0.7071067811865499042, 8.659560562354961208E-17, -0.7071067811865451302 ) ) ;
#204 = DIRECTION ( 'NONE',  ( -1.224646799147353207E-16, -0.0000000000000000000, -1.000000000000000000 ) ) ;
#205 = PRESENTATION_LAYER_ASSIGNMENT (  '', '', ( #337 ) ) ;
#206 =( CONVERSION_BASED_UNIT ( 'INCH', #347 ) LENGTH_UNIT ( ) NAMED_UNIT ( #235 ) );
#207 = ADVANCED_FACE ( 'NONE', ( #53 ), #119, .T. ) ;
#208 = APPLICATION_PROTOCOL_DEFINITION ( 'draft international standard', 'automotive_design', 1998, #241 ) ;
#209 = COLOUR_RGB ( '',0.7921568627450980005, 0.8196078431372548767, 0.9333333333333333481 ) ;
#210 = PLANE ( 'NONE',  #312 ) ;
#211 = CARTESIAN_POINT ( 'NONE',  ( 9.184850993605150903E-17, 0.0000000000000000000, 0.7500000000000001110 ) ) ;
#212 = VERTEX_POINT ( 'NONE', #280 ) ;
#213 = ADVANCED_FACE ( 'NONE', ( #40 ), #197, .T. ) ;
#214 = ORIENTED_EDGE ( 'NONE', *, *, #160, .T. ) ;
#215 = AXIS2_PLACEMENT_3D ( 'NONE', #303, #66, #38 ) ;
#216 = EDGE_CURVE ( 'NONE', #11, #37, #104, .T. ) ;
#217 = FACE_OUTER_BOUND ( 'NONE', #263, .T. ) ;
#218 = AXIS2_PLACEMENT_3D ( 'NONE', #246, #109, #58 ) ;
#219 =( GEOMETRIC_REPRESENTATION_CONTEXT ( 3 ) GLOBAL_UNCERTAINTY_ASSIGNED_CONTEXT ( ( #174 ) ) GLOBAL_UNIT_ASSIGNED_CONTEXT ( ( #232, #125, #285 ) ) REPRESENTATION_CONTEXT ( 'NONE', 'WORKASPACE' ) );
#220 = DIRECTION ( 'NONE',  ( 1.224646799147353207E-16, 1.000000000000000000, -0.0000000000000000000 ) ) ;
#221 = EDGE_CURVE ( 'NONE', #37, #265, #145, .T. ) ;
#222 = DIRECTION ( 'NONE',  ( 0.0000000000000000000, 0.0000000000000000000, -1.000000000000000000 ) ) ;
#223 = DIRECTION ( 'NONE',  ( 1.000000000000000000, 0.0000000000000000000, 0.0000000000000000000 ) ) ;
#224 = ORIENTED_EDGE ( 'NONE', *, *, #221, .T. ) ;
#225 = CARTESIAN_POINT ( 'NONE',  ( 0.0000000000000000000, 0.0000000000000000000, 0.0000000000000000000 ) ) ;
#226 = VECTOR ( 'NONE', #236, 39.37007874015747433 ) ;
#227 = LINE ( 'NONE', #281, #110 ) ;
#228 = ORIENTED_EDGE ( 'NONE', *, *, #105, .F. ) ;
#229 = CARTESIAN_POINT ( 'NONE',  ( 1.224646799147353577E-18, 0.0000000000000000000, 0.01000000000000000194 ) ) ;
#230 = DIRECTION ( 'NONE',  ( -1.224646799147353207E-16, -0.0000000000000000000, -1.000000000000000000 ) ) ;
#231 = CLOSED_SHELL ( 'NONE', ( #340, #325, #78, #350, #135, #207, #126, #282, #260, #213, #69, #342 ) ) ;
#232 =( CONVERSION_BASED_UNIT ( 'INCH', #45 ) LENGTH_UNIT ( ) NAMED_UNIT ( #179 ) );
#233 = CIRCLE ( 'NONE', #21, 0.1148750000000000049 ) ;
#234 = FILL_AREA_STYLE_COLOUR ( '', #258 ) ;
#235 = DIMENSIONAL_EXPONENTS ( 1.000000000000000000, 0.0000000000000000000, 0.0000000000000000000, 0.0000000000000000000, 0.0000000000000000000, 0.0000000000000000000, 0.0000000000000000000 ) ;
#236 = DIRECTION ( 'NONE',  ( -0.1736481776669311083, 2.126576849575782084E-17, 0.9848077530122080203 ) ) ;
#237 = PRESENTATION_STYLE_ASSIGNMENT (( #188 ) ) ;
#238 = ORIENTED_EDGE ( 'NONE', *, *, #31, .F. ) ;
#239 = CIRCLE ( 'NONE', #189, 0.1250000000000000000 ) ;
#240 = AXIS2_PLACEMENT_3D ( 'NONE', #306, #33, #57 ) ;
#241 = APPLICATION_CONTEXT ( 'automotive_design' ) ;
#242 = DIRECTION ( 'NONE',  ( 0.0000000000000000000, 0.0000000000000000000, 1.000000000000000000 ) ) ;
#243 = EDGE_CURVE ( 'NONE', #130, #288, #308, .T. ) ;
#244 = AXIS2_PLACEMENT_3D ( 'NONE', #247, #222, #272 ) ;
#245 = TOROIDAL_SURFACE ( 'NONE', #320, 0.1148750000000000049, 0.01000000000000000021 ) ;
#246 = CARTESIAN_POINT ( 'NONE',  ( 0.0000000000000000000, 0.0000000000000000000, 2.500000000000000000 ) ) ;
#247 = CARTESIAN_POINT ( 'NONE',  ( 0.0000000000000000000, 0.0000000000000000000, 2.500000000000000000 ) ) ;
#248 = ORIENTED_EDGE ( 'NONE', *, *, #102, .F. ) ;
#249 = DIRECTION ( 'NONE',  ( -1.224646799147353207E-16, -0.0000000000000000000, -1.000000000000000000 ) ) ;
#250 = CARTESIAN_POINT ( 'NONE',  ( 9.193532640014472135E-17, 0.0000000000000000000, 0.7507089102274522308 ) ) ;
#251 = EDGE_LOOP ( 'NONE', ( #18, #9, #117, #139 ) ) ;
#252 = CARTESIAN_POINT ( 'NONE',  ( -0.1248749999999999999, 0.0000000000000000000, 1.529277690435257475E-17 ) ) ;
#253 = EDGE_CURVE ( 'NONE', #34, #265, #147, .T. ) ;
#254 = CARTESIAN_POINT ( 'NONE',  ( 0.1100000000000001948, 1.438959988998141146E-17, 2.500000000000000000 ) ) ;
#255 = DIRECTION ( 'NONE',  ( 1.000000000000000000, 0.0000000000000000000, 0.0000000000000000000 ) ) ;
#256 = VECTOR ( 'NONE', #142, 39.37007874015748143 ) ;
#257 = AXIS2_PLACEMENT_3D ( 'NONE', #305, #220, #88 ) ;
#258 = COLOUR_RGB ( '',0.7921568627450980005, 0.8196078431372548767, 0.9333333333333333481 ) ;
#259 = ORIENTED_EDGE ( 'NONE', *, *, #28, .T. ) ;
#260 = ADVANCED_FACE ( 'NONE', ( #138 ), #164, .T. ) ;
#261 = CARTESIAN_POINT ( 'NONE',  ( 0.1248749999999999999, 1.529277690435257475E-17, 0.01000000000000000194 ) ) ;
#262 = SHAPE_DEFINITION_REPRESENTATION ( #131, #97 ) ;
#263 = EDGE_LOOP ( 'NONE', ( #81, #54, #228, #50 ) ) ;
#264 = PRODUCT ( 'Micro_GEC-250-4-010X', 'Micro_GEC-250-4-010X', '', ( #317 ) ) ;
#265 = VERTEX_POINT ( 'NONE', #36 ) ;
#266 = AXIS2_PLACEMENT_3D ( 'NONE', #63, #86, #87 ) ;
#267 =( NAMED_UNIT ( * ) SI_UNIT ( $, .STERADIAN. ) SOLID_ANGLE_UNIT ( ) );
#268 = CARTESIAN_POINT ( 'NONE',  ( -0.1250000000000000000, 0.0000000000000000000, 2.485000000000000320 ) ) ;
#269 = CARTESIAN_POINT ( 'NONE',  ( 9.193532640014472135E-17, 0.0000000000000000000, 0.7507089102274522308 ) ) ;
#270 = LINE ( 'NONE', #196, #74 ) ;
#271 = AXIS2_PLACEMENT_3D ( 'NONE', #323, #192, #118 ) ;
#272 = DIRECTION ( 'NONE',  ( -1.000000000000000000, 0.0000000000000000000, 0.0000000000000000000 ) ) ;
#273 = VERTEX_POINT ( 'NONE', #41 ) ;
#274 = DIRECTION ( 'NONE',  ( 0.0000000000000000000, 0.0000000000000000000, -1.000000000000000000 ) ) ;
#275 = ORIENTED_EDGE ( 'NONE', *, *, #101, .T. ) ;
#276 = DIRECTION ( 'NONE',  ( -1.000000000000000000, 0.0000000000000000000, 1.224646799147353454E-16 ) ) ;
#277 = CARTESIAN_POINT ( 'NONE',  ( 0.0000000000000000000, 0.0000000000000000000, 2.500000000000000000 ) ) ;
#278 = AXIS2_PLACEMENT_3D ( 'NONE', #225, #249, #64 ) ;
#279 = DIRECTION ( 'NONE',  ( -1.000000000000000000, 0.0000000000000000000, 0.0000000000000000000 ) ) ;
#280 = CARTESIAN_POINT ( 'NONE',  ( -0.1249999999999999167, 0.0000000000000000000, 0.7507089102274522308 ) ) ;
#281 = CARTESIAN_POINT ( 'NONE',  ( 0.1248750000000000970, 0.0000000000000000000, 0.7500000000000001110 ) ) ;
#282 = ADVANCED_FACE ( 'NONE', ( #331 ), #151, .T. ) ;
#283 = FILL_AREA_STYLE ('',( #234 ) ) ;
#284 = CIRCLE ( 'NONE', #128, 0.1250000000000000000 ) ;
#285 =( NAMED_UNIT ( * ) SI_UNIT ( $, .STERADIAN. ) SOLID_ANGLE_UNIT ( ) );
#286 = DIRECTION ( 'NONE',  ( 1.000000000000000000, 0.0000000000000000000, 0.0000000000000000000 ) ) ;
#287 = DIRECTION ( 'NONE',  ( 1.000000000000000000, 0.0000000000000000000, 0.0000000000000000000 ) ) ;
#288 = VERTEX_POINT ( 'NONE', #254 ) ;
#289 = SURFACE_STYLE_USAGE ( .BOTH. , #20 ) ;
#290 = CIRCLE ( 'NONE', #137, 0.1248749999999999999 ) ;
#291 = EDGE_LOOP ( 'NONE', ( #296, #238, #46, #51 ) ) ;
#292 = DIRECTION ( 'NONE',  ( 1.000000000000000000, 0.0000000000000000000, 0.0000000000000000000 ) ) ;
#293 = AXIS2_PLACEMENT_3D ( 'NONE', #8, #300, #274 ) ;
#294 = FILL_AREA_STYLE ('',( #191 ) ) ;
#295 = DIRECTION ( 'NONE',  ( 0.0000000000000000000, 0.0000000000000000000, -1.000000000000000000 ) ) ;
#296 = ORIENTED_EDGE ( 'NONE', *, *, #338, .F. ) ;
#297 = CYLINDRICAL_SURFACE ( 'NONE', #218, 0.1250000000000000000 ) ;
#298 = CARTESIAN_POINT ( 'NONE',  ( 1.224646799147353384E-18, 0.0000000000000000000, 0.01000000000000000021 ) ) ;
#299 = ORIENTED_EDGE ( 'NONE', *, *, #328, .T. ) ;
#300 = DIRECTION ( 'NONE',  ( 0.0000000000000000000, -1.000000000000000000, 0.0000000000000000000 ) ) ;
#301 = ORIENTED_EDGE ( 'NONE', *, *, #187, .F. ) ;
#302 = DIRECTION ( 'NONE',  ( -0.0000000000000000000, -0.0000000000000000000, -1.000000000000000000 ) ) ;
#303 = CARTESIAN_POINT ( 'NONE',  ( 0.0000000000000000000, 0.0000000000000000000, 2.500000000000000000 ) ) ;
#304 = ORIENTED_EDGE ( 'NONE', *, *, #338, .T. ) ;
#305 = CARTESIAN_POINT ( 'NONE',  ( -0.1148750000000000049, 1.406813010520522117E-17, 0.01000000000000000021 ) ) ;
#306 = CARTESIAN_POINT ( 'NONE',  ( 1.224646799147353577E-18, 0.0000000000000000000, 0.01000000000000000194 ) ) ;
#307 = DIRECTION ( 'NONE',  ( -1.000000000000000000, 0.0000000000000000000, 0.0000000000000000000 ) ) ;
#308 = CIRCLE ( 'NONE', #215, 0.1100000000000001948 ) ;
#309 =( GEOMETRIC_REPRESENTATION_CONTEXT ( 3 ) GLOBAL_UNCERTAINTY_ASSIGNED_CONTEXT ( ( #336 ) ) GLOBAL_UNIT_ASSIGNED_CONTEXT ( ( #206, #73, #310 ) ) REPRESENTATION_CONTEXT ( 'NONE', 'WORKASPACE' ) );
#310 =( NAMED_UNIT ( * ) SI_UNIT ( $, .STERADIAN. ) SOLID_ANGLE_UNIT ( ) );
#311 = EDGE_CURVE ( 'NONE', #111, #212, #93, .T. ) ;
#312 = AXIS2_PLACEMENT_3D ( 'NONE', #335, #44, #152 ) ;
#313 = CARTESIAN_POINT ( 'NONE',  ( 9.184850993605150903E-17, 0.0000000000000000000, 0.7500000000000001110 ) ) ;
#314 = EDGE_CURVE ( 'NONE', #288, #273, #96, .T. ) ;
#315 = DIRECTION ( 'NONE',  ( 1.224646799147353207E-16, 0.0000000000000000000, 1.000000000000000000 ) ) ;
#316 = ORIENTED_EDGE ( 'NONE', *, *, #216, .F. ) ;
#317 = PRODUCT_CONTEXT ( 'NONE', #241, 'mechanical' ) ;
#318 = ORIENTED_EDGE ( 'NONE', *, *, #314, .F. ) ;
#319 = CONICAL_SURFACE ( 'NONE', #42, 0.1248749999999999999, 0.1745329251994338082 ) ;
#320 = AXIS2_PLACEMENT_3D ( 'NONE', #98, #324, #122 ) ;
#321 =( CONVERSION_BASED_UNIT ( 'INCH', #133 ) LENGTH_UNIT ( ) NAMED_UNIT ( #114 ) );
#322 = EDGE_CURVE ( 'NONE', #34, #22, #290, .T. ) ;
#323 = CARTESIAN_POINT ( 'NONE',  ( 0.0000000000000000000, 0.0000000000000000000, 2.500000000000000000 ) ) ;
#324 = DIRECTION ( 'NONE',  ( 0.0000000000000000000, 0.0000000000000000000, 1.000000000000000000 ) ) ;
#325 = ADVANCED_FACE ( 'NONE', ( #115 ), #10, .T. ) ;
#326 = DIRECTION ( 'NONE',  ( 1.000000000000000000, 0.0000000000000000000, 0.0000000000000000000 ) ) ;
#327 = CARTESIAN_POINT ( 'NONE',  ( 0.0000000000000000000, 0.0000000000000000000, 0.0000000000000000000 ) ) ;
#328 = EDGE_CURVE ( 'NONE', #22, #37, #148, .T. ) ;
#329 = ORIENTED_EDGE ( 'NONE', *, *, #80, .T. ) ;
#330 = VECTOR ( 'NONE', #193, 39.37007874015748143 ) ;
#331 = FACE_OUTER_BOUND ( 'NONE', #200, .T. ) ;
#332 = ORIENTED_EDGE ( 'NONE', *, *, #221, .F. ) ;
#333 = DIRECTION ( 'NONE',  ( 1.224646799147353207E-16, 0.0000000000000000000, 1.000000000000000000 ) ) ;
#334 = FACE_OUTER_BOUND ( 'NONE', #291, .T. ) ;
#335 = CARTESIAN_POINT ( 'NONE',  ( 0.0000000000000000000, 0.0000000000000000000, 0.0000000000000000000 ) ) ;
#336 = UNCERTAINTY_MEASURE_WITH_UNIT (LENGTH_MEASURE( 1.000000000000000082E-05 ), #206, 'distance_accuracy_value', 'NONE');
#337 = STYLED_ITEM ( 'NONE', ( #237 ), #180 ) ;
#338 = EDGE_CURVE ( 'NONE', #156, #265, #120, .T. ) ;
#339 = CARTESIAN_POINT ( 'NONE',  ( 0.0000000000000000000, 0.0000000000000000000, 2.500000000000000000 ) ) ;
#340 = ADVANCED_FACE ( 'NONE', ( #14 ), #245, .T. ) ;
#341 = SURFACE_STYLE_FILL_AREA ( #283 ) ;
#342 = ADVANCED_FACE ( 'NONE', ( #334 ), #5, .T. ) ;
#343 = PRESENTATION_STYLE_ASSIGNMENT (( #289 ) ) ;
#344 = CIRCLE ( 'NONE', #99, 0.1248749999999999999 ) ;
#345 = EDGE_LOOP ( 'NONE', ( #24, #155, #175, #143 ) ) ;
#346 = FACE_OUTER_BOUND ( 'NONE', #345, .T. ) ;
#347 = LENGTH_MEASURE_WITH_UNIT ( LENGTH_MEASURE( 0.02539999999999999897 ), #127 );
#348 = VERTEX_POINT ( 'NONE', #194 ) ;
#349 = EDGE_LOOP ( 'NONE', ( #48, #299, #224, #85 ) ) ;
#350 = ADVANCED_FACE ( 'NONE', ( #183 ), #61, .T. ) ;
#351 = STYLED_ITEM ( 'NONE', ( #343 ), #97 ) ;
ENDSEC;
END-ISO-10303-21;
