ISO-10303-21;
HEADER;
FILE_DESCRIPTION (( 'STEP AP214' ),
    '1' );
FILE_NAME ('Micro_SEM-281-04X.STEP',
    '2021-09-02T02:44:14',
    ( '' ),
    ( '' ),
    'SwSTEP 2.0',
    'SolidWorks 2020',
    '' );
FILE_SCHEMA (( 'AUTOMOTIVE_DESIGN' ));
ENDSEC;

DATA;
#1 = CLOSED_SHELL ( 'NONE', ( #227, #84, #26, #257, #263, #43, #179, #20, #109, #77 ) ) ;
#2 = CIRCLE ( 'NONE', #192, 0.1412499999999997646 ) ;
#3 = APPLICATION_CONTEXT ( 'automotive_design' ) ;
#4 = EDGE_CURVE ( 'NONE', #16, #9, #65, .T. ) ;
#5 = CARTESIAN_POINT ( 'NONE',  ( 0.1412499999999997646, 1.729813603795632883E-17, 2.000000000000000000 ) ) ;
#6 = AXIS2_PLACEMENT_3D ( 'NONE', #55, #119, #213 ) ;
#7 = ORIENTED_EDGE ( 'NONE', *, *, #52, .T. ) ;
#8 = DIRECTION ( 'NONE',  ( -1.000000000000000000, 0.0000000000000000000, 1.224646799147353207E-16 ) ) ;
#9 = VERTEX_POINT ( 'NONE', #157 ) ;
#10 = CARTESIAN_POINT ( 'NONE',  ( 0.0000000000000000000, 0.0000000000000000000, 2.000000000000000000 ) ) ;
#11 = VERTEX_POINT ( 'NONE', #250 ) ;
#12 = DIRECTION ( 'NONE',  ( 1.224646799147353207E-16, 0.0000000000000000000, 1.000000000000000000 ) ) ;
#13 = CIRCLE ( 'NONE', #177, 0.1404594000000000120 ) ;
#14 = EDGE_LOOP ( 'NONE', ( #59, #229, #228, #178 ) ) ;
#15 = EDGE_CURVE ( 'NONE', #203, #247, #169, .T. ) ;
#16 = VERTEX_POINT ( 'NONE', #139 ) ;
#17 = AXIS2_PLACEMENT_3D ( 'NONE', #39, #153, #256 ) ;
#18 =( GEOMETRIC_REPRESENTATION_CONTEXT ( 3 ) GLOBAL_UNCERTAINTY_ASSIGNED_CONTEXT ( ( #107 ) ) GLOBAL_UNIT_ASSIGNED_CONTEXT ( ( #89, #29, #95 ) ) REPRESENTATION_CONTEXT ( 'NONE', 'WORKASPACE' ) );
#19 = AXIS2_PLACEMENT_3D ( 'NONE', #226, #147, #38 ) ;
#20 = ADVANCED_FACE ( 'NONE', ( #291 ), #237, .T. ) ;
#21 = VERTEX_POINT ( 'NONE', #42 ) ;
#22 = CARTESIAN_POINT ( 'NONE',  ( 0.0000000000000000000, 0.0000000000000000000, 2.000000000000000000 ) ) ;
#23 = PRESENTATION_LAYER_ASSIGNMENT (  '', '', ( #238 ) ) ;
#24 = CARTESIAN_POINT ( 'NONE',  ( 0.1404594000000000953, 0.0000000000000000000, 0.5000000000000000000 ) ) ;
#25 = LINE ( 'NONE', #71, #47 ) ;
#26 = ADVANCED_FACE ( 'NONE', ( #64 ), #252, .T. ) ;
#27 = LENGTH_MEASURE_WITH_UNIT ( LENGTH_MEASURE( 0.02539999999999999897 ), #100 );
#28 = CARTESIAN_POINT ( 'NONE',  ( 0.1562500000000000000, 1.913510623667739463E-17, 1.984999999999999654 ) ) ;
#29 =( NAMED_UNIT ( * ) PLANE_ANGLE_UNIT ( ) SI_UNIT ( $, .RADIAN. ) );
#30 =( LENGTH_UNIT ( ) NAMED_UNIT ( * ) SI_UNIT ( $, .METRE. ) );
#31 = DIRECTION ( 'NONE',  ( 1.000000000000000000, 0.0000000000000000000, 0.0000000000000000000 ) ) ;
#32 = AXIS2_PLACEMENT_3D ( 'NONE', #97, #236, #31 ) ;
#33 = EDGE_CURVE ( 'NONE', #289, #203, #272, .T. ) ;
#34 = CIRCLE ( 'NONE', #82, 0.1562500000000000000 ) ;
#35 = ORIENTED_EDGE ( 'NONE', *, *, #214, .F. ) ;
#36 = DIRECTION ( 'NONE',  ( -0.1736481776669311639, 2.126576849575783008E-17, 0.9848077530122080203 ) ) ;
#37 = EDGE_LOOP ( 'NONE', ( #221, #176, #155, #198 ) ) ;
#38 = DIRECTION ( 'NONE',  ( -1.000000000000000000, 0.0000000000000000000, 1.224646799147353207E-16 ) ) ;
#39 = CARTESIAN_POINT ( 'NONE',  ( 0.0000000000000000000, 0.0000000000000000000, 0.0000000000000000000 ) ) ;
#40 = ORIENTED_EDGE ( 'NONE', *, *, #271, .F. ) ;
#41 = ORIENTED_EDGE ( 'NONE', *, *, #292, .T. ) ;
#42 = CARTESIAN_POINT ( 'NONE',  ( 0.1412499999999997646, 1.821662113731686019E-17, 2.000000000000000000 ) ) ;
#43 = ADVANCED_FACE ( 'NONE', ( #141 ), #96, .T. ) ;
#44 = AXIS2_PLACEMENT_3D ( 'NONE', #10, #279, #206 ) ;
#45 = FACE_OUTER_BOUND ( 'NONE', #173, .T. ) ;
#46 = CARTESIAN_POINT ( 'NONE',  ( 7.219941242065049268E-17, 0.0000000000000000000, 0.5895529427008547874 ) ) ;
#47 = VECTOR ( 'NONE', #260, 39.37007874015748143 ) ;
#48 = DIRECTION ( 'NONE',  ( 0.0000000000000000000, 0.0000000000000000000, 1.000000000000000000 ) ) ;
#49 = CARTESIAN_POINT ( 'NONE',  ( 0.0000000000000000000, 0.0000000000000000000, 2.000000000000000000 ) ) ;
#50 = CARTESIAN_POINT ( 'NONE',  ( 2.106553592168149428E-33, 0.0000000000000000000, 1.720131546201577623E-17 ) ) ;
#51 = CYLINDRICAL_SURFACE ( 'NONE', #66, 0.1562500000000000000 ) ;
#52 = EDGE_CURVE ( 'NONE', #289, #16, #202, .T. ) ;
#53 = DIRECTION ( 'NONE',  ( -0.0000000000000000000, -0.0000000000000000000, -1.000000000000000000 ) ) ;
#54 = CARTESIAN_POINT ( 'NONE',  ( -0.1412499999999997646, 0.0000000000000000000, 2.000000000000000000 ) ) ;
#55 = CARTESIAN_POINT ( 'NONE',  ( 0.0000000000000000000, 0.0000000000000000000, 0.0000000000000000000 ) ) ;
#56 = DIRECTION ( 'NONE',  ( 0.7071067811865475727, 8.659560562354932858E-17, -0.7071067811865474617 ) ) ;
#57 = VECTOR ( 'NONE', #123, 39.37007874015748143 ) ;
#58 = MANIFOLD_SOLID_BREP ( 'Cut-Revolve1', #1 ) ;
#59 = ORIENTED_EDGE ( 'NONE', *, *, #234, .F. ) ;
#60 = CARTESIAN_POINT ( 'NONE',  ( 6.123233995736766036E-17, 0.0000000000000000000, 0.5000000000000000000 ) ) ;
#61 = ORIENTED_EDGE ( 'NONE', *, *, #234, .T. ) ;
#62 = EDGE_CURVE ( 'NONE', #247, #203, #34, .T. ) ;
#63 = ORIENTED_EDGE ( 'NONE', *, *, #33, .F. ) ;
#64 = FACE_OUTER_BOUND ( 'NONE', #290, .T. ) ;
#65 = LINE ( 'NONE', #277, #232 ) ;
#66 = AXIS2_PLACEMENT_3D ( 'NONE', #188, #91, #255 ) ;
#67 = CARTESIAN_POINT ( 'NONE',  ( 6.123233995736766036E-17, 0.0000000000000000000, 0.5000000000000000000 ) ) ;
#68 =( GEOMETRIC_REPRESENTATION_CONTEXT ( 3 ) GLOBAL_UNCERTAINTY_ASSIGNED_CONTEXT ( ( #101 ) ) GLOBAL_UNIT_ASSIGNED_CONTEXT ( ( #133, #117, #275 ) ) REPRESENTATION_CONTEXT ( 'NONE', 'WORKASPACE' ) );
#69 = CARTESIAN_POINT ( 'NONE',  ( 0.0000000000000000000, 0.0000000000000000000, 2.000000000000000000 ) ) ;
#70 = FILL_AREA_STYLE_COLOUR ( '', #175 ) ;
#71 = CARTESIAN_POINT ( 'NONE',  ( 0.1404594000000000120, 1.720131546201577623E-17, -1.720131546201577623E-17 ) ) ;
#72 = CONICAL_SURFACE ( 'NONE', #282, 0.1404594000000000120, 0.1745329251994338637 ) ;
#73 = FACE_OUTER_BOUND ( 'NONE', #210, .T. ) ;
#74 = CYLINDRICAL_SURFACE ( 'NONE', #136, 0.1404594000000000120 ) ;
#75 = PRODUCT ( 'Micro_SEM-281-04X', 'Micro_SEM-281-04X', '', ( #299 ) ) ;
#76 = LINE ( 'NONE', #152, #104 ) ;
#77 = ADVANCED_FACE ( 'NONE', ( #45 ), #138, .F. ) ;
#78 = ORIENTED_EDGE ( 'NONE', *, *, #246, .T. ) ;
#79 = VERTEX_POINT ( 'NONE', #28 ) ;
#80 = VECTOR ( 'NONE', #53, 39.37007874015748143 ) ;
#81 = CARTESIAN_POINT ( 'NONE',  ( 0.1562500000000000833, 1.913510623667740080E-17, 0.5895529427008547874 ) ) ;
#82 = AXIS2_PLACEMENT_3D ( 'NONE', #280, #160, #156 ) ;
#83 = ORIENTED_EDGE ( 'NONE', *, *, #98, .T. ) ;
#84 = ADVANCED_FACE ( 'NONE', ( #184 ), #72, .T. ) ;
#85 = ORIENTED_EDGE ( 'NONE', *, *, #62, .T. ) ;
#86 = ORIENTED_EDGE ( 'NONE', *, *, #15, .F. ) ;
#87 = VECTOR ( 'NONE', #161, 39.37007874015748143 ) ;
#88 = DIRECTION ( 'NONE',  ( 1.000000000000000000, 0.0000000000000000000, 0.0000000000000000000 ) ) ;
#89 =( CONVERSION_BASED_UNIT ( 'INCH', #27 ) LENGTH_UNIT ( ) NAMED_UNIT ( #215 ) );
#90 = CARTESIAN_POINT ( 'NONE',  ( 0.0000000000000000000, 0.0000000000000000000, 2.000000000000000000 ) ) ;
#91 = DIRECTION ( 'NONE',  ( -0.0000000000000000000, -0.0000000000000000000, -1.000000000000000000 ) ) ;
#92 = COLOUR_RGB ( '',0.7921568627450980005, 0.8196078431372548767, 0.9333333333333333481 ) ;
#93 = CIRCLE ( 'NONE', #244, 0.1562500000000000000 ) ;
#94 = LENGTH_MEASURE_WITH_UNIT ( LENGTH_MEASURE( 0.02539999999999999897 ), #30 );
#95 =( NAMED_UNIT ( * ) SI_UNIT ( $, .STERADIAN. ) SOLID_ANGLE_UNIT ( ) );
#96 = PLANE ( 'NONE',  #218 ) ;
#97 = CARTESIAN_POINT ( 'NONE',  ( 0.0000000000000000000, 0.0000000000000000000, 2.000000000000000000 ) ) ;
#98 = EDGE_CURVE ( 'NONE', #225, #9, #276, .T. ) ;
#99 = APPLICATION_PROTOCOL_DEFINITION ( 'draft international standard', 'automotive_design', 1998, #3 ) ;
#100 =( LENGTH_UNIT ( ) NAMED_UNIT ( * ) SI_UNIT ( $, .METRE. ) );
#101 = UNCERTAINTY_MEASURE_WITH_UNIT (LENGTH_MEASURE( 1.000000000000000082E-05 ), #133, 'distance_accuracy_value', 'NONE');
#102 = LENGTH_MEASURE_WITH_UNIT ( LENGTH_MEASURE( 0.02539999999999999897 ), #103 );
#103 =( LENGTH_UNIT ( ) NAMED_UNIT ( * ) SI_UNIT ( $, .METRE. ) );
#104 = VECTOR ( 'NONE', #194, 39.37007874015748143 ) ;
#105 = STYLED_ITEM ( 'NONE', ( #249 ), #58 ) ;
#106 = PRESENTATION_STYLE_ASSIGNMENT (( #144 ) ) ;
#107 = UNCERTAINTY_MEASURE_WITH_UNIT (LENGTH_MEASURE( 1.000000000000000082E-05 ), #89, 'distance_accuracy_value', 'NONE');
#108 = DIRECTION ( 'NONE',  ( 0.0000000000000000000, 0.0000000000000000000, -1.000000000000000000 ) ) ;
#109 = ADVANCED_FACE ( 'NONE', ( #73 ), #167, .T. ) ;
#110 = ORIENTED_EDGE ( 'NONE', *, *, #193, .F. ) ;
#111 = CARTESIAN_POINT ( 'NONE',  ( 0.0000000000000000000, 0.0000000000000000000, 1.984999999999999654 ) ) ;
#112 = ORIENTED_EDGE ( 'NONE', *, *, #219, .F. ) ;
#113 = DIMENSIONAL_EXPONENTS ( 1.000000000000000000, 0.0000000000000000000, 0.0000000000000000000, 0.0000000000000000000, 0.0000000000000000000, 0.0000000000000000000, 0.0000000000000000000 ) ;
#114 = ORIENTED_EDGE ( 'NONE', *, *, #269, .F. ) ;
#115 = ORIENTED_EDGE ( 'NONE', *, *, #209, .T. ) ;
#116 = AXIS2_PLACEMENT_3D ( 'NONE', #297, #181, #186 ) ;
#117 =( NAMED_UNIT ( * ) PLANE_ANGLE_UNIT ( ) SI_UNIT ( $, .RADIAN. ) );
#118 = DIRECTION ( 'NONE',  ( 0.0000000000000000000, 0.0000000000000000000, -1.000000000000000000 ) ) ;
#119 = DIRECTION ( 'NONE',  ( 0.0000000000000000000, 0.0000000000000000000, 1.000000000000000000 ) ) ;
#120 = CARTESIAN_POINT ( 'NONE',  ( -0.1562500000000000000, 0.0000000000000000000, 2.000000000000000000 ) ) ;
#121 = CYLINDRICAL_SURFACE ( 'NONE', #288, 0.1562500000000000000 ) ;
#122 = CARTESIAN_POINT ( 'NONE',  ( -0.1562499999999999445, 0.0000000000000000000, 0.5895529427008547874 ) ) ;
#123 = DIRECTION ( 'NONE',  ( -0.7071067811865475727, 0.0000000000000000000, -0.7071067811865474617 ) ) ;
#124 = DIRECTION ( 'NONE',  ( 1.000000000000000000, 0.0000000000000000000, 0.0000000000000000000 ) ) ;
#125 = AXIS2_PLACEMENT_3D ( 'NONE', #90, #118, #254 ) ;
#126 = ADVANCED_BREP_SHAPE_REPRESENTATION ( 'Micro_SEM-281-04X', ( #58, #6 ), #18 ) ;
#127 = CARTESIAN_POINT ( 'NONE',  ( 0.1404594000000000120, 1.720131546201577623E-17, 0.0000000000000000000 ) ) ;
#128 =( GEOMETRIC_REPRESENTATION_CONTEXT ( 3 ) GLOBAL_UNCERTAINTY_ASSIGNED_CONTEXT ( ( #287 ) ) GLOBAL_UNIT_ASSIGNED_CONTEXT ( ( #195, #168, #189 ) ) REPRESENTATION_CONTEXT ( 'NONE', 'WORKASPACE' ) );
#129 = ORIENTED_EDGE ( 'NONE', *, *, #261, .F. ) ;
#130 = CARTESIAN_POINT ( 'NONE',  ( 0.0000000000000000000, 0.0000000000000000000, 1.984999999999999654 ) ) ;
#131 = ORIENTED_EDGE ( 'NONE', *, *, #172, .F. ) ;
#132 = EDGE_LOOP ( 'NONE', ( #35, #61, #85, #63 ) ) ;
#133 =( CONVERSION_BASED_UNIT ( 'INCH', #94 ) LENGTH_UNIT ( ) NAMED_UNIT ( #113 ) );
#134 = SURFACE_STYLE_USAGE ( .BOTH. , #142 ) ;
#135 = ORIENTED_EDGE ( 'NONE', *, *, #219, .T. ) ;
#136 = AXIS2_PLACEMENT_3D ( 'NONE', #243, #222, #8 ) ;
#137 = CIRCLE ( 'NONE', #19, 0.1404594000000000120 ) ;
#138 = PLANE ( 'NONE',  #208 ) ;
#139 = CARTESIAN_POINT ( 'NONE',  ( -0.1404593999999999565, 1.816821084934658389E-17, 0.5000000000000000000 ) ) ;
#140 = DIRECTION ( 'NONE',  ( 1.000000000000000000, 0.0000000000000000000, -0.0000000000000000000 ) ) ;
#141 = FACE_OUTER_BOUND ( 'NONE', #223, .T. ) ;
#142 = SURFACE_SIDE_STYLE ('',( #258 ) ) ;
#143 = FACE_OUTER_BOUND ( 'NONE', #207, .T. ) ;
#144 = SURFACE_STYLE_USAGE ( .BOTH. , #146 ) ;
#145 = PRESENTATION_LAYER_ASSIGNMENT (  '', '', ( #105 ) ) ;
#146 = SURFACE_SIDE_STYLE ('',( #259 ) ) ;
#147 = DIRECTION ( 'NONE',  ( -1.224646799147353207E-16, -0.0000000000000000000, -1.000000000000000000 ) ) ;
#148 = AXIS2_PLACEMENT_3D ( 'NONE', #67, #295, #88 ) ;
#149 = LINE ( 'NONE', #199, #266 ) ;
#150 = AXIS2_PLACEMENT_3D ( 'NONE', #50, #205, #240 ) ;
#151 = ORIENTED_EDGE ( 'NONE', *, *, #98, .F. ) ;
#152 = CARTESIAN_POINT ( 'NONE',  ( 0.1562500000000000000, 1.913510623667739463E-17, 2.000000000000000000 ) ) ;
#153 = DIRECTION ( 'NONE',  ( -1.224646799147353207E-16, -0.0000000000000000000, -1.000000000000000000 ) ) ;
#154 = FILL_AREA_STYLE_COLOUR ( '', #92 ) ;
#155 = ORIENTED_EDGE ( 'NONE', *, *, #209, .F. ) ;
#156 = DIRECTION ( 'NONE',  ( 1.000000000000000000, 0.0000000000000000000, 0.0000000000000000000 ) ) ;
#157 = CARTESIAN_POINT ( 'NONE',  ( -0.1404594000000000120, 0.0000000000000000000, 3.440263092403155245E-17 ) ) ;
#158 = CIRCLE ( 'NONE', #32, 0.1412499999999997646 ) ;
#159 = PRODUCT_DEFINITION_FORMATION_WITH_SPECIFIED_SOURCE ( 'ANY', '', #75, .NOT_KNOWN. ) ;
#160 = DIRECTION ( 'NONE',  ( -1.224646799147353207E-16, -0.0000000000000000000, -1.000000000000000000 ) ) ;
#161 = DIRECTION ( 'NONE',  ( 0.1736481776669313581, 0.0000000000000000000, 0.9848077530122077983 ) ) ;
#162 = DIRECTION ( 'NONE',  ( -1.000000000000000000, 0.0000000000000000000, 0.0000000000000000000 ) ) ;
#163 = DIRECTION ( 'NONE',  ( 0.0000000000000000000, 0.0000000000000000000, 1.000000000000000000 ) ) ;
#164 = DIRECTION ( 'NONE',  ( 1.000000000000000000, 0.0000000000000000000, 0.0000000000000000000 ) ) ;
#165 = SHAPE_DEFINITION_REPRESENTATION ( #171, #126 ) ;
#166 = CARTESIAN_POINT ( 'NONE',  ( -0.1412499999999997646, 0.0000000000000000000, 2.000000000000000000 ) ) ;
#167 = CYLINDRICAL_SURFACE ( 'NONE', #17, 0.1404594000000000120 ) ;
#168 =( NAMED_UNIT ( * ) PLANE_ANGLE_UNIT ( ) SI_UNIT ( $, .RADIAN. ) );
#169 = CIRCLE ( 'NONE', #273, 0.1562500000000000000 ) ;
#170 = DIRECTION ( 'NONE',  ( 1.000000000000000000, 0.0000000000000000000, 0.0000000000000000000 ) ) ;
#171 = PRODUCT_DEFINITION_SHAPE ( 'NONE', 'NONE',  #220 ) ;
#172 = EDGE_CURVE ( 'NONE', #248, #11, #187, .T. ) ;
#173 = EDGE_LOOP ( 'NONE', ( #115, #83 ) ) ;
#174 = PRODUCT_DEFINITION_CONTEXT ( 'detailed design', #3, 'design' ) ;
#175 = COLOUR_RGB ( '',0.7921568627450980005, 0.8196078431372548767, 0.9333333333333333481 ) ;
#176 = ORIENTED_EDGE ( 'NONE', *, *, #261, .T. ) ;
#177 = AXIS2_PLACEMENT_3D ( 'NONE', #60, #245, #196 ) ;
#178 = ORIENTED_EDGE ( 'NONE', *, *, #15, .T. ) ;
#179 = ADVANCED_FACE ( 'NONE', ( #224 ), #267, .T. ) ;
#180 = ORIENTED_EDGE ( 'NONE', *, *, #246, .F. ) ;
#181 = DIRECTION ( 'NONE',  ( -1.224646799147353207E-16, -0.0000000000000000000, -1.000000000000000000 ) ) ;
#182 = PRODUCT_RELATED_PRODUCT_CATEGORY ( 'part', '', ( #75 ) ) ;
#183 = FILL_AREA_STYLE ('',( #154 ) ) ;
#184 = FACE_OUTER_BOUND ( 'NONE', #132, .T. ) ;
#185 = AXIS2_PLACEMENT_3D ( 'NONE', #130, #239, #170 ) ;
#186 = DIRECTION ( 'NONE',  ( -1.000000000000000000, 0.0000000000000000000, 0.0000000000000000000 ) ) ;
#187 = LINE ( 'NONE', #54, #57 ) ;
#188 = CARTESIAN_POINT ( 'NONE',  ( 0.0000000000000000000, 0.0000000000000000000, 2.000000000000000000 ) ) ;
#189 =( NAMED_UNIT ( * ) SI_UNIT ( $, .STERADIAN. ) SOLID_ANGLE_UNIT ( ) );
#190 = MECHANICAL_DESIGN_GEOMETRIC_PRESENTATION_REPRESENTATION (  '', ( #105 ), #68 ) ;
#191 = MECHANICAL_DESIGN_GEOMETRIC_PRESENTATION_REPRESENTATION (  '', ( #238 ), #128 ) ;
#192 = AXIS2_PLACEMENT_3D ( 'NONE', #49, #281, #164 ) ;
#193 = EDGE_CURVE ( 'NONE', #21, #79, #294, .T. ) ;
#194 = DIRECTION ( 'NONE',  ( -0.0000000000000000000, -0.0000000000000000000, -1.000000000000000000 ) ) ;
#195 =( CONVERSION_BASED_UNIT ( 'INCH', #102 ) LENGTH_UNIT ( ) NAMED_UNIT ( #262 ) );
#196 = DIRECTION ( 'NONE',  ( -1.000000000000000000, 0.0000000000000000000, 0.0000000000000000000 ) ) ;
#197 = APPLICATION_PROTOCOL_DEFINITION ( 'draft international standard', 'automotive_design', 1998, #283 ) ;
#198 = ORIENTED_EDGE ( 'NONE', *, *, #4, .F. ) ;
#199 = CARTESIAN_POINT ( 'NONE',  ( -0.1404593999999999565, 1.720131546201577623E-17, 0.5000000000000000000 ) ) ;
#200 = ORIENTED_EDGE ( 'NONE', *, *, #269, .T. ) ;
#201 = ORIENTED_EDGE ( 'NONE', *, *, #193, .T. ) ;
#202 = CIRCLE ( 'NONE', #116, 0.1404594000000000120 ) ;
#203 = VERTEX_POINT ( 'NONE', #81 ) ;
#204 = EDGE_CURVE ( 'NONE', #79, #11, #231, .T. ) ;
#205 = DIRECTION ( 'NONE',  ( -1.224646799147353207E-16, -0.0000000000000000000, -1.000000000000000000 ) ) ;
#206 = DIRECTION ( 'NONE',  ( -1.000000000000000000, 0.0000000000000000000, 0.0000000000000000000 ) ) ;
#207 = EDGE_LOOP ( 'NONE', ( #112, #270, #200, #86 ) ) ;
#208 = AXIS2_PLACEMENT_3D ( 'NONE', #253, #48, #140 ) ;
#209 = EDGE_CURVE ( 'NONE', #9, #225, #137, .T. ) ;
#210 = EDGE_LOOP ( 'NONE', ( #129, #7, #242, #151 ) ) ;
#211 = DIRECTION ( 'NONE',  ( 1.000000000000000000, 0.0000000000000000000, 0.0000000000000000000 ) ) ;
#212 = DIRECTION ( 'NONE',  ( 1.000000000000000000, 0.0000000000000000000, -0.0000000000000000000 ) ) ;
#213 = DIRECTION ( 'NONE',  ( 1.000000000000000000, 0.0000000000000000000, 0.0000000000000000000 ) ) ;
#214 = EDGE_CURVE ( 'NONE', #16, #289, #13, .T. ) ;
#215 = DIMENSIONAL_EXPONENTS ( 1.000000000000000000, 0.0000000000000000000, 0.0000000000000000000, 0.0000000000000000000, 0.0000000000000000000, 0.0000000000000000000, 0.0000000000000000000 ) ;
#216 = DIRECTION ( 'NONE',  ( -0.0000000000000000000, -0.0000000000000000000, -1.000000000000000000 ) ) ;
#217 = FILL_AREA_STYLE ('',( #70 ) ) ;
#218 = AXIS2_PLACEMENT_3D ( 'NONE', #22, #163, #212 ) ;
#219 = EDGE_CURVE ( 'NONE', #79, #203, #76, .T. ) ;
#220 = PRODUCT_DEFINITION ( 'UNKNOWN', '', #159, #174 ) ;
#221 = ORIENTED_EDGE ( 'NONE', *, *, #214, .T. ) ;
#222 = DIRECTION ( 'NONE',  ( -1.224646799147353207E-16, -0.0000000000000000000, -1.000000000000000000 ) ) ;
#223 = EDGE_LOOP ( 'NONE', ( #251, #78 ) ) ;
#224 = FACE_OUTER_BOUND ( 'NONE', #235, .T. ) ;
#225 = VERTEX_POINT ( 'NONE', #127 ) ;
#226 = CARTESIAN_POINT ( 'NONE',  ( 2.106553592168149428E-33, 0.0000000000000000000, 1.720131546201577623E-17 ) ) ;
#227 = ADVANCED_FACE ( 'NONE', ( #285 ), #74, .T. ) ;
#228 = ORIENTED_EDGE ( 'NONE', *, *, #33, .T. ) ;
#229 = ORIENTED_EDGE ( 'NONE', *, *, #52, .F. ) ;
#230 = DIRECTION ( 'NONE',  ( -1.224646799147353207E-16, -0.0000000000000000000, -1.000000000000000000 ) ) ;
#231 = CIRCLE ( 'NONE', #185, 0.1562500000000000000 ) ;
#232 = VECTOR ( 'NONE', #274, 39.37007874015748143 ) ;
#233 = CARTESIAN_POINT ( 'NONE',  ( 6.123233995736766036E-17, 0.0000000000000000000, 0.5000000000000000000 ) ) ;
#234 = EDGE_CURVE ( 'NONE', #16, #247, #149, .T. ) ;
#235 = EDGE_LOOP ( 'NONE', ( #110, #40, #293, #286 ) ) ;
#236 = DIRECTION ( 'NONE',  ( 0.0000000000000000000, 0.0000000000000000000, 1.000000000000000000 ) ) ;
#237 = CONICAL_SURFACE ( 'NONE', #148, 0.1404594000000000120, 0.1745329251994338637 ) ;
#238 = STYLED_ITEM ( 'NONE', ( #106 ), #126 ) ;
#239 = DIRECTION ( 'NONE',  ( 0.0000000000000000000, 0.0000000000000000000, -1.000000000000000000 ) ) ;
#240 = DIRECTION ( 'NONE',  ( -1.000000000000000000, 0.0000000000000000000, 1.224646799147353207E-16 ) ) ;
#241 = CARTESIAN_POINT ( 'NONE',  ( 0.1404594000000000953, 0.0000000000000000000, 0.5000000000000000000 ) ) ;
#242 = ORIENTED_EDGE ( 'NONE', *, *, #4, .T. ) ;
#243 = CARTESIAN_POINT ( 'NONE',  ( 0.0000000000000000000, 0.0000000000000000000, 0.0000000000000000000 ) ) ;
#244 = AXIS2_PLACEMENT_3D ( 'NONE', #111, #108, #124 ) ;
#245 = DIRECTION ( 'NONE',  ( -1.224646799147353207E-16, -0.0000000000000000000, -1.000000000000000000 ) ) ;
#246 = EDGE_CURVE ( 'NONE', #21, #248, #2, .T. ) ;
#247 = VERTEX_POINT ( 'NONE', #122 ) ;
#248 = VERTEX_POINT ( 'NONE', #166 ) ;
#249 = PRESENTATION_STYLE_ASSIGNMENT (( #134 ) ) ;
#250 = CARTESIAN_POINT ( 'NONE',  ( -0.1562500000000000000, 0.0000000000000000000, 1.984999999999999654 ) ) ;
#251 = ORIENTED_EDGE ( 'NONE', *, *, #271, .T. ) ;
#252 = CONICAL_SURFACE ( 'NONE', #125, 0.1412499999999997646, 0.7853981633974482790 ) ;
#253 = CARTESIAN_POINT ( 'NONE',  ( 0.0000000000000000000, 0.0000000000000000000, 0.0000000000000000000 ) ) ;
#254 = DIRECTION ( 'NONE',  ( -1.000000000000000000, 0.0000000000000000000, 0.0000000000000000000 ) ) ;
#255 = DIRECTION ( 'NONE',  ( -1.000000000000000000, 0.0000000000000000000, 0.0000000000000000000 ) ) ;
#256 = DIRECTION ( 'NONE',  ( -1.000000000000000000, 0.0000000000000000000, 1.224646799147353207E-16 ) ) ;
#257 = ADVANCED_FACE ( 'NONE', ( #296 ), #51, .T. ) ;
#258 = SURFACE_STYLE_FILL_AREA ( #183 ) ;
#259 = SURFACE_STYLE_FILL_AREA ( #217 ) ;
#260 = DIRECTION ( 'NONE',  ( -1.224646799147353207E-16, -0.0000000000000000000, -1.000000000000000000 ) ) ;
#261 = EDGE_CURVE ( 'NONE', #289, #225, #25, .T. ) ;
#262 = DIMENSIONAL_EXPONENTS ( 1.000000000000000000, 0.0000000000000000000, 0.0000000000000000000, 0.0000000000000000000, 0.0000000000000000000, 0.0000000000000000000, 0.0000000000000000000 ) ;
#263 = ADVANCED_FACE ( 'NONE', ( #143 ), #121, .T. ) ;
#264 = ORIENTED_EDGE ( 'NONE', *, *, #62, .F. ) ;
#265 = EDGE_LOOP ( 'NONE', ( #41, #135, #264, #114 ) ) ;
#266 = VECTOR ( 'NONE', #36, 39.37007874015747433 ) ;
#267 = CONICAL_SURFACE ( 'NONE', #44, 0.1412499999999997646, 0.7853981633974482790 ) ;
#268 = ORIENTED_EDGE ( 'NONE', *, *, #292, .F. ) ;
#269 = EDGE_CURVE ( 'NONE', #11, #247, #298, .T. ) ;
#270 = ORIENTED_EDGE ( 'NONE', *, *, #204, .T. ) ;
#271 = EDGE_CURVE ( 'NONE', #248, #21, #158, .T. ) ;
#272 = LINE ( 'NONE', #24, #87 ) ;
#273 = AXIS2_PLACEMENT_3D ( 'NONE', #46, #230, #211 ) ;
#274 = DIRECTION ( 'NONE',  ( -1.224646799147353207E-16, -0.0000000000000000000, -1.000000000000000000 ) ) ;
#275 =( NAMED_UNIT ( * ) SI_UNIT ( $, .STERADIAN. ) SOLID_ANGLE_UNIT ( ) );
#276 = CIRCLE ( 'NONE', #150, 0.1404594000000000120 ) ;
#277 = CARTESIAN_POINT ( 'NONE',  ( -0.1404594000000000120, 0.0000000000000000000, 1.720131546201577623E-17 ) ) ;
#278 = DIRECTION ( 'NONE',  ( 1.000000000000000000, 0.0000000000000000000, 0.0000000000000000000 ) ) ;
#279 = DIRECTION ( 'NONE',  ( 0.0000000000000000000, 0.0000000000000000000, -1.000000000000000000 ) ) ;
#280 = CARTESIAN_POINT ( 'NONE',  ( 7.219941242065049268E-17, 0.0000000000000000000, 0.5895529427008547874 ) ) ;
#281 = DIRECTION ( 'NONE',  ( 0.0000000000000000000, 0.0000000000000000000, 1.000000000000000000 ) ) ;
#282 = AXIS2_PLACEMENT_3D ( 'NONE', #233, #12, #278 ) ;
#283 = APPLICATION_CONTEXT ( 'automotive_design' ) ;
#284 = VECTOR ( 'NONE', #56, 39.37007874015748143 ) ;
#285 = FACE_OUTER_BOUND ( 'NONE', #37, .T. ) ;
#286 = ORIENTED_EDGE ( 'NONE', *, *, #204, .F. ) ;
#287 = UNCERTAINTY_MEASURE_WITH_UNIT (LENGTH_MEASURE( 1.000000000000000082E-05 ), #195, 'distance_accuracy_value', 'NONE');
#288 = AXIS2_PLACEMENT_3D ( 'NONE', #69, #216, #162 ) ;
#289 = VERTEX_POINT ( 'NONE', #241 ) ;
#290 = EDGE_LOOP ( 'NONE', ( #180, #201, #268, #131 ) ) ;
#291 = FACE_OUTER_BOUND ( 'NONE', #14, .T. ) ;
#292 = EDGE_CURVE ( 'NONE', #11, #79, #93, .T. ) ;
#293 = ORIENTED_EDGE ( 'NONE', *, *, #172, .T. ) ;
#294 = LINE ( 'NONE', #5, #284 ) ;
#295 = DIRECTION ( 'NONE',  ( 1.224646799147353207E-16, 0.0000000000000000000, 1.000000000000000000 ) ) ;
#296 = FACE_OUTER_BOUND ( 'NONE', #265, .T. ) ;
#297 = CARTESIAN_POINT ( 'NONE',  ( 6.123233995736766036E-17, 0.0000000000000000000, 0.5000000000000000000 ) ) ;
#298 = LINE ( 'NONE', #120, #80 ) ;
#299 = PRODUCT_CONTEXT ( 'NONE', #283, 'mechanical' ) ;
ENDSEC;
END-ISO-10303-21;
