ISO-10303-21;
HEADER;
FILE_DESCRIPTION (( 'STEP AP214' ),
    '1' );
FILE_NAME ('44422.STEP',
    '2023-06-22T20:33:01',
    ( '' ),
    ( '' ),
    'SwSTEP 2.0',
    'SolidWorks 2023',
    '' );
FILE_SCHEMA (( 'AUTOMOTIVE_DESIGN' ));
ENDSEC;

DATA;
#1 = COLOUR_RGB ( '',1.000000000000000000, 0.000000000000000000, 0.000000000000000000 ) ;
#2 = SURFACE_SIDE_STYLE ('',( #240 ) ) ;
#3 = EDGE_CURVE ( 'NONE', #65, #251, #242, .T. ) ;
#4 = SHAPE_DEFINITION_REPRESENTATION ( #154, #103 ) ;
#5 = FACE_OUTER_BOUND ( 'NONE', #167, .T. ) ;
#6 = CARTESIAN_POINT ( 'NONE',  ( 0.000000000000000000, 2.000000000000000000, 0.000000000000000000 ) ) ;
#7 = CIRCLE ( 'NONE', #187, 0.5000000000000000000 ) ;
#8 = CYLINDRICAL_SURFACE ( 'NONE', #75, 0.5000000000000000000 ) ;
#9 = LENGTH_MEASURE_WITH_UNIT ( LENGTH_MEASURE( 0.02539999999999999897 ), #296 );
#10 = FILL_AREA_STYLE_COLOUR ( '', #116 ) ;
#11 = CARTESIAN_POINT ( 'NONE',  ( 0.5000000000000000000, 4.500000000000000000, 0.000000000000000000 ) ) ;
#12 = SURFACE_STYLE_USAGE ( .BOTH. , #225 ) ;
#13 = EDGE_CURVE ( 'NONE', #251, #41, #174, .T. ) ;
#14 = ORIENTED_EDGE ( 'NONE', *, *, #130, .F. ) ;
#15 = AXIS2_PLACEMENT_3D ( 'NONE', #146, #182, #60 ) ;
#16 = PRESENTATION_LAYER_ASSIGNMENT (  '', '', ( #298 ) ) ;
#17 = VERTEX_POINT ( 'NONE', #173 ) ;
#18 = DIRECTION ( 'NONE',  ( 0.000000000000000000, 0.000000000000000000, -1.000000000000000000 ) ) ;
#19 = MECHANICAL_DESIGN_GEOMETRIC_PRESENTATION_REPRESENTATION (  '', ( #163 ), #279 ) ;
#20 = AXIS2_PLACEMENT_3D ( 'NONE', #244, #31, #22 ) ;
#21 = DIRECTION ( 'NONE',  ( -2.449293598294708695E-17, 1.000000000000000000, -0.000000000000000000 ) ) ;
#22 = DIRECTION ( 'NONE',  ( -1.000000000000000000, 0.000000000000000000, 0.000000000000000000 ) ) ;
#23 = CIRCLE ( 'NONE', #143, 0.5000000000000000000 ) ;
#24 = EDGE_CURVE ( 'NONE', #305, #41, #183, .T. ) ;
#25 = PLANE ( 'NONE',  #230 ) ;
#26 = CYLINDRICAL_SURFACE ( 'NONE', #306, 0.5000000000000000000 ) ;
#27 = DIRECTION ( 'NONE',  ( -0.000000000000000000, -1.000000000000000000, -0.000000000000000000 ) ) ;
#28 = APPLICATION_PROTOCOL_DEFINITION ( 'draft international standard', 'automotive_design', 1998, #239 ) ;
#29 = COLOUR_RGB ( '',0.7921568627450980005, 0.8196078431372548767, 0.9333333333333333481 ) ;
#30 = CIRCLE ( 'NONE', #125, 0.5000000000000001110 ) ;
#31 = DIRECTION ( 'NONE',  ( -2.449293598294708695E-17, 1.000000000000000000, -0.000000000000000000 ) ) ;
#32 = SURFACE_STYLE_FILL_AREA ( #52 ) ;
#33 = DIRECTION ( 'NONE',  ( -2.449293598294709003E-17, 1.000000000000000000, -0.000000000000000000 ) ) ;
#34 = LENGTH_MEASURE_WITH_UNIT ( LENGTH_MEASURE( 0.02539999999999999897 ), #152 );
#35 = AXIS2_PLACEMENT_3D ( 'NONE', #308, #74, #48 ) ;
#36 = ADVANCED_FACE ( 'NONE', ( #258 ), #25, .F. ) ;
#37 = VECTOR ( 'NONE', #127, 39.37007874015748143 ) ;
#38 = PRESENTATION_STYLE_ASSIGNMENT (( #210 ) ) ;
#39 = DIRECTION ( 'NONE',  ( -2.449293598294708695E-17, 1.000000000000000000, -0.000000000000000000 ) ) ;
#40 =( NAMED_UNIT ( * ) PLANE_ANGLE_UNIT ( ) SI_UNIT ( $, .RADIAN. ) );
#41 = VERTEX_POINT ( 'NONE', #199 ) ;
#42 = FACE_OUTER_BOUND ( 'NONE', #73, .T. ) ;
#43 = ORIENTED_EDGE ( 'NONE', *, *, #300, .F. ) ;
#44 = ADVANCED_FACE ( 'NONE', ( #287 ), #82, .T. ) ;
#45 = COLOUR_RGB ( '',1.000000000000000000, 0.000000000000000000, 0.000000000000000000 ) ;
#46 = DIRECTION ( 'NONE',  ( -2.449293598294709003E-17, 1.000000000000000000, 0.000000000000000000 ) ) ;
#47 =( NAMED_UNIT ( * ) SI_UNIT ( $, .STERADIAN. ) SOLID_ANGLE_UNIT ( ) );
#48 = DIRECTION ( 'NONE',  ( -1.000000000000000000, 0.000000000000000000, 0.000000000000000000 ) ) ;
#49 = CARTESIAN_POINT ( 'NONE',  ( -0.5000000000000000000, 2.000000000000000000, 0.000000000000000000 ) ) ;
#50 = APPLICATION_PROTOCOL_DEFINITION ( 'draft international standard', 'automotive_design', 1998, #249 ) ;
#51 = DIRECTION ( 'NONE',  ( 0.000000000000000000, 0.000000000000000000, -1.000000000000000000 ) ) ;
#52 = FILL_AREA_STYLE ('',( #10 ) ) ;
#53 =( NAMED_UNIT ( * ) SI_UNIT ( $, .STERADIAN. ) SOLID_ANGLE_UNIT ( ) );
#54 =( NAMED_UNIT ( * ) PLANE_ANGLE_UNIT ( ) SI_UNIT ( $, .RADIAN. ) );
#55 = STYLED_ITEM ( 'NONE', ( #179 ), #44 ) ;
#56 = CARTESIAN_POINT ( 'NONE',  ( 0.000000000000000000, 0.000000000000000000, 0.000000000000000000 ) ) ;
#57 = AXIS2_PLACEMENT_3D ( 'NONE', #89, #166, #160 ) ;
#58 =( LENGTH_UNIT ( ) NAMED_UNIT ( * ) SI_UNIT ( $, .METRE. ) );
#59 = DIMENSIONAL_EXPONENTS ( 1.000000000000000000, 0.000000000000000000, 0.000000000000000000, 0.000000000000000000, 0.000000000000000000, 0.000000000000000000, 0.000000000000000000 ) ;
#60 = DIRECTION ( 'NONE',  ( 0.000000000000000000, 0.000000000000000000, -1.000000000000000000 ) ) ;
#61 = CARTESIAN_POINT ( 'NONE',  ( -6.123233995736772199E-17, 4.500000000000000000, 0.000000000000000000 ) ) ;
#62 = AXIS2_PLACEMENT_3D ( 'NONE', #131, #27, #247 ) ;
#63 = DIMENSIONAL_EXPONENTS ( 1.000000000000000000, 0.000000000000000000, 0.000000000000000000, 0.000000000000000000, 0.000000000000000000, 0.000000000000000000, 0.000000000000000000 ) ;
#64 = SURFACE_STYLE_FILL_AREA ( #255 ) ;
#65 = VERTEX_POINT ( 'NONE', #245 ) ;
#66 =( NAMED_UNIT ( * ) PLANE_ANGLE_UNIT ( ) SI_UNIT ( $, .RADIAN. ) );
#67 =( CONVERSION_BASED_UNIT ( 'INCH', #135 ) LENGTH_UNIT ( ) NAMED_UNIT ( #59 ) );
#68 = MECHANICAL_DESIGN_GEOMETRIC_PRESENTATION_REPRESENTATION (  '', ( #165 ), #117 ) ;
#69 = PLANE ( 'NONE',  #81 ) ;
#70 = VERTEX_POINT ( 'NONE', #299 ) ;
#71 = DIRECTION ( 'NONE',  ( -1.000000000000000000, 0.000000000000000000, 0.000000000000000000 ) ) ;
#72 = FILL_AREA_STYLE ('',( #238 ) ) ;
#73 = EDGE_LOOP ( 'NONE', ( #256, #285, #144, #236 ) ) ;
#74 = DIRECTION ( 'NONE',  ( -2.449293598294708695E-17, 1.000000000000000000, -0.000000000000000000 ) ) ;
#75 = AXIS2_PLACEMENT_3D ( 'NONE', #119, #101, #293 ) ;
#76 =( NAMED_UNIT ( * ) SI_UNIT ( $, .STERADIAN. ) SOLID_ANGLE_UNIT ( ) );
#77 = EDGE_LOOP ( 'NONE', ( #278, #92, #196, #307 ) ) ;
#78 = CARTESIAN_POINT ( 'NONE',  ( 0.000000000000000000, 0.000000000000000000, 0.000000000000000000 ) ) ;
#79 = DIRECTION ( 'NONE',  ( 1.000000000000000000, 0.000000000000000000, 0.000000000000000000 ) ) ;
#80 = PRESENTATION_LAYER_ASSIGNMENT (  '', '', ( #55 ) ) ;
#81 = AXIS2_PLACEMENT_3D ( 'NONE', #78, #295, #51 ) ;
#82 = CYLINDRICAL_SURFACE ( 'NONE', #62, 0.5000000000000000000 ) ;
#83 = LENGTH_MEASURE_WITH_UNIT ( LENGTH_MEASURE( 0.02539999999999999897 ), #84 );
#84 =( LENGTH_UNIT ( ) NAMED_UNIT ( * ) SI_UNIT ( $, .METRE. ) );
#85 = LENGTH_MEASURE_WITH_UNIT ( LENGTH_MEASURE( 0.02539999999999999897 ), #162 );
#86 = STYLED_ITEM ( 'NONE', ( #291 ), #252 ) ;
#87 = ORIENTED_EDGE ( 'NONE', *, *, #24, .T. ) ;
#88 = FILL_AREA_STYLE_COLOUR ( '', #273 ) ;
#89 = CARTESIAN_POINT ( 'NONE',  ( 0.000000000000000000, 2.000000000000000000, 0.000000000000000000 ) ) ;
#90 = UNCERTAINTY_MEASURE_WITH_UNIT (LENGTH_MEASURE( 1.000000000000000082E-05 ), #188, 'distance_accuracy_value', 'NONE');
#91 = EDGE_LOOP ( 'NONE', ( #169, #139 ) ) ;
#92 = ORIENTED_EDGE ( 'NONE', *, *, #99, .T. ) ;
#93 = DIRECTION ( 'NONE',  ( -1.000000000000000000, -2.449293598294709003E-17, 0.000000000000000000 ) ) ;
#94 = SURFACE_STYLE_USAGE ( .BOTH. , #2 ) ;
#95 = ORIENTED_EDGE ( 'NONE', *, *, #130, .T. ) ;
#96 =( NAMED_UNIT ( * ) PLANE_ANGLE_UNIT ( ) SI_UNIT ( $, .RADIAN. ) );
#97 = DIRECTION ( 'NONE',  ( 0.000000000000000000, 0.000000000000000000, 1.000000000000000000 ) ) ;
#98 = SURFACE_SIDE_STYLE ('',( #198 ) ) ;
#99 = EDGE_CURVE ( 'NONE', #70, #17, #170, .T. ) ;
#100 = DIRECTION ( 'NONE',  ( -0.000000000000000000, -1.000000000000000000, -0.000000000000000000 ) ) ;
#101 = DIRECTION ( 'NONE',  ( -2.449293598294708695E-17, 1.000000000000000000, -0.000000000000000000 ) ) ;
#102 =( CONVERSION_BASED_UNIT ( 'INCH', #297 ) LENGTH_UNIT ( ) NAMED_UNIT ( #227 ) );
#103 = ADVANCED_BREP_SHAPE_REPRESENTATION ( '44422', ( #192, #283, #189 ), #231 ) ;
#104 = CARTESIAN_POINT ( 'NONE',  ( 6.123233995736766036E-17, 0.000000000000000000, 0.5000000000000000000 ) ) ;
#105 = LINE ( 'NONE', #122, #267 ) ;
#106 =( GEOMETRIC_REPRESENTATION_CONTEXT ( 3 ) GLOBAL_UNCERTAINTY_ASSIGNED_CONTEXT ( ( #111 ) ) GLOBAL_UNIT_ASSIGNED_CONTEXT ( ( #137, #40, #271 ) ) REPRESENTATION_CONTEXT ( 'NONE', 'WORKASPACE' ) );
#107 = EDGE_CURVE ( 'NONE', #65, #305, #105, .T. ) ;
#108 = SURFACE_SIDE_STYLE ('',( #126 ) ) ;
#109 = SURFACE_STYLE_FILL_AREA ( #156 ) ;
#110 = SURFACE_SIDE_STYLE ('',( #64 ) ) ;
#111 = UNCERTAINTY_MEASURE_WITH_UNIT (LENGTH_MEASURE( 1.000000000000000082E-05 ), #137, 'distance_accuracy_value', 'NONE');
#112 = VERTEX_POINT ( 'NONE', #129 ) ;
#113 =( NAMED_UNIT ( * ) SI_UNIT ( $, .STERADIAN. ) SOLID_ANGLE_UNIT ( ) );
#114 = FILL_AREA_STYLE_COLOUR ( '', #45 ) ;
#115 = DIRECTION ( 'NONE',  ( -2.449293598294709003E-17, 1.000000000000000000, -0.000000000000000000 ) ) ;
#116 = COLOUR_RGB ( '',0.7921568627450980005, 0.8196078431372548767, 0.9333333333333333481 ) ;
#117 =( GEOMETRIC_REPRESENTATION_CONTEXT ( 3 ) GLOBAL_UNCERTAINTY_ASSIGNED_CONTEXT ( ( #161 ) ) GLOBAL_UNIT_ASSIGNED_CONTEXT ( ( #67, #96, #120 ) ) REPRESENTATION_CONTEXT ( 'NONE', 'WORKASPACE' ) );
#118 = ORIENTED_EDGE ( 'NONE', *, *, #276, .T. ) ;
#119 = CARTESIAN_POINT ( 'NONE',  ( -6.123233995736772199E-17, 4.500000000000000000, 0.000000000000000000 ) ) ;
#120 =( NAMED_UNIT ( * ) SI_UNIT ( $, .STERADIAN. ) SOLID_ANGLE_UNIT ( ) );
#121 = PRODUCT_RELATED_PRODUCT_CATEGORY ( 'part', '', ( #233 ) ) ;
#122 = CARTESIAN_POINT ( 'NONE',  ( 0.4999999999999999445, 4.500000000000000000, 6.123233995736766036E-17 ) ) ;
#123 = DIRECTION ( 'NONE',  ( -0.000000000000000000, -1.000000000000000000, -0.000000000000000000 ) ) ;
#124 = UNCERTAINTY_MEASURE_WITH_UNIT (LENGTH_MEASURE( 1.000000000000000082E-05 ), #186, 'distance_accuracy_value', 'NONE');
#125 = AXIS2_PLACEMENT_3D ( 'NONE', #61, #301, #193 ) ;
#126 = SURFACE_STYLE_FILL_AREA ( #226 ) ;
#127 = DIRECTION ( 'NONE',  ( -0.000000000000000000, -1.000000000000000000, -0.000000000000000000 ) ) ;
#128 = DIMENSIONAL_EXPONENTS ( 1.000000000000000000, 0.000000000000000000, 0.000000000000000000, 0.000000000000000000, 0.000000000000000000, 0.000000000000000000, 0.000000000000000000 ) ;
#129 = CARTESIAN_POINT ( 'NONE',  ( 0.000000000000000000, 0.000000000000000000, -0.5000000000000000000 ) ) ;
#130 = EDGE_CURVE ( 'NONE', #17, #70, #136, .T. ) ;
#131 = CARTESIAN_POINT ( 'NONE',  ( 0.000000000000000000, 0.000000000000000000, 0.000000000000000000 ) ) ;
#132 =( GEOMETRIC_REPRESENTATION_CONTEXT ( 3 ) GLOBAL_UNCERTAINTY_ASSIGNED_CONTEXT ( ( #150 ) ) GLOBAL_UNIT_ASSIGNED_CONTEXT ( ( #147, #176, #53 ) ) REPRESENTATION_CONTEXT ( 'NONE', 'WORKASPACE' ) );
#133 = SURFACE_STYLE_USAGE ( .BOTH. , #110 ) ;
#134 = DIMENSIONAL_EXPONENTS ( 1.000000000000000000, 0.000000000000000000, 0.000000000000000000, 0.000000000000000000, 0.000000000000000000, 0.000000000000000000, 0.000000000000000000 ) ;
#135 = LENGTH_MEASURE_WITH_UNIT ( LENGTH_MEASURE( 0.02539999999999999897 ), #191 );
#136 = CIRCLE ( 'NONE', #155, 0.5000000000000000000 ) ;
#137 =( CONVERSION_BASED_UNIT ( 'INCH', #190 ) LENGTH_UNIT ( ) NAMED_UNIT ( #207 ) );
#138 = DIRECTION ( 'NONE',  ( 1.000000000000000000, 2.449293598294709003E-17, 0.000000000000000000 ) ) ;
#139 = ORIENTED_EDGE ( 'NONE', *, *, #216, .T. ) ;
#140 = MECHANICAL_DESIGN_GEOMETRIC_PRESENTATION_REPRESENTATION (  '', ( #55 ), #248 ) ;
#141 = VERTEX_POINT ( 'NONE', #104 ) ;
#142 = DIRECTION ( 'NONE',  ( 2.449293598294709003E-17, -1.000000000000000000, 0.000000000000000000 ) ) ;
#143 = AXIS2_PLACEMENT_3D ( 'NONE', #284, #39, #71 ) ;
#144 = ORIENTED_EDGE ( 'NONE', *, *, #13, .T. ) ;
#145 = CARTESIAN_POINT ( 'NONE',  ( 0.5000000000000000000, 4.500000000000000000, 6.123233995736766036E-17 ) ) ;
#146 = CARTESIAN_POINT ( 'NONE',  ( 0.000000000000000000, 2.000000000000000000, 0.000000000000000000 ) ) ;
#147 =( CONVERSION_BASED_UNIT ( 'INCH', #83 ) LENGTH_UNIT ( ) NAMED_UNIT ( #134 ) );
#148 = DIRECTION ( 'NONE',  ( -0.000000000000000000, -1.000000000000000000, -0.000000000000000000 ) ) ;
#149 = SURFACE_STYLE_USAGE ( .BOTH. , #98 ) ;
#150 = UNCERTAINTY_MEASURE_WITH_UNIT (LENGTH_MEASURE( 1.000000000000000082E-05 ), #147, 'distance_accuracy_value', 'NONE');
#151 = PRESENTATION_LAYER_ASSIGNMENT (  '', '', ( #243 ) ) ;
#152 =( LENGTH_UNIT ( ) NAMED_UNIT ( * ) SI_UNIT ( $, .METRE. ) );
#153 =( NAMED_UNIT ( * ) SI_UNIT ( $, .STERADIAN. ) SOLID_ANGLE_UNIT ( ) );
#154 = PRODUCT_DEFINITION_SHAPE ( 'NONE', 'NONE',  #237 ) ;
#155 = AXIS2_PLACEMENT_3D ( 'NONE', #6, #100, #266 ) ;
#156 = FILL_AREA_STYLE ('',( #114 ) ) ;
#157 = PRESENTATION_LAYER_ASSIGNMENT (  '', '', ( #86 ) ) ;
#158 = EDGE_CURVE ( 'NONE', #17, #112, #203, .T. ) ;
#159 = DIMENSIONAL_EXPONENTS ( 1.000000000000000000, 0.000000000000000000, 0.000000000000000000, 0.000000000000000000, 0.000000000000000000, 0.000000000000000000, 0.000000000000000000 ) ;
#160 = DIRECTION ( 'NONE',  ( 0.000000000000000000, -0.000000000000000000, 1.000000000000000000 ) ) ;
#161 = UNCERTAINTY_MEASURE_WITH_UNIT (LENGTH_MEASURE( 1.000000000000000082E-05 ), #67, 'distance_accuracy_value', 'NONE');
#162 =( LENGTH_UNIT ( ) NAMED_UNIT ( * ) SI_UNIT ( $, .METRE. ) );
#163 = STYLED_ITEM ( 'NONE', ( #277 ), #192 ) ;
#164 = EDGE_LOOP ( 'NONE', ( #229, #282, #235, #206 ) ) ;
#165 = STYLED_ITEM ( 'NONE', ( #228 ), #232 ) ;
#166 = DIRECTION ( 'NONE',  ( 0.000000000000000000, 1.000000000000000000, 0.000000000000000000 ) ) ;
#167 = EDGE_LOOP ( 'NONE', ( #95, #118, #43, #275 ) ) ;
#168 = FILL_AREA_STYLE ('',( #219 ) ) ;
#169 = ORIENTED_EDGE ( 'NONE', *, *, #300, .T. ) ;
#170 = CIRCLE ( 'NONE', #15, 0.5000000000000000000 ) ;
#171 = AXIS2_PLACEMENT_3D ( 'NONE', #262, #21, #172 ) ;
#172 = DIRECTION ( 'NONE',  ( -1.000000000000000000, 0.000000000000000000, 0.000000000000000000 ) ) ;
#173 = CARTESIAN_POINT ( 'NONE',  ( 0.000000000000000000, 2.000000000000000000, -0.5000000000000000000 ) ) ;
#174 = LINE ( 'NONE', #241, #257 ) ;
#175 = CLOSED_SHELL ( 'NONE', ( #252, #218, #44, #232 ) ) ;
#176 =( NAMED_UNIT ( * ) PLANE_ANGLE_UNIT ( ) SI_UNIT ( $, .RADIAN. ) );
#177 =( CONVERSION_BASED_UNIT ( 'INCH', #9 ) LENGTH_UNIT ( ) NAMED_UNIT ( #128 ) );
#178 = CYLINDRICAL_SURFACE ( 'NONE', #20, 0.5000000000000000000 ) ;
#179 = PRESENTATION_STYLE_ASSIGNMENT (( #185 ) ) ;
#180 = CARTESIAN_POINT ( 'NONE',  ( 0.000000000000000000, 0.000000000000000000, 0.000000000000000000 ) ) ;
#181 = DIRECTION ( 'NONE',  ( 0.000000000000000000, 0.000000000000000000, -1.000000000000000000 ) ) ;
#182 = DIRECTION ( 'NONE',  ( -0.000000000000000000, -1.000000000000000000, -0.000000000000000000 ) ) ;
#183 = CIRCLE ( 'NONE', #35, 0.5000000000000001110 ) ;
#184 = MECHANICAL_DESIGN_GEOMETRIC_PRESENTATION_REPRESENTATION (  '', ( #243 ), #208 ) ;
#185 = SURFACE_STYLE_USAGE ( .BOTH. , #108 ) ;
#186 =( CONVERSION_BASED_UNIT ( 'INCH', #34 ) LENGTH_UNIT ( ) NAMED_UNIT ( #63 ) );
#187 = AXIS2_PLACEMENT_3D ( 'NONE', #56, #213, #18 ) ;
#188 =( CONVERSION_BASED_UNIT ( 'INCH', #85 ) LENGTH_UNIT ( ) NAMED_UNIT ( #159 ) );
#189 = AXIS2_PLACEMENT_3D ( 'NONE', #294, #97, #79 ) ;
#190 = LENGTH_MEASURE_WITH_UNIT ( LENGTH_MEASURE( 0.02539999999999999897 ), #304 );
#191 =( LENGTH_UNIT ( ) NAMED_UNIT ( * ) SI_UNIT ( $, .METRE. ) );
#192 = MANIFOLD_SOLID_BREP ( 'Revolve - Cutting Edge', #175 ) ;
#193 = DIRECTION ( 'NONE',  ( -1.000000000000000000, 0.000000000000000000, 0.000000000000000000 ) ) ;
#194 = ORIENTED_EDGE ( 'NONE', *, *, #222, .T. ) ;
#195 = EDGE_LOOP ( 'NONE', ( #194, #87 ) ) ;
#196 = ORIENTED_EDGE ( 'NONE', *, *, #158, .T. ) ;
#197 = ORIENTED_EDGE ( 'NONE', *, *, #3, .F. ) ;
#198 = SURFACE_STYLE_FILL_AREA ( #168 ) ;
#199 = CARTESIAN_POINT ( 'NONE',  ( -0.5000000000000001110, 4.500000000000000000, 0.000000000000000000 ) ) ;
#200 = CLOSED_SHELL ( 'NONE', ( #260, #36, #263, #280 ) ) ;
#201 = CIRCLE ( 'NONE', #281, 0.5000000000000000000 ) ;
#202 = PRODUCT_CONTEXT ( 'NONE', #239, 'mechanical' ) ;
#203 = LINE ( 'NONE', #223, #217 ) ;
#204 = CARTESIAN_POINT ( 'NONE',  ( 0.000000000000000000, 0.000000000000000000, 0.000000000000000000 ) ) ;
#205 = PRESENTATION_LAYER_ASSIGNMENT (  '', '', ( #163 ) ) ;
#206 = ORIENTED_EDGE ( 'NONE', *, *, #13, .F. ) ;
#207 = DIMENSIONAL_EXPONENTS ( 1.000000000000000000, 0.000000000000000000, 0.000000000000000000, 0.000000000000000000, 0.000000000000000000, 0.000000000000000000, 0.000000000000000000 ) ;
#208 =( GEOMETRIC_REPRESENTATION_CONTEXT ( 3 ) GLOBAL_UNCERTAINTY_ASSIGNED_CONTEXT ( ( #272 ) ) GLOBAL_UNIT_ASSIGNED_CONTEXT ( ( #102, #246, #47 ) ) REPRESENTATION_CONTEXT ( 'NONE', 'WORKASPACE' ) );
#209 = AXIS2_PLACEMENT_3D ( 'NONE', #11, #142, #138 ) ;
#210 = SURFACE_STYLE_USAGE ( .BOTH. , #303 ) ;
#211 = PRODUCT_DEFINITION_CONTEXT ( 'detailed design', #249, 'design' ) ;
#212 = ORIENTED_EDGE ( 'NONE', *, *, #99, .F. ) ;
#213 = DIRECTION ( 'NONE',  ( -0.000000000000000000, -1.000000000000000000, -0.000000000000000000 ) ) ;
#214 = COLOUR_RGB ( '',1.000000000000000000, 0.000000000000000000, 0.000000000000000000 ) ;
#215 = ORIENTED_EDGE ( 'NONE', *, *, #292, .F. ) ;
#216 = EDGE_CURVE ( 'NONE', #141, #112, #7, .T. ) ;
#217 = VECTOR ( 'NONE', #148, 39.37007874015748143 ) ;
#218 = ADVANCED_FACE ( 'NONE', ( #250 ), #234, .T. ) ;
#219 = FILL_AREA_STYLE_COLOUR ( '', #1 ) ;
#220 = DIRECTION ( 'NONE',  ( -0.000000000000000000, -1.000000000000000000, -0.000000000000000000 ) ) ;
#221 = FACE_OUTER_BOUND ( 'NONE', #164, .T. ) ;
#222 = EDGE_CURVE ( 'NONE', #41, #305, #30, .T. ) ;
#223 = CARTESIAN_POINT ( 'NONE',  ( 0.000000000000000000, 0.000000000000000000, -0.5000000000000000000 ) ) ;
#224 = PLANE ( 'NONE',  #209 ) ;
#225 = SURFACE_SIDE_STYLE ('',( #32 ) ) ;
#226 = FILL_AREA_STYLE ('',( #288 ) ) ;
#227 = DIMENSIONAL_EXPONENTS ( 1.000000000000000000, 0.000000000000000000, 0.000000000000000000, 0.000000000000000000, 0.000000000000000000, 0.000000000000000000, 0.000000000000000000 ) ;
#228 = PRESENTATION_STYLE_ASSIGNMENT (( #133 ) ) ;
#229 = ORIENTED_EDGE ( 'NONE', *, *, #292, .T. ) ;
#230 = AXIS2_PLACEMENT_3D ( 'NONE', #309, #46, #93 ) ;
#231 =( GEOMETRIC_REPRESENTATION_CONTEXT ( 3 ) GLOBAL_UNCERTAINTY_ASSIGNED_CONTEXT ( ( #254 ) ) GLOBAL_UNIT_ASSIGNED_CONTEXT ( ( #177, #54, #76 ) ) REPRESENTATION_CONTEXT ( 'NONE', 'WORKASPACE' ) );
#232 = ADVANCED_FACE ( 'NONE', ( #274 ), #69, .T. ) ;
#233 = PRODUCT ( '44422', '44422', '', ( #202 ) ) ;
#234 = PLANE ( 'NONE',  #57 ) ;
#235 = ORIENTED_EDGE ( 'NONE', *, *, #222, .F. ) ;
#236 = ORIENTED_EDGE ( 'NONE', *, *, #24, .F. ) ;
#237 = PRODUCT_DEFINITION ( 'UNKNOWN', '', #253, #211 ) ;
#238 = FILL_AREA_STYLE_COLOUR ( '', #29 ) ;
#239 = APPLICATION_CONTEXT ( 'automotive_design' ) ;
#240 = SURFACE_STYLE_FILL_AREA ( #72 ) ;
#241 = CARTESIAN_POINT ( 'NONE',  ( -0.5000000000000001110, 4.500000000000000000, 0.000000000000000000 ) ) ;
#242 = CIRCLE ( 'NONE', #171, 0.5000000000000000000 ) ;
#243 = STYLED_ITEM ( 'NONE', ( #269 ), #283 ) ;
#244 = CARTESIAN_POINT ( 'NONE',  ( -6.123233995736772199E-17, 4.500000000000000000, 0.000000000000000000 ) ) ;
#245 = CARTESIAN_POINT ( 'NONE',  ( 0.5000000000000000000, 2.000000000000000000, 6.123233995736766036E-17 ) ) ;
#246 =( NAMED_UNIT ( * ) PLANE_ANGLE_UNIT ( ) SI_UNIT ( $, .RADIAN. ) );
#247 = DIRECTION ( 'NONE',  ( 0.000000000000000000, 0.000000000000000000, -1.000000000000000000 ) ) ;
#248 =( GEOMETRIC_REPRESENTATION_CONTEXT ( 3 ) GLOBAL_UNCERTAINTY_ASSIGNED_CONTEXT ( ( #124 ) ) GLOBAL_UNIT_ASSIGNED_CONTEXT ( ( #186, #270, #153 ) ) REPRESENTATION_CONTEXT ( 'NONE', 'WORKASPACE' ) );
#249 = APPLICATION_CONTEXT ( 'automotive_design' ) ;
#250 = FACE_OUTER_BOUND ( 'NONE', #302, .T. ) ;
#251 = VERTEX_POINT ( 'NONE', #49 ) ;
#252 = ADVANCED_FACE ( 'NONE', ( #5 ), #26, .T. ) ;
#253 = PRODUCT_DEFINITION_FORMATION_WITH_SPECIFIED_SOURCE ( 'ANY', '', #233, .NOT_KNOWN. ) ;
#254 = UNCERTAINTY_MEASURE_WITH_UNIT (LENGTH_MEASURE( 1.000000000000000082E-05 ), #177, 'distance_accuracy_value', 'NONE');
#255 = FILL_AREA_STYLE ('',( #88 ) ) ;
#256 = ORIENTED_EDGE ( 'NONE', *, *, #107, .F. ) ;
#257 = VECTOR ( 'NONE', #115, 39.37007874015748143 ) ;
#258 = FACE_OUTER_BOUND ( 'NONE', #290, .T. ) ;
#259 = MECHANICAL_DESIGN_GEOMETRIC_PRESENTATION_REPRESENTATION (  '', ( #298 ), #106 ) ;
#260 = ADVANCED_FACE ( 'NONE', ( #221 ), #8, .T. ) ;
#261 = CARTESIAN_POINT ( 'NONE',  ( 6.123233995736766036E-17, 0.000000000000000000, 0.5000000000000000000 ) ) ;
#262 = CARTESIAN_POINT ( 'NONE',  ( 0.000000000000000000, 2.000000000000000000, 0.000000000000000000 ) ) ;
#263 = ADVANCED_FACE ( 'NONE', ( #42 ), #178, .T. ) ;
#264 = LINE ( 'NONE', #261, #37 ) ;
#265 = DIRECTION ( 'NONE',  ( 0.000000000000000000, 0.000000000000000000, -1.000000000000000000 ) ) ;
#266 = DIRECTION ( 'NONE',  ( 0.000000000000000000, 0.000000000000000000, -1.000000000000000000 ) ) ;
#267 = VECTOR ( 'NONE', #33, 39.37007874015748143 ) ;
#268 = MECHANICAL_DESIGN_GEOMETRIC_PRESENTATION_REPRESENTATION (  '', ( #86 ), #132 ) ;
#269 = PRESENTATION_STYLE_ASSIGNMENT (( #94 ) ) ;
#270 =( NAMED_UNIT ( * ) PLANE_ANGLE_UNIT ( ) SI_UNIT ( $, .RADIAN. ) );
#271 =( NAMED_UNIT ( * ) SI_UNIT ( $, .STERADIAN. ) SOLID_ANGLE_UNIT ( ) );
#272 = UNCERTAINTY_MEASURE_WITH_UNIT (LENGTH_MEASURE( 1.000000000000000082E-05 ), #102, 'distance_accuracy_value', 'NONE');
#273 = COLOUR_RGB ( '',1.000000000000000000, 0.000000000000000000, 0.000000000000000000 ) ;
#274 = FACE_OUTER_BOUND ( 'NONE', #91, .T. ) ;
#275 = ORIENTED_EDGE ( 'NONE', *, *, #158, .F. ) ;
#276 = EDGE_CURVE ( 'NONE', #70, #141, #264, .T. ) ;
#277 = PRESENTATION_STYLE_ASSIGNMENT (( #12 ) ) ;
#278 = ORIENTED_EDGE ( 'NONE', *, *, #276, .F. ) ;
#279 =( GEOMETRIC_REPRESENTATION_CONTEXT ( 3 ) GLOBAL_UNCERTAINTY_ASSIGNED_CONTEXT ( ( #90 ) ) GLOBAL_UNIT_ASSIGNED_CONTEXT ( ( #188, #66, #113 ) ) REPRESENTATION_CONTEXT ( 'NONE', 'WORKASPACE' ) );
#280 = ADVANCED_FACE ( 'NONE', ( #289 ), #224, .F. ) ;
#281 = AXIS2_PLACEMENT_3D ( 'NONE', #204, #220, #181 ) ;
#282 = ORIENTED_EDGE ( 'NONE', *, *, #107, .T. ) ;
#283 = MANIFOLD_SOLID_BREP ( 'Revolve - Tool Body (Straight Shanked)', #200 ) ;
#284 = CARTESIAN_POINT ( 'NONE',  ( 0.000000000000000000, 2.000000000000000000, 0.000000000000000000 ) ) ;
#285 = ORIENTED_EDGE ( 'NONE', *, *, #3, .T. ) ;
#286 = PRESENTATION_LAYER_ASSIGNMENT (  '', '', ( #165 ) ) ;
#287 = FACE_OUTER_BOUND ( 'NONE', #77, .T. ) ;
#288 = FILL_AREA_STYLE_COLOUR ( '', #214 ) ;
#289 = FACE_OUTER_BOUND ( 'NONE', #195, .T. ) ;
#290 = EDGE_LOOP ( 'NONE', ( #215, #197 ) ) ;
#291 = PRESENTATION_STYLE_ASSIGNMENT (( #149 ) ) ;
#292 = EDGE_CURVE ( 'NONE', #251, #65, #23, .T. ) ;
#293 = DIRECTION ( 'NONE',  ( -1.000000000000000000, 0.000000000000000000, 0.000000000000000000 ) ) ;
#294 = CARTESIAN_POINT ( 'NONE',  ( 0.000000000000000000, 0.000000000000000000, 0.000000000000000000 ) ) ;
#295 = DIRECTION ( 'NONE',  ( 0.000000000000000000, -1.000000000000000000, -0.000000000000000000 ) ) ;
#296 =( LENGTH_UNIT ( ) NAMED_UNIT ( * ) SI_UNIT ( $, .METRE. ) );
#297 = LENGTH_MEASURE_WITH_UNIT ( LENGTH_MEASURE( 0.02539999999999999897 ), #58 );
#298 = STYLED_ITEM ( 'NONE', ( #38 ), #218 ) ;
#299 = CARTESIAN_POINT ( 'NONE',  ( 6.123233995736766036E-17, 2.000000000000000000, 0.5000000000000000000 ) ) ;
#300 = EDGE_CURVE ( 'NONE', #112, #141, #201, .T. ) ;
#301 = DIRECTION ( 'NONE',  ( -2.449293598294708695E-17, 1.000000000000000000, -0.000000000000000000 ) ) ;
#302 = EDGE_LOOP ( 'NONE', ( #14, #212 ) ) ;
#303 = SURFACE_SIDE_STYLE ('',( #109 ) ) ;
#304 =( LENGTH_UNIT ( ) NAMED_UNIT ( * ) SI_UNIT ( $, .METRE. ) );
#305 = VERTEX_POINT ( 'NONE', #145 ) ;
#306 = AXIS2_PLACEMENT_3D ( 'NONE', #180, #123, #265 ) ;
#307 = ORIENTED_EDGE ( 'NONE', *, *, #216, .F. ) ;
#308 = CARTESIAN_POINT ( 'NONE',  ( -6.123233995736772199E-17, 4.500000000000000000, 0.000000000000000000 ) ) ;
#309 = CARTESIAN_POINT ( 'NONE',  ( 1.499759782661860216E-34, 2.000000000000000000, 0.000000000000000000 ) ) ;
ENDSEC;
END-ISO-10303-21;
