ISO-10303-21;
HEADER;
FILE_DESCRIPTION (( 'STEP AP214' ),
    '1' );
FILE_NAME ('48621.STEP',
    '2023-06-22T21:54:02',
    ( '' ),
    ( '' ),
    'SwSTEP 2.0',
    'SolidWorks 2023',
    '' );
FILE_SCHEMA (( 'AUTOMOTIVE_DESIGN' ));
ENDSEC;

DATA;
#1 = CARTESIAN_POINT ( 'NONE',  ( -1.224646799147352714E-16, 4.000000000000000000, 0.000000000000000000 ) ) ;
#2 = PLANE ( 'NONE',  #75 ) ;
#3 = SURFACE_STYLE_USAGE ( .BOTH. , #54 ) ;
#4 = CYLINDRICAL_SURFACE ( 'NONE', #74, 0.3750000000000001110 ) ;
#5 = DIRECTION ( 'NONE',  ( -5.156407575357275299E-17, 1.000000000000000000, -0.000000000000000000 ) ) ;
#6 = DIRECTION ( 'NONE',  ( 0.000000000000000000, 0.000000000000000000, -1.000000000000000000 ) ) ;
#7 = EDGE_CURVE ( 'NONE', #140, #82, #8, .T. ) ;
#8 = CIRCLE ( 'NONE', #90, 0.3750000000000000555 ) ;
#9 =( CONVERSION_BASED_UNIT ( 'INCH', #208 ) LENGTH_UNIT ( ) NAMED_UNIT ( #43 ) );
#10 = EDGE_CURVE ( 'NONE', #249, #114, #102, .T. ) ;
#11 = SURFACE_SIDE_STYLE ('',( #63 ) ) ;
#12 = MECHANICAL_DESIGN_GEOMETRIC_PRESENTATION_REPRESENTATION (  '', ( #21 ), #255 ) ;
#13 =( CONVERSION_BASED_UNIT ( 'INCH', #214 ) LENGTH_UNIT ( ) NAMED_UNIT ( #211 ) );
#14 = VERTEX_POINT ( 'NONE', #36 ) ;
#15 = DIMENSIONAL_EXPONENTS ( 1.000000000000000000, 0.000000000000000000, 0.000000000000000000, 0.000000000000000000, 0.000000000000000000, 0.000000000000000000, 0.000000000000000000 ) ;
#16 = VERTEX_POINT ( 'NONE', #217 ) ;
#17 = ORIENTED_EDGE ( 'NONE', *, *, #168, .F. ) ;
#18 = PRODUCT_RELATED_PRODUCT_CATEGORY ( 'part', '', ( #125 ) ) ;
#19 = ORIENTED_EDGE ( 'NONE', *, *, #271, .F. ) ;
#20 =( CONVERSION_BASED_UNIT ( 'INCH', #48 ) LENGTH_UNIT ( ) NAMED_UNIT ( #15 ) );
#21 = STYLED_ITEM ( 'NONE', ( #219 ), #65 ) ;
#22 = AXIS2_PLACEMENT_3D ( 'NONE', #279, #95, #222 ) ;
#23 = ORIENTED_EDGE ( 'NONE', *, *, #258, .T. ) ;
#24 = DIRECTION ( 'NONE',  ( -5.156407575357275916E-17, 1.000000000000000000, -0.000000000000000000 ) ) ;
#25 = DIRECTION ( 'NONE',  ( 0.000000000000000000, -0.000000000000000000, 1.000000000000000000 ) ) ;
#26 = VECTOR ( 'NONE', #138, 39.37007874015748143 ) ;
#27 = FACE_OUTER_BOUND ( 'NONE', #183, .T. ) ;
#28 =( CONVERSION_BASED_UNIT ( 'INCH', #78 ) LENGTH_UNIT ( ) NAMED_UNIT ( #143 ) );
#29 = DIRECTION ( 'NONE',  ( -5.156407575357275299E-17, 1.000000000000000000, -0.000000000000000000 ) ) ;
#30 = SURFACE_SIDE_STYLE ('',( #158 ) ) ;
#31 = PRESENTATION_STYLE_ASSIGNMENT (( #152 ) ) ;
#32 = LINE ( 'NONE', #270, #94 ) ;
#33 = AXIS2_PLACEMENT_3D ( 'NONE', #298, #274, #60 ) ;
#34 =( NAMED_UNIT ( * ) PLANE_ANGLE_UNIT ( ) SI_UNIT ( $, .RADIAN. ) );
#35 = ADVANCED_FACE ( 'NONE', ( #67 ), #137, .T. ) ;
#36 = CARTESIAN_POINT ( 'NONE',  ( -0.3750000000000000555, 1.625000000000000000, 0.000000000000000000 ) ) ;
#37 = CYLINDRICAL_SURFACE ( 'NONE', #166, 0.3750000000000000555 ) ;
#38 = LENGTH_MEASURE_WITH_UNIT ( LENGTH_MEASURE( 0.02539999999999999897 ), #64 );
#39 = CARTESIAN_POINT ( 'NONE',  ( 0.3750000000000000555, 4.000000000000000000, 4.592425496802576684E-17 ) ) ;
#40 = PRESENTATION_LAYER_ASSIGNMENT (  '', '', ( #21 ) ) ;
#41 = SURFACE_STYLE_USAGE ( .BOTH. , #11 ) ;
#42 = FACE_OUTER_BOUND ( 'NONE', #136, .T. ) ;
#43 = DIMENSIONAL_EXPONENTS ( 1.000000000000000000, 0.000000000000000000, 0.000000000000000000, 0.000000000000000000, 0.000000000000000000, 0.000000000000000000, 0.000000000000000000 ) ;
#44 = ORIENTED_EDGE ( 'NONE', *, *, #7, .F. ) ;
#45 = ORIENTED_EDGE ( 'NONE', *, *, #84, .F. ) ;
#46 = MECHANICAL_DESIGN_GEOMETRIC_PRESENTATION_REPRESENTATION (  '', ( #272 ), #180 ) ;
#47 = DIMENSIONAL_EXPONENTS ( 1.000000000000000000, 0.000000000000000000, 0.000000000000000000, 0.000000000000000000, 0.000000000000000000, 0.000000000000000000, 0.000000000000000000 ) ;
#48 = LENGTH_MEASURE_WITH_UNIT ( LENGTH_MEASURE( 0.02539999999999999897 ), #250 );
#49 = PRESENTATION_LAYER_ASSIGNMENT (  '', '', ( #195 ) ) ;
#50 = FACE_OUTER_BOUND ( 'NONE', #164, .T. ) ;
#51 = DIRECTION ( 'NONE',  ( -1.000000000000000000, 0.000000000000000000, 0.000000000000000000 ) ) ;
#52 = DIRECTION ( 'NONE',  ( 0.000000000000000000, 0.000000000000000000, -1.000000000000000000 ) ) ;
#53 = CLOSED_SHELL ( 'NONE', ( #264, #232, #35, #110 ) ) ;
#54 = SURFACE_SIDE_STYLE ('',( #144 ) ) ;
#55 = FACE_OUTER_BOUND ( 'NONE', #165, .T. ) ;
#56 = ORIENTED_EDGE ( 'NONE', *, *, #71, .F. ) ;
#57 = PLANE ( 'NONE',  #306 ) ;
#58 = CIRCLE ( 'NONE', #302, 0.3750000000000001665 ) ;
#59 = SHAPE_DEFINITION_REPRESENTATION ( #156, #234 ) ;
#60 = DIRECTION ( 'NONE',  ( -1.000000000000000000, 0.000000000000000000, 0.000000000000000000 ) ) ;
#61 = FILL_AREA_STYLE_COLOUR ( '', #199 ) ;
#62 = SURFACE_STYLE_USAGE ( .BOTH. , #273 ) ;
#63 = SURFACE_STYLE_FILL_AREA ( #246 ) ;
#64 =( LENGTH_UNIT ( ) NAMED_UNIT ( * ) SI_UNIT ( $, .METRE. ) );
#65 = MANIFOLD_SOLID_BREP ( 'Revolve - Tool Body (Straight Shanked)', #53 ) ;
#66 = STYLED_ITEM ( 'NONE', ( #31 ), #123 ) ;
#67 = FACE_OUTER_BOUND ( 'NONE', #305, .T. ) ;
#68 = PRESENTATION_STYLE_ASSIGNMENT (( #62 ) ) ;
#69 = LENGTH_MEASURE_WITH_UNIT ( LENGTH_MEASURE( 0.02539999999999999897 ), #256 );
#70 = ORIENTED_EDGE ( 'NONE', *, *, #71, .T. ) ;
#71 = EDGE_CURVE ( 'NONE', #14, #117, #154, .T. ) ;
#72 = AXIS2_PLACEMENT_3D ( 'NONE', #261, #235, #83 ) ;
#73 = EDGE_LOOP ( 'NONE', ( #301, #23, #142, #44 ) ) ;
#74 = AXIS2_PLACEMENT_3D ( 'NONE', #1, #105, #108 ) ;
#75 = AXIS2_PLACEMENT_3D ( 'NONE', #120, #307, #25 ) ;
#76 = UNCERTAINTY_MEASURE_WITH_UNIT (LENGTH_MEASURE( 1.000000000000000082E-05 ), #133, 'distance_accuracy_value', 'NONE');
#77 = DIRECTION ( 'NONE',  ( 0.000000000000000000, 0.000000000000000000, -1.000000000000000000 ) ) ;
#78 = LENGTH_MEASURE_WITH_UNIT ( LENGTH_MEASURE( 0.02539999999999999897 ), #309 );
#79 = CARTESIAN_POINT ( 'NONE',  ( -1.224646799147352714E-16, 4.000000000000000000, 0.000000000000000000 ) ) ;
#80 = CARTESIAN_POINT ( 'NONE',  ( 3.032960542342103792E-32, 1.625000000000000000, 0.000000000000000000 ) ) ;
#81 = FILL_AREA_STYLE ('',( #269 ) ) ;
#82 = VERTEX_POINT ( 'NONE', #231 ) ;
#83 = DIRECTION ( 'NONE',  ( 0.000000000000000000, 0.000000000000000000, -1.000000000000000000 ) ) ;
#84 = EDGE_CURVE ( 'NONE', #82, #140, #194, .T. ) ;
#85 = DIRECTION ( 'NONE',  ( 0.000000000000000000, 0.000000000000000000, 1.000000000000000000 ) ) ;
#86 = DIRECTION ( 'NONE',  ( -5.156407575357275916E-17, 1.000000000000000000, 0.000000000000000000 ) ) ;
#87 = FILL_AREA_STYLE_COLOUR ( '', #253 ) ;
#88 =( NAMED_UNIT ( * ) SI_UNIT ( $, .STERADIAN. ) SOLID_ANGLE_UNIT ( ) );
#89 = CIRCLE ( 'NONE', #159, 0.3750000000000000555 ) ;
#90 = AXIS2_PLACEMENT_3D ( 'NONE', #207, #187, #52 ) ;
#91 =( LENGTH_UNIT ( ) NAMED_UNIT ( * ) SI_UNIT ( $, .METRE. ) );
#92 = EDGE_LOOP ( 'NONE', ( #97, #221 ) ) ;
#93 = FILL_AREA_STYLE_COLOUR ( '', #247 ) ;
#94 = VECTOR ( 'NONE', #99, 39.37007874015748143 ) ;
#95 = DIRECTION ( 'NONE',  ( -0.000000000000000000, -1.000000000000000000, -0.000000000000000000 ) ) ;
#96 = EDGE_CURVE ( 'NONE', #16, #14, #260, .T. ) ;
#97 = ORIENTED_EDGE ( 'NONE', *, *, #10, .F. ) ;
#98 =( NAMED_UNIT ( * ) SI_UNIT ( $, .STERADIAN. ) SOLID_ANGLE_UNIT ( ) );
#99 = DIRECTION ( 'NONE',  ( -0.000000000000000000, -1.000000000000000000, -0.000000000000000000 ) ) ;
#100 = CARTESIAN_POINT ( 'NONE',  ( 0.000000000000000000, 1.625000000000000000, 0.000000000000000000 ) ) ;
#101 =( GEOMETRIC_REPRESENTATION_CONTEXT ( 3 ) GLOBAL_UNCERTAINTY_ASSIGNED_CONTEXT ( ( #76 ) ) GLOBAL_UNIT_ASSIGNED_CONTEXT ( ( #133, #296, #115 ) ) REPRESENTATION_CONTEXT ( 'NONE', 'WORKASPACE' ) );
#102 = CIRCLE ( 'NONE', #198, 0.3750000000000000555 ) ;
#103 =( NAMED_UNIT ( * ) PLANE_ANGLE_UNIT ( ) SI_UNIT ( $, .RADIAN. ) );
#104 = CARTESIAN_POINT ( 'NONE',  ( 0.3750000000000000555, 4.000000000000000000, 0.000000000000000000 ) ) ;
#105 = DIRECTION ( 'NONE',  ( -5.156407575357275299E-17, 1.000000000000000000, -0.000000000000000000 ) ) ;
#106 = CARTESIAN_POINT ( 'NONE',  ( 0.000000000000000000, 0.000000000000000000, 0.000000000000000000 ) ) ;
#107 =( GEOMETRIC_REPRESENTATION_CONTEXT ( 3 ) GLOBAL_UNCERTAINTY_ASSIGNED_CONTEXT ( ( #243 ) ) GLOBAL_UNIT_ASSIGNED_CONTEXT ( ( #203, #185, #98 ) ) REPRESENTATION_CONTEXT ( 'NONE', 'WORKASPACE' ) );
#108 = DIRECTION ( 'NONE',  ( -1.000000000000000000, 0.000000000000000000, 0.000000000000000000 ) ) ;
#109 = DIRECTION ( 'NONE',  ( 1.000000000000000000, 5.156407575357275916E-17, 0.000000000000000000 ) ) ;
#110 = ADVANCED_FACE ( 'NONE', ( #50 ), #57, .F. ) ;
#111 = DIRECTION ( 'NONE',  ( 0.000000000000000000, 0.000000000000000000, -1.000000000000000000 ) ) ;
#112 = SURFACE_STYLE_FILL_AREA ( #278 ) ;
#113 =( NAMED_UNIT ( * ) PLANE_ANGLE_UNIT ( ) SI_UNIT ( $, .RADIAN. ) );
#114 = VERTEX_POINT ( 'NONE', #122 ) ;
#115 =( NAMED_UNIT ( * ) SI_UNIT ( $, .STERADIAN. ) SOLID_ANGLE_UNIT ( ) );
#116 = VECTOR ( 'NONE', #24, 39.37007874015748143 ) ;
#117 = VERTEX_POINT ( 'NONE', #149 ) ;
#118 =( NAMED_UNIT ( * ) PLANE_ANGLE_UNIT ( ) SI_UNIT ( $, .RADIAN. ) );
#119 = STYLED_ITEM ( 'NONE', ( #244 ), #134 ) ;
#120 = CARTESIAN_POINT ( 'NONE',  ( 0.000000000000000000, 1.625000000000000000, 0.000000000000000000 ) ) ;
#121 = ORIENTED_EDGE ( 'NONE', *, *, #163, .F. ) ;
#122 = CARTESIAN_POINT ( 'NONE',  ( 4.592425496802575451E-17, 1.625000000000000000, 0.3750000000000000555 ) ) ;
#123 = ADVANCED_FACE ( 'NONE', ( #27 ), #228, .T. ) ;
#124 = STYLED_ITEM ( 'NONE', ( #189 ), #173 ) ;
#125 = PRODUCT ( '48621', '48621', '', ( #288 ) ) ;
#126 = LINE ( 'NONE', #186, #130 ) ;
#127 = DIRECTION ( 'NONE',  ( -0.000000000000000000, -1.000000000000000000, -0.000000000000000000 ) ) ;
#128 = CIRCLE ( 'NONE', #286, 0.3750000000000000555 ) ;
#129 =( LENGTH_UNIT ( ) NAMED_UNIT ( * ) SI_UNIT ( $, .METRE. ) );
#130 = VECTOR ( 'NONE', #283, 39.37007874015748143 ) ;
#131 = SURFACE_STYLE_USAGE ( .BOTH. , #30 ) ;
#132 = CARTESIAN_POINT ( 'NONE',  ( 0.000000000000000000, 0.000000000000000000, 0.000000000000000000 ) ) ;
#133 =( CONVERSION_BASED_UNIT ( 'INCH', #38 ) LENGTH_UNIT ( ) NAMED_UNIT ( #167 ) );
#134 = ADVANCED_FACE ( 'NONE', ( #263 ), #2, .T. ) ;
#135 = ORIENTED_EDGE ( 'NONE', *, *, #96, .T. ) ;
#136 = EDGE_LOOP ( 'NONE', ( #285, #193, #45, #160 ) ) ;
#137 = CYLINDRICAL_SURFACE ( 'NONE', #33, 0.3750000000000001110 ) ;
#138 = DIRECTION ( 'NONE',  ( -0.000000000000000000, -1.000000000000000000, -0.000000000000000000 ) ) ;
#139 = APPLICATION_PROTOCOL_DEFINITION ( 'draft international standard', 'automotive_design', 1998, #146 ) ;
#140 = VERTEX_POINT ( 'NONE', #236 ) ;
#141 = COLOUR_RGB ( '',0.7921568627450980005, 0.8196078431372548767, 0.9333333333333333481 ) ;
#142 = ORIENTED_EDGE ( 'NONE', *, *, #252, .T. ) ;
#143 = DIMENSIONAL_EXPONENTS ( 1.000000000000000000, 0.000000000000000000, 0.000000000000000000, 0.000000000000000000, 0.000000000000000000, 0.000000000000000000, 0.000000000000000000 ) ;
#144 = SURFACE_STYLE_FILL_AREA ( #210 ) ;
#145 = CARTESIAN_POINT ( 'NONE',  ( 0.000000000000000000, 1.625000000000000000, 0.000000000000000000 ) ) ;
#146 = APPLICATION_CONTEXT ( 'automotive_design' ) ;
#147 = CLOSED_SHELL ( 'NONE', ( #251, #134, #295, #123 ) ) ;
#148 = SURFACE_STYLE_FILL_AREA ( #81 ) ;
#149 = CARTESIAN_POINT ( 'NONE',  ( -0.3750000000000002776, 4.000000000000000000, 0.000000000000000000 ) ) ;
#150 = PLANE ( 'NONE',  #241 ) ;
#151 = PRODUCT_DEFINITION ( 'UNKNOWN', '', #213, #153 ) ;
#152 = SURFACE_STYLE_USAGE ( .BOTH. , #174 ) ;
#153 = PRODUCT_DEFINITION_CONTEXT ( 'detailed design', #161, 'design' ) ;
#154 = LINE ( 'NONE', #289, #116 ) ;
#155 = EDGE_CURVE ( 'NONE', #114, #140, #32, .T. ) ;
#156 = PRODUCT_DEFINITION_SHAPE ( 'NONE', 'NONE',  #151 ) ;
#157 = FILL_AREA_STYLE ('',( #61 ) ) ;
#158 = SURFACE_STYLE_FILL_AREA ( #297 ) ;
#159 = AXIS2_PLACEMENT_3D ( 'NONE', #80, #267, #237 ) ;
#160 = ORIENTED_EDGE ( 'NONE', *, *, #252, .F. ) ;
#161 = APPLICATION_CONTEXT ( 'automotive_design' ) ;
#162 = ORIENTED_EDGE ( 'NONE', *, *, #224, .T. ) ;
#163 = EDGE_CURVE ( 'NONE', #16, #245, #126, .T. ) ;
#164 = EDGE_LOOP ( 'NONE', ( #216, #162 ) ) ;
#165 = EDGE_LOOP ( 'NONE', ( #169, #223, #17, #56 ) ) ;
#166 = AXIS2_PLACEMENT_3D ( 'NONE', #132, #215, #111 ) ;
#167 = DIMENSIONAL_EXPONENTS ( 1.000000000000000000, 0.000000000000000000, 0.000000000000000000, 0.000000000000000000, 0.000000000000000000, 0.000000000000000000, 0.000000000000000000 ) ;
#168 = EDGE_CURVE ( 'NONE', #117, #245, #303, .T. ) ;
#169 = ORIENTED_EDGE ( 'NONE', *, *, #271, .T. ) ;
#170 = DIRECTION ( 'NONE',  ( -1.000000000000000000, 0.000000000000000000, 0.000000000000000000 ) ) ;
#171 = UNCERTAINTY_MEASURE_WITH_UNIT (LENGTH_MEASURE( 1.000000000000000082E-05 ), #20, 'distance_accuracy_value', 'NONE');
#172 = FACE_OUTER_BOUND ( 'NONE', #276, .T. ) ;
#173 = MANIFOLD_SOLID_BREP ( 'Revolve - Cutting Edge', #147 ) ;
#174 = SURFACE_SIDE_STYLE ('',( #148 ) ) ;
#175 = DIRECTION ( 'NONE',  ( 1.000000000000000000, 0.000000000000000000, 0.000000000000000000 ) ) ;
#176 =( CONVERSION_BASED_UNIT ( 'INCH', #242 ) LENGTH_UNIT ( ) NAMED_UNIT ( #300 ) );
#177 = CARTESIAN_POINT ( 'NONE',  ( 0.000000000000000000, 1.625000000000000000, -0.3750000000000000555 ) ) ;
#178 = PRESENTATION_LAYER_ASSIGNMENT (  '', '', ( #272 ) ) ;
#179 = PRESENTATION_STYLE_ASSIGNMENT (( #299 ) ) ;
#180 =( GEOMETRIC_REPRESENTATION_CONTEXT ( 3 ) GLOBAL_UNCERTAINTY_ASSIGNED_CONTEXT ( ( #190 ) ) GLOBAL_UNIT_ASSIGNED_CONTEXT ( ( #13, #113, #88 ) ) REPRESENTATION_CONTEXT ( 'NONE', 'WORKASPACE' ) );
#181 = LINE ( 'NONE', #304, #26 ) ;
#182 =( NAMED_UNIT ( * ) SI_UNIT ( $, .STERADIAN. ) SOLID_ANGLE_UNIT ( ) );
#183 = EDGE_LOOP ( 'NONE', ( #202, #254 ) ) ;
#184 = AXIS2_PLACEMENT_3D ( 'NONE', #188, #5, #170 ) ;
#185 =( NAMED_UNIT ( * ) PLANE_ANGLE_UNIT ( ) SI_UNIT ( $, .RADIAN. ) );
#186 = CARTESIAN_POINT ( 'NONE',  ( 0.3749999999999999445, 4.000000000000000000, 4.592425496802576068E-17 ) ) ;
#187 = DIRECTION ( 'NONE',  ( -0.000000000000000000, -1.000000000000000000, -0.000000000000000000 ) ) ;
#188 = CARTESIAN_POINT ( 'NONE',  ( 3.032960542342103792E-32, 1.625000000000000000, 0.000000000000000000 ) ) ;
#189 = PRESENTATION_STYLE_ASSIGNMENT (( #3 ) ) ;
#190 = UNCERTAINTY_MEASURE_WITH_UNIT (LENGTH_MEASURE( 1.000000000000000082E-05 ), #13, 'distance_accuracy_value', 'NONE');
#191 = DIRECTION ( 'NONE',  ( 5.156407575357275916E-17, -1.000000000000000000, 0.000000000000000000 ) ) ;
#192 = DIRECTION ( 'NONE',  ( -5.156407575357275299E-17, 1.000000000000000000, -0.000000000000000000 ) ) ;
#193 = ORIENTED_EDGE ( 'NONE', *, *, #155, .T. ) ;
#194 = CIRCLE ( 'NONE', #72, 0.3750000000000000555 ) ;
#195 = STYLED_ITEM ( 'NONE', ( #179 ), #251 ) ;
#196 = DIRECTION ( 'NONE',  ( 0.000000000000000000, -1.000000000000000000, -0.000000000000000000 ) ) ;
#197 = DIRECTION ( 'NONE',  ( -1.000000000000000000, -5.156407575357275916E-17, 0.000000000000000000 ) ) ;
#198 = AXIS2_PLACEMENT_3D ( 'NONE', #145, #230, #284 ) ;
#199 = COLOUR_RGB ( '',1.000000000000000000, 0.000000000000000000, 0.000000000000000000 ) ;
#200 = PRESENTATION_LAYER_ASSIGNMENT (  '', '', ( #66 ) ) ;
#201 = AXIS2_PLACEMENT_3D ( 'NONE', #282, #29, #205 ) ;
#202 = ORIENTED_EDGE ( 'NONE', *, *, #84, .T. ) ;
#203 =( CONVERSION_BASED_UNIT ( 'INCH', #69 ) LENGTH_UNIT ( ) NAMED_UNIT ( #47 ) );
#204 = MECHANICAL_DESIGN_GEOMETRIC_PRESENTATION_REPRESENTATION (  '', ( #66 ), #268 ) ;
#205 = DIRECTION ( 'NONE',  ( -1.000000000000000000, 0.000000000000000000, 0.000000000000000000 ) ) ;
#206 = MECHANICAL_DESIGN_GEOMETRIC_PRESENTATION_REPRESENTATION (  '', ( #124 ), #226 ) ;
#207 = CARTESIAN_POINT ( 'NONE',  ( 0.000000000000000000, 0.000000000000000000, 0.000000000000000000 ) ) ;
#208 = LENGTH_MEASURE_WITH_UNIT ( LENGTH_MEASURE( 0.02539999999999999897 ), #129 );
#209 =( NAMED_UNIT ( * ) PLANE_ANGLE_UNIT ( ) SI_UNIT ( $, .RADIAN. ) );
#210 = FILL_AREA_STYLE ('',( #308 ) ) ;
#211 = DIMENSIONAL_EXPONENTS ( 1.000000000000000000, 0.000000000000000000, 0.000000000000000000, 0.000000000000000000, 0.000000000000000000, 0.000000000000000000, 0.000000000000000000 ) ;
#212 =( GEOMETRIC_REPRESENTATION_CONTEXT ( 3 ) GLOBAL_UNCERTAINTY_ASSIGNED_CONTEXT ( ( #171 ) ) GLOBAL_UNIT_ASSIGNED_CONTEXT ( ( #20, #118, #182 ) ) REPRESENTATION_CONTEXT ( 'NONE', 'WORKASPACE' ) );
#213 = PRODUCT_DEFINITION_FORMATION_WITH_SPECIFIED_SOURCE ( 'ANY', '', #125, .NOT_KNOWN. ) ;
#214 = LENGTH_MEASURE_WITH_UNIT ( LENGTH_MEASURE( 0.02539999999999999897 ), #91 );
#215 = DIRECTION ( 'NONE',  ( -0.000000000000000000, -1.000000000000000000, -0.000000000000000000 ) ) ;
#216 = ORIENTED_EDGE ( 'NONE', *, *, #168, .T. ) ;
#217 = CARTESIAN_POINT ( 'NONE',  ( 0.3750000000000000555, 1.625000000000000000, 4.592425496802576684E-17 ) ) ;
#218 = COLOUR_RGB ( '',1.000000000000000000, 0.000000000000000000, 0.000000000000000000 ) ;
#219 = PRESENTATION_STYLE_ASSIGNMENT (( #41 ) ) ;
#220 = SURFACE_STYLE_FILL_AREA ( #157 ) ;
#221 = ORIENTED_EDGE ( 'NONE', *, *, #258, .F. ) ;
#222 = DIRECTION ( 'NONE',  ( 0.000000000000000000, 0.000000000000000000, -1.000000000000000000 ) ) ;
#223 = ORIENTED_EDGE ( 'NONE', *, *, #163, .T. ) ;
#224 = EDGE_CURVE ( 'NONE', #245, #117, #58, .T. ) ;
#225 = UNCERTAINTY_MEASURE_WITH_UNIT (LENGTH_MEASURE( 1.000000000000000082E-05 ), #28, 'distance_accuracy_value', 'NONE');
#226 =( GEOMETRIC_REPRESENTATION_CONTEXT ( 3 ) GLOBAL_UNCERTAINTY_ASSIGNED_CONTEXT ( ( #225 ) ) GLOBAL_UNIT_ASSIGNED_CONTEXT ( ( #28, #209, #266 ) ) REPRESENTATION_CONTEXT ( 'NONE', 'WORKASPACE' ) );
#227 = AXIS2_PLACEMENT_3D ( 'NONE', #106, #196, #77 ) ;
#228 = PLANE ( 'NONE',  #227 ) ;
#229 = UNCERTAINTY_MEASURE_WITH_UNIT (LENGTH_MEASURE( 1.000000000000000082E-05 ), #176, 'distance_accuracy_value', 'NONE');
#230 = DIRECTION ( 'NONE',  ( -0.000000000000000000, -1.000000000000000000, -0.000000000000000000 ) ) ;
#231 = CARTESIAN_POINT ( 'NONE',  ( 0.000000000000000000, 0.000000000000000000, -0.3750000000000000555 ) ) ;
#232 = ADVANCED_FACE ( 'NONE', ( #172 ), #150, .F. ) ;
#233 = PRESENTATION_LAYER_ASSIGNMENT (  '', '', ( #119 ) ) ;
#234 = ADVANCED_BREP_SHAPE_REPRESENTATION ( '48621', ( #173, #65, #239 ), #107 ) ;
#235 = DIRECTION ( 'NONE',  ( -0.000000000000000000, -1.000000000000000000, -0.000000000000000000 ) ) ;
#236 = CARTESIAN_POINT ( 'NONE',  ( 4.592425496802575451E-17, 0.000000000000000000, 0.3750000000000000555 ) ) ;
#237 = DIRECTION ( 'NONE',  ( -1.000000000000000000, 0.000000000000000000, 0.000000000000000000 ) ) ;
#238 = FILL_AREA_STYLE_COLOUR ( '', #287 ) ;
#239 = AXIS2_PLACEMENT_3D ( 'NONE', #281, #85, #175 ) ;
#240 = APPLICATION_PROTOCOL_DEFINITION ( 'draft international standard', 'automotive_design', 1998, #161 ) ;
#241 = AXIS2_PLACEMENT_3D ( 'NONE', #291, #86, #197 ) ;
#242 = LENGTH_MEASURE_WITH_UNIT ( LENGTH_MEASURE( 0.02539999999999999897 ), #293 );
#243 = UNCERTAINTY_MEASURE_WITH_UNIT (LENGTH_MEASURE( 1.000000000000000082E-05 ), #203, 'distance_accuracy_value', 'NONE');
#244 = PRESENTATION_STYLE_ASSIGNMENT (( #131 ) ) ;
#245 = VERTEX_POINT ( 'NONE', #39 ) ;
#246 = FILL_AREA_STYLE ('',( #93 ) ) ;
#247 = COLOUR_RGB ( '',0.7921568627450980005, 0.8196078431372548767, 0.9333333333333333481 ) ;
#248 = CYLINDRICAL_SURFACE ( 'NONE', #22, 0.3750000000000000555 ) ;
#249 = VERTEX_POINT ( 'NONE', #177 ) ;
#250 =( LENGTH_UNIT ( ) NAMED_UNIT ( * ) SI_UNIT ( $, .METRE. ) );
#251 = ADVANCED_FACE ( 'NONE', ( #42 ), #248, .T. ) ;
#252 = EDGE_CURVE ( 'NONE', #249, #82, #181, .T. ) ;
#253 = COLOUR_RGB ( '',1.000000000000000000, 0.000000000000000000, 0.000000000000000000 ) ;
#254 = ORIENTED_EDGE ( 'NONE', *, *, #7, .T. ) ;
#255 =( GEOMETRIC_REPRESENTATION_CONTEXT ( 3 ) GLOBAL_UNCERTAINTY_ASSIGNED_CONTEXT ( ( #229 ) ) GLOBAL_UNIT_ASSIGNED_CONTEXT ( ( #176, #34, #257 ) ) REPRESENTATION_CONTEXT ( 'NONE', 'WORKASPACE' ) );
#256 =( LENGTH_UNIT ( ) NAMED_UNIT ( * ) SI_UNIT ( $, .METRE. ) );
#257 =( NAMED_UNIT ( * ) SI_UNIT ( $, .STERADIAN. ) SOLID_ANGLE_UNIT ( ) );
#258 = EDGE_CURVE ( 'NONE', #114, #249, #128, .T. ) ;
#259 = MECHANICAL_DESIGN_GEOMETRIC_PRESENTATION_REPRESENTATION (  '', ( #195 ), #101 ) ;
#260 = CIRCLE ( 'NONE', #184, 0.3750000000000000555 ) ;
#261 = CARTESIAN_POINT ( 'NONE',  ( 0.000000000000000000, 0.000000000000000000, 0.000000000000000000 ) ) ;
#262 = ORIENTED_EDGE ( 'NONE', *, *, #224, .F. ) ;
#263 = FACE_OUTER_BOUND ( 'NONE', #92, .T. ) ;
#264 = ADVANCED_FACE ( 'NONE', ( #55 ), #4, .T. ) ;
#265 =( NAMED_UNIT ( * ) SI_UNIT ( $, .STERADIAN. ) SOLID_ANGLE_UNIT ( ) );
#266 =( NAMED_UNIT ( * ) SI_UNIT ( $, .STERADIAN. ) SOLID_ANGLE_UNIT ( ) );
#267 = DIRECTION ( 'NONE',  ( -5.156407575357275299E-17, 1.000000000000000000, -0.000000000000000000 ) ) ;
#268 =( GEOMETRIC_REPRESENTATION_CONTEXT ( 3 ) GLOBAL_UNCERTAINTY_ASSIGNED_CONTEXT ( ( #292 ) ) GLOBAL_UNIT_ASSIGNED_CONTEXT ( ( #9, #103, #265 ) ) REPRESENTATION_CONTEXT ( 'NONE', 'WORKASPACE' ) );
#269 = FILL_AREA_STYLE_COLOUR ( '', #218 ) ;
#270 = CARTESIAN_POINT ( 'NONE',  ( 4.592425496802575451E-17, 0.000000000000000000, 0.3750000000000000555 ) ) ;
#271 = EDGE_CURVE ( 'NONE', #14, #16, #89, .T. ) ;
#272 = STYLED_ITEM ( 'NONE', ( #68 ), #295 ) ;
#273 = SURFACE_SIDE_STYLE ('',( #112 ) ) ;
#274 = DIRECTION ( 'NONE',  ( -5.156407575357275299E-17, 1.000000000000000000, -0.000000000000000000 ) ) ;
#275 = MECHANICAL_DESIGN_GEOMETRIC_PRESENTATION_REPRESENTATION (  '', ( #119 ), #212 ) ;
#276 = EDGE_LOOP ( 'NONE', ( #19, #280 ) ) ;
#277 = PRESENTATION_LAYER_ASSIGNMENT (  '', '', ( #124 ) ) ;
#278 = FILL_AREA_STYLE ('',( #87 ) ) ;
#279 = CARTESIAN_POINT ( 'NONE',  ( 0.000000000000000000, 0.000000000000000000, 0.000000000000000000 ) ) ;
#280 = ORIENTED_EDGE ( 'NONE', *, *, #96, .F. ) ;
#281 = CARTESIAN_POINT ( 'NONE',  ( 0.000000000000000000, 0.000000000000000000, 0.000000000000000000 ) ) ;
#282 = CARTESIAN_POINT ( 'NONE',  ( -1.224646799147352714E-16, 4.000000000000000000, 0.000000000000000000 ) ) ;
#283 = DIRECTION ( 'NONE',  ( -5.156407575357275916E-17, 1.000000000000000000, -0.000000000000000000 ) ) ;
#284 = DIRECTION ( 'NONE',  ( 0.000000000000000000, 0.000000000000000000, -1.000000000000000000 ) ) ;
#285 = ORIENTED_EDGE ( 'NONE', *, *, #10, .T. ) ;
#286 = AXIS2_PLACEMENT_3D ( 'NONE', #100, #127, #6 ) ;
#287 = COLOUR_RGB ( '',1.000000000000000000, 0.000000000000000000, 0.000000000000000000 ) ;
#288 = PRODUCT_CONTEXT ( 'NONE', #146, 'mechanical' ) ;
#289 = CARTESIAN_POINT ( 'NONE',  ( -0.3750000000000002220, 4.000000000000000000, 0.000000000000000000 ) ) ;
#290 = FACE_OUTER_BOUND ( 'NONE', #73, .T. ) ;
#291 = CARTESIAN_POINT ( 'NONE',  ( 4.985351078100356093E-34, 1.625000000000000000, 0.000000000000000000 ) ) ;
#292 = UNCERTAINTY_MEASURE_WITH_UNIT (LENGTH_MEASURE( 1.000000000000000082E-05 ), #9, 'distance_accuracy_value', 'NONE');
#293 =( LENGTH_UNIT ( ) NAMED_UNIT ( * ) SI_UNIT ( $, .METRE. ) );
#294 = SURFACE_SIDE_STYLE ('',( #220 ) ) ;
#295 = ADVANCED_FACE ( 'NONE', ( #290 ), #37, .T. ) ;
#296 =( NAMED_UNIT ( * ) PLANE_ANGLE_UNIT ( ) SI_UNIT ( $, .RADIAN. ) );
#297 = FILL_AREA_STYLE ('',( #238 ) ) ;
#298 = CARTESIAN_POINT ( 'NONE',  ( -1.224646799147352714E-16, 4.000000000000000000, 0.000000000000000000 ) ) ;
#299 = SURFACE_STYLE_USAGE ( .BOTH. , #294 ) ;
#300 = DIMENSIONAL_EXPONENTS ( 1.000000000000000000, 0.000000000000000000, 0.000000000000000000, 0.000000000000000000, 0.000000000000000000, 0.000000000000000000, 0.000000000000000000 ) ;
#301 = ORIENTED_EDGE ( 'NONE', *, *, #155, .F. ) ;
#302 = AXIS2_PLACEMENT_3D ( 'NONE', #79, #192, #51 ) ;
#303 = CIRCLE ( 'NONE', #201, 0.3750000000000001665 ) ;
#304 = CARTESIAN_POINT ( 'NONE',  ( 0.000000000000000000, 0.000000000000000000, -0.3750000000000000555 ) ) ;
#305 = EDGE_LOOP ( 'NONE', ( #121, #135, #70, #262 ) ) ;
#306 = AXIS2_PLACEMENT_3D ( 'NONE', #104, #191, #109 ) ;
#307 = DIRECTION ( 'NONE',  ( 0.000000000000000000, 1.000000000000000000, 0.000000000000000000 ) ) ;
#308 = FILL_AREA_STYLE_COLOUR ( '', #141 ) ;
#309 =( LENGTH_UNIT ( ) NAMED_UNIT ( * ) SI_UNIT ( $, .METRE. ) );
ENDSEC;
END-ISO-10303-21;
