ISO-10303-21;
HEADER;
FILE_DESCRIPTION (( 'STEP AP214' ),
    '1' );
FILE_NAME ('03270.STEP',
    '2023-06-22T15:06:26',
    ( '' ),
    ( '' ),
    'SwSTEP 2.0',
    'SolidWorks 2023',
    '' );
FILE_SCHEMA (( 'AUTOMOTIVE_DESIGN' ));
ENDSEC;

DATA;
#1 = PRESENTATION_LAYER_ASSIGNMENT (  '', '', ( #151 ) ) ;
#2 = UNCERTAINTY_MEASURE_WITH_UNIT (LENGTH_MEASURE( 1.000000000000000082E-05 ), #244, 'distance_accuracy_value', 'NONE');
#3 = APPLICATION_PROTOCOL_DEFINITION ( 'draft international standard', 'automotive_design', 1998, #161 ) ;
#4 = CYLINDRICAL_SURFACE ( 'NONE', #209, 0.1562500000000000278 ) ;
#5 = DIRECTION ( 'NONE',  ( -0.000000000000000000, -1.000000000000000000, -0.000000000000000000 ) ) ;
#6 = MANIFOLD_SOLID_BREP ( 'Revolve - Tool Body (Straight Shanked)', #63 ) ;
#7 = AXIS2_PLACEMENT_3D ( 'NONE', #207, #247, #87 ) ;
#8 = FILL_AREA_STYLE ('',( #34 ) ) ;
#9 =( LENGTH_UNIT ( ) NAMED_UNIT ( * ) SI_UNIT ( $, .METRE. ) );
#10 = FILL_AREA_STYLE_COLOUR ( '', #123 ) ;
#11 = ORIENTED_EDGE ( 'NONE', *, *, #153, .F. ) ;
#12 = CIRCLE ( 'NONE', #295, 0.1562500000000000000 ) ;
#13 = DIRECTION ( 'NONE',  ( -3.061616997868386099E-17, 1.000000000000000000, -0.000000000000000000 ) ) ;
#14 = CARTESIAN_POINT ( 'NONE',  ( 0.000000000000000000, 0.000000000000000000, -0.1562500000000000000 ) ) ;
#15 = ADVANCED_FACE ( 'NONE', ( #267 ), #221, .T. ) ;
#16 = AXIS2_PLACEMENT_3D ( 'NONE', #186, #39, #191 ) ;
#17 = VECTOR ( 'NONE', #256, 39.37007874015748143 ) ;
#18 = CARTESIAN_POINT ( 'NONE',  ( 0.000000000000000000, 1.000000000000000000, -0.1562500000000000000 ) ) ;
#19 = LENGTH_MEASURE_WITH_UNIT ( LENGTH_MEASURE( 0.02539999999999999897 ), #257 );
#20 = LINE ( 'NONE', #199, #134 ) ;
#21 = UNCERTAINTY_MEASURE_WITH_UNIT (LENGTH_MEASURE( 1.000000000000000082E-05 ), #205, 'distance_accuracy_value', 'NONE');
#22 = CARTESIAN_POINT ( 'NONE',  ( 0.000000000000000000, 0.000000000000000000, 0.000000000000000000 ) ) ;
#23 = CLOSED_SHELL ( 'NONE', ( #15, #195, #237, #32 ) ) ;
#24 = FACE_OUTER_BOUND ( 'NONE', #61, .T. ) ;
#25 =( NAMED_UNIT ( * ) PLANE_ANGLE_UNIT ( ) SI_UNIT ( $, .RADIAN. ) );
#26 = ORIENTED_EDGE ( 'NONE', *, *, #38, .F. ) ;
#27 = SURFACE_SIDE_STYLE ('',( #90 ) ) ;
#28 = SHAPE_DEFINITION_REPRESENTATION ( #181, #261 ) ;
#29 = CIRCLE ( 'NONE', #239, 0.1562500000000000000 ) ;
#30 = DIRECTION ( 'NONE',  ( 0.000000000000000000, 0.000000000000000000, 1.000000000000000000 ) ) ;
#31 = ORIENTED_EDGE ( 'NONE', *, *, #231, .T. ) ;
#32 = ADVANCED_FACE ( 'NONE', ( #60 ), #301, .T. ) ;
#33 =( CONVERSION_BASED_UNIT ( 'INCH', #57 ) LENGTH_UNIT ( ) NAMED_UNIT ( #270 ) );
#34 = FILL_AREA_STYLE_COLOUR ( '', #88 ) ;
#35 = ADVANCED_FACE ( 'NONE', ( #24 ), #91, .T. ) ;
#36 = SURFACE_STYLE_FILL_AREA ( #8 ) ;
#37 =( LENGTH_UNIT ( ) NAMED_UNIT ( * ) SI_UNIT ( $, .METRE. ) );
#38 = EDGE_CURVE ( 'NONE', #236, #109, #274, .T. ) ;
#39 = DIRECTION ( 'NONE',  ( -0.000000000000000000, -1.000000000000000000, -0.000000000000000000 ) ) ;
#40 = VERTEX_POINT ( 'NONE', #18 ) ;
#41 = DIRECTION ( 'NONE',  ( -3.061616997868386099E-17, 1.000000000000000000, -0.000000000000000000 ) ) ;
#42 = MECHANICAL_DESIGN_GEOMETRIC_PRESENTATION_REPRESENTATION (  '', ( #122 ), #304 ) ;
#43 = CARTESIAN_POINT ( 'NONE',  ( 7.323045813778616568E-35, 1.000000000000000000, 0.000000000000000000 ) ) ;
#44 = SURFACE_STYLE_FILL_AREA ( #65 ) ;
#45 = DIRECTION ( 'NONE',  ( -0.000000000000000000, -1.000000000000000000, -0.000000000000000000 ) ) ;
#46 = PRESENTATION_LAYER_ASSIGNMENT (  '', '', ( #113 ) ) ;
#47 = VECTOR ( 'NONE', #93, 39.37007874015748143 ) ;
#48 = SURFACE_STYLE_FILL_AREA ( #74 ) ;
#49 = ORIENTED_EDGE ( 'NONE', *, *, #153, .T. ) ;
#50 = LENGTH_MEASURE_WITH_UNIT ( LENGTH_MEASURE( 0.02539999999999999897 ), #213 );
#51 = AXIS2_PLACEMENT_3D ( 'NONE', #43, #280, #279 ) ;
#52 = DIRECTION ( 'NONE',  ( 0.000000000000000000, 0.000000000000000000, -1.000000000000000000 ) ) ;
#53 =( NAMED_UNIT ( * ) SI_UNIT ( $, .STERADIAN. ) SOLID_ANGLE_UNIT ( ) );
#54 = PLANE ( 'NONE',  #102 ) ;
#55 = ORIENTED_EDGE ( 'NONE', *, *, #173, .T. ) ;
#56 = PRESENTATION_LAYER_ASSIGNMENT (  '', '', ( #284 ) ) ;
#57 = LENGTH_MEASURE_WITH_UNIT ( LENGTH_MEASURE( 0.02539999999999999897 ), #163 );
#58 = MECHANICAL_DESIGN_GEOMETRIC_PRESENTATION_REPRESENTATION (  '', ( #151 ), #258 ) ;
#59 = SURFACE_STYLE_USAGE ( .BOTH. , #188 ) ;
#60 = FACE_OUTER_BOUND ( 'NONE', #246, .T. ) ;
#61 = EDGE_LOOP ( 'NONE', ( #278, #85, #157, #206 ) ) ;
#62 = CARTESIAN_POINT ( 'NONE',  ( -6.123233995736772199E-17, 3.000000000000000444, 0.000000000000000000 ) ) ;
#63 = CLOSED_SHELL ( 'NONE', ( #255, #71, #35, #275 ) ) ;
#64 = CIRCLE ( 'NONE', #124, 0.1562500000000000000 ) ;
#65 = FILL_AREA_STYLE ('',( #180 ) ) ;
#66 =( NAMED_UNIT ( * ) PLANE_ANGLE_UNIT ( ) SI_UNIT ( $, .RADIAN. ) );
#67 = FACE_OUTER_BOUND ( 'NONE', #308, .T. ) ;
#68 = CARTESIAN_POINT ( 'NONE',  ( 1.913510623667739463E-17, 0.000000000000000000, 0.1562500000000000000 ) ) ;
#69 =( GEOMETRIC_REPRESENTATION_CONTEXT ( 3 ) GLOBAL_UNCERTAINTY_ASSIGNED_CONTEXT ( ( #254 ) ) GLOBAL_UNIT_ASSIGNED_CONTEXT ( ( #92, #25, #202 ) ) REPRESENTATION_CONTEXT ( 'NONE', 'WORKASPACE' ) );
#70 = FILL_AREA_STYLE_COLOUR ( '', #234 ) ;
#71 = ADVANCED_FACE ( 'NONE', ( #179 ), #156, .F. ) ;
#72 = VERTEX_POINT ( 'NONE', #73 ) ;
#73 = CARTESIAN_POINT ( 'NONE',  ( 0.1562500000000000000, 3.000000000000000444, 1.913510623667739771E-17 ) ) ;
#74 = FILL_AREA_STYLE ('',( #192 ) ) ;
#75 = UNCERTAINTY_MEASURE_WITH_UNIT (LENGTH_MEASURE( 1.000000000000000082E-05 ), #288, 'distance_accuracy_value', 'NONE');
#76 = ORIENTED_EDGE ( 'NONE', *, *, #148, .T. ) ;
#77 = EDGE_LOOP ( 'NONE', ( #204, #141 ) ) ;
#78 = ORIENTED_EDGE ( 'NONE', *, *, #38, .T. ) ;
#79 = PRODUCT_CONTEXT ( 'NONE', #298, 'mechanical' ) ;
#80 = DIRECTION ( 'NONE',  ( -3.061616997868386099E-17, 1.000000000000000000, -0.000000000000000000 ) ) ;
#81 = ORIENTED_EDGE ( 'NONE', *, *, #173, .F. ) ;
#82 = DIMENSIONAL_EXPONENTS ( 1.000000000000000000, 0.000000000000000000, 0.000000000000000000, 0.000000000000000000, 0.000000000000000000, 0.000000000000000000, 0.000000000000000000 ) ;
#83 = CIRCLE ( 'NONE', #105, 0.1562500000000000000 ) ;
#84 = FACE_OUTER_BOUND ( 'NONE', #159, .T. ) ;
#85 = ORIENTED_EDGE ( 'NONE', *, *, #120, .T. ) ;
#86 = AXIS2_PLACEMENT_3D ( 'NONE', #100, #300, #176 ) ;
#87 = DIRECTION ( 'NONE',  ( 0.000000000000000000, -0.000000000000000000, 1.000000000000000000 ) ) ;
#88 = COLOUR_RGB ( '',0.7921568627450980005, 0.8196078431372548767, 0.9333333333333333481 ) ;
#89 = DIRECTION ( 'NONE',  ( -1.000000000000000000, 0.000000000000000000, 0.000000000000000000 ) ) ;
#90 = SURFACE_STYLE_FILL_AREA ( #303 ) ;
#91 = CYLINDRICAL_SURFACE ( 'NONE', #252, 0.1562500000000000278 ) ;
#92 =( CONVERSION_BASED_UNIT ( 'INCH', #19 ) LENGTH_UNIT ( ) NAMED_UNIT ( #273 ) );
#93 = DIRECTION ( 'NONE',  ( -3.061616997868386099E-17, 1.000000000000000000, -0.000000000000000000 ) ) ;
#94 = PRODUCT_DEFINITION ( 'UNKNOWN', '', #265, #107 ) ;
#95 = CARTESIAN_POINT ( 'NONE',  ( 0.000000000000000000, 1.000000000000000000, 0.000000000000000000 ) ) ;
#96 = DIRECTION ( 'NONE',  ( 0.000000000000000000, -1.000000000000000000, -0.000000000000000000 ) ) ;
#97 = VERTEX_POINT ( 'NONE', #306 ) ;
#98 = CARTESIAN_POINT ( 'NONE',  ( 0.000000000000000000, 0.000000000000000000, 0.000000000000000000 ) ) ;
#99 = PRESENTATION_STYLE_ASSIGNMENT (( #214 ) ) ;
#100 = CARTESIAN_POINT ( 'NONE',  ( -6.123233995736772199E-17, 3.000000000000000444, 0.000000000000000000 ) ) ;
#101 = DIRECTION ( 'NONE',  ( -1.000000000000000000, 0.000000000000000000, 0.000000000000000000 ) ) ;
#102 = AXIS2_PLACEMENT_3D ( 'NONE', #144, #245, #170 ) ;
#103 = FILL_AREA_STYLE_COLOUR ( '', #104 ) ;
#104 = COLOUR_RGB ( '',0.7921568627450980005, 0.8196078431372548767, 0.9333333333333333481 ) ;
#105 = AXIS2_PLACEMENT_3D ( 'NONE', #222, #271, #297 ) ;
#106 = SURFACE_SIDE_STYLE ('',( #44 ) ) ;
#107 = PRODUCT_DEFINITION_CONTEXT ( 'detailed design', #161, 'design' ) ;
#108 = SURFACE_STYLE_FILL_AREA ( #305 ) ;
#109 = VERTEX_POINT ( 'NONE', #68 ) ;
#110 = UNCERTAINTY_MEASURE_WITH_UNIT (LENGTH_MEASURE( 1.000000000000000082E-05 ), #33, 'distance_accuracy_value', 'NONE');
#111 = LENGTH_MEASURE_WITH_UNIT ( LENGTH_MEASURE( 0.02539999999999999897 ), #146 );
#112 = DIRECTION ( 'NONE',  ( 1.000000000000000000, 0.000000000000000000, 0.000000000000000000 ) ) ;
#113 = STYLED_ITEM ( 'NONE', ( #203 ), #6 ) ;
#114 = AXIS2_PLACEMENT_3D ( 'NONE', #164, #115, #264 ) ;
#115 = DIRECTION ( 'NONE',  ( -0.000000000000000000, -1.000000000000000000, -0.000000000000000000 ) ) ;
#116 =( CONVERSION_BASED_UNIT ( 'INCH', #50 ) LENGTH_UNIT ( ) NAMED_UNIT ( #169 ) );
#117 = SURFACE_SIDE_STYLE ('',( #219 ) ) ;
#118 = DIMENSIONAL_EXPONENTS ( 1.000000000000000000, 0.000000000000000000, 0.000000000000000000, 0.000000000000000000, 0.000000000000000000, 0.000000000000000000, 0.000000000000000000 ) ;
#119 = ORIENTED_EDGE ( 'NONE', *, *, #293, .F. ) ;
#120 = EDGE_CURVE ( 'NONE', #149, #251, #64, .T. ) ;
#121 = ORIENTED_EDGE ( 'NONE', *, *, #281, .F. ) ;
#122 = STYLED_ITEM ( 'NONE', ( #250 ), #237 ) ;
#123 = COLOUR_RGB ( '',1.000000000000000000, 0.000000000000000000, 0.000000000000000000 ) ;
#124 = AXIS2_PLACEMENT_3D ( 'NONE', #132, #155, #253 ) ;
#125 = CARTESIAN_POINT ( 'NONE',  ( -6.123233995736772199E-17, 3.000000000000000444, 0.000000000000000000 ) ) ;
#126 = PRESENTATION_STYLE_ASSIGNMENT (( #59 ) ) ;
#127 = CARTESIAN_POINT ( 'NONE',  ( -6.123233995736772199E-17, 3.000000000000000444, 0.000000000000000000 ) ) ;
#128 = PRESENTATION_STYLE_ASSIGNMENT (( #178 ) ) ;
#129 = ORIENTED_EDGE ( 'NONE', *, *, #260, .T. ) ;
#130 = LINE ( 'NONE', #302, #47 ) ;
#131 = UNCERTAINTY_MEASURE_WITH_UNIT (LENGTH_MEASURE( 1.000000000000000082E-05 ), #226, 'distance_accuracy_value', 'NONE');
#132 = CARTESIAN_POINT ( 'NONE',  ( 7.582401355855259480E-33, 1.000000000000000000, 0.000000000000000000 ) ) ;
#133 = PRESENTATION_LAYER_ASSIGNMENT (  '', '', ( #167 ) ) ;
#134 = VECTOR ( 'NONE', #45, 39.37007874015748143 ) ;
#135 =( NAMED_UNIT ( * ) SI_UNIT ( $, .STERADIAN. ) SOLID_ANGLE_UNIT ( ) );
#136 = PRESENTATION_STYLE_ASSIGNMENT (( #233 ) ) ;
#137 = DIRECTION ( 'NONE',  ( 0.000000000000000000, 0.000000000000000000, -1.000000000000000000 ) ) ;
#138 =( LENGTH_UNIT ( ) NAMED_UNIT ( * ) SI_UNIT ( $, .METRE. ) );
#139 =( NAMED_UNIT ( * ) SI_UNIT ( $, .STERADIAN. ) SOLID_ANGLE_UNIT ( ) );
#140 = PRESENTATION_LAYER_ASSIGNMENT (  '', '', ( #122 ) ) ;
#141 = ORIENTED_EDGE ( 'NONE', *, *, #120, .F. ) ;
#142 = DIMENSIONAL_EXPONENTS ( 1.000000000000000000, 0.000000000000000000, 0.000000000000000000, 0.000000000000000000, 0.000000000000000000, 0.000000000000000000, 0.000000000000000000 ) ;
#143 = ORIENTED_EDGE ( 'NONE', *, *, #281, .T. ) ;
#144 = CARTESIAN_POINT ( 'NONE',  ( 0.1562500000000000000, 3.000000000000000444, 0.000000000000000000 ) ) ;
#145 =( NAMED_UNIT ( * ) SI_UNIT ( $, .STERADIAN. ) SOLID_ANGLE_UNIT ( ) );
#146 =( LENGTH_UNIT ( ) NAMED_UNIT ( * ) SI_UNIT ( $, .METRE. ) );
#147 =( GEOMETRIC_REPRESENTATION_CONTEXT ( 3 ) GLOBAL_UNCERTAINTY_ASSIGNED_CONTEXT ( ( #110 ) ) GLOBAL_UNIT_ASSIGNED_CONTEXT ( ( #33, #187, #145 ) ) REPRESENTATION_CONTEXT ( 'NONE', 'WORKASPACE' ) );
#148 = EDGE_CURVE ( 'NONE', #149, #72, #130, .T. ) ;
#149 = VERTEX_POINT ( 'NONE', #182 ) ;
#150 = DIRECTION ( 'NONE',  ( -0.000000000000000000, -1.000000000000000000, -0.000000000000000000 ) ) ;
#151 = STYLED_ITEM ( 'NONE', ( #126 ), #217 ) ;
#152 = CARTESIAN_POINT ( 'NONE',  ( 0.000000000000000000, 1.000000000000000000, 0.000000000000000000 ) ) ;
#153 = EDGE_CURVE ( 'NONE', #97, #109, #175, .T. ) ;
#154 = MECHANICAL_DESIGN_GEOMETRIC_PRESENTATION_REPRESENTATION (  '', ( #194 ), #168 ) ;
#155 = DIRECTION ( 'NONE',  ( -3.061616997868386099E-17, 1.000000000000000000, -0.000000000000000000 ) ) ;
#156 = PLANE ( 'NONE',  #51 ) ;
#157 = ORIENTED_EDGE ( 'NONE', *, *, #269, .T. ) ;
#158 = SURFACE_SIDE_STYLE ('',( #48 ) ) ;
#159 = EDGE_LOOP ( 'NONE', ( #283, #129 ) ) ;
#160 = VECTOR ( 'NONE', #208, 39.37007874015748143 ) ;
#161 = APPLICATION_CONTEXT ( 'automotive_design' ) ;
#162 = SURFACE_STYLE_USAGE ( .BOTH. , #27 ) ;
#163 =( LENGTH_UNIT ( ) NAMED_UNIT ( * ) SI_UNIT ( $, .METRE. ) );
#164 = CARTESIAN_POINT ( 'NONE',  ( 0.000000000000000000, 0.000000000000000000, 0.000000000000000000 ) ) ;
#165 = DIRECTION ( 'NONE',  ( -0.000000000000000000, -1.000000000000000000, -0.000000000000000000 ) ) ;
#166 =( NAMED_UNIT ( * ) PLANE_ANGLE_UNIT ( ) SI_UNIT ( $, .RADIAN. ) );
#167 = STYLED_ITEM ( 'NONE', ( #99 ), #15 ) ;
#168 =( GEOMETRIC_REPRESENTATION_CONTEXT ( 3 ) GLOBAL_UNCERTAINTY_ASSIGNED_CONTEXT ( ( #2 ) ) GLOBAL_UNIT_ASSIGNED_CONTEXT ( ( #244, #216, #135 ) ) REPRESENTATION_CONTEXT ( 'NONE', 'WORKASPACE' ) );
#169 = DIMENSIONAL_EXPONENTS ( 1.000000000000000000, 0.000000000000000000, 0.000000000000000000, 0.000000000000000000, 0.000000000000000000, 0.000000000000000000, 0.000000000000000000 ) ;
#170 = DIRECTION ( 'NONE',  ( 1.000000000000000000, 3.061616997868386099E-17, 0.000000000000000000 ) ) ;
#171 = PRODUCT_RELATED_PRODUCT_CATEGORY ( 'part', '', ( #193 ) ) ;
#172 = CIRCLE ( 'NONE', #268, 0.1562500000000000000 ) ;
#173 = EDGE_CURVE ( 'NONE', #40, #236, #20, .T. ) ;
#174 =( GEOMETRIC_REPRESENTATION_CONTEXT ( 3 ) GLOBAL_UNCERTAINTY_ASSIGNED_CONTEXT ( ( #75 ) ) GLOBAL_UNIT_ASSIGNED_CONTEXT ( ( #288, #243, #53 ) ) REPRESENTATION_CONTEXT ( 'NONE', 'WORKASPACE' ) );
#175 = LINE ( 'NONE', #230, #17 ) ;
#176 = DIRECTION ( 'NONE',  ( -1.000000000000000000, 0.000000000000000000, 0.000000000000000000 ) ) ;
#177 = SURFACE_STYLE_USAGE ( .BOTH. , #196 ) ;
#178 = SURFACE_STYLE_USAGE ( .BOTH. , #106 ) ;
#179 = FACE_OUTER_BOUND ( 'NONE', #77, .T. ) ;
#180 = FILL_AREA_STYLE_COLOUR ( '', #263 ) ;
#181 = PRODUCT_DEFINITION_SHAPE ( 'NONE', 'NONE',  #94 ) ;
#182 = CARTESIAN_POINT ( 'NONE',  ( 0.1562500000000000000, 1.000000000000000000, 1.913510623667739771E-17 ) ) ;
#183 = LENGTH_MEASURE_WITH_UNIT ( LENGTH_MEASURE( 0.02539999999999999897 ), #138 );
#184 = EDGE_LOOP ( 'NONE', ( #272, #76, #309, #242 ) ) ;
#185 =( GEOMETRIC_REPRESENTATION_CONTEXT ( 3 ) GLOBAL_UNCERTAINTY_ASSIGNED_CONTEXT ( ( #235 ) ) GLOBAL_UNIT_ASSIGNED_CONTEXT ( ( #116, #166, #210 ) ) REPRESENTATION_CONTEXT ( 'NONE', 'WORKASPACE' ) );
#186 = CARTESIAN_POINT ( 'NONE',  ( 0.000000000000000000, 0.000000000000000000, 0.000000000000000000 ) ) ;
#187 =( NAMED_UNIT ( * ) PLANE_ANGLE_UNIT ( ) SI_UNIT ( $, .RADIAN. ) );
#188 = SURFACE_SIDE_STYLE ('',( #36 ) ) ;
#189 =( NAMED_UNIT ( * ) SI_UNIT ( $, .STERADIAN. ) SOLID_ANGLE_UNIT ( ) );
#190 = PRESENTATION_LAYER_ASSIGNMENT (  '', '', ( #194 ) ) ;
#191 = DIRECTION ( 'NONE',  ( 0.000000000000000000, 0.000000000000000000, -1.000000000000000000 ) ) ;
#192 = FILL_AREA_STYLE_COLOUR ( '', #220 ) ;
#193 = PRODUCT ( '03270', '03270', '', ( #79 ) ) ;
#194 = STYLED_ITEM ( 'NONE', ( #128 ), #195 ) ;
#195 = ADVANCED_FACE ( 'NONE', ( #232 ), #276, .T. ) ;
#196 = SURFACE_SIDE_STYLE ('',( #108 ) ) ;
#197 = DIRECTION ( 'NONE',  ( -0.000000000000000000, -1.000000000000000000, -0.000000000000000000 ) ) ;
#198 = ORIENTED_EDGE ( 'NONE', *, *, #293, .T. ) ;
#199 = CARTESIAN_POINT ( 'NONE',  ( 0.000000000000000000, 0.000000000000000000, -0.1562500000000000000 ) ) ;
#200 = AXIS2_PLACEMENT_3D ( 'NONE', #62, #80, #218 ) ;
#201 = DIRECTION ( 'NONE',  ( 0.000000000000000000, 0.000000000000000000, -1.000000000000000000 ) ) ;
#202 =( NAMED_UNIT ( * ) SI_UNIT ( $, .STERADIAN. ) SOLID_ANGLE_UNIT ( ) );
#203 = PRESENTATION_STYLE_ASSIGNMENT (( #162 ) ) ;
#204 = ORIENTED_EDGE ( 'NONE', *, *, #289, .F. ) ;
#205 =( CONVERSION_BASED_UNIT ( 'INCH', #111 ) LENGTH_UNIT ( ) NAMED_UNIT ( #142 ) );
#206 = ORIENTED_EDGE ( 'NONE', *, *, #260, .F. ) ;
#207 = CARTESIAN_POINT ( 'NONE',  ( 0.000000000000000000, 1.000000000000000000, 0.000000000000000000 ) ) ;
#208 = DIRECTION ( 'NONE',  ( -3.061616997868386099E-17, 1.000000000000000000, -0.000000000000000000 ) ) ;
#209 = AXIS2_PLACEMENT_3D ( 'NONE', #125, #13, #101 ) ;
#210 =( NAMED_UNIT ( * ) SI_UNIT ( $, .STERADIAN. ) SOLID_ANGLE_UNIT ( ) );
#211 = FILL_AREA_STYLE ('',( #10 ) ) ;
#212 = CARTESIAN_POINT ( 'NONE',  ( -0.1562500000000000000, 1.000000000000000000, 0.000000000000000000 ) ) ;
#213 =( LENGTH_UNIT ( ) NAMED_UNIT ( * ) SI_UNIT ( $, .METRE. ) );
#214 = SURFACE_STYLE_USAGE ( .BOTH. , #117 ) ;
#215 = EDGE_LOOP ( 'NONE', ( #31, #49, #26, #81 ) ) ;
#216 =( NAMED_UNIT ( * ) PLANE_ANGLE_UNIT ( ) SI_UNIT ( $, .RADIAN. ) );
#217 = MANIFOLD_SOLID_BREP ( 'Revolve - Cutting Edge', #23 ) ;
#218 = DIRECTION ( 'NONE',  ( -1.000000000000000000, 0.000000000000000000, 0.000000000000000000 ) ) ;
#219 = SURFACE_STYLE_FILL_AREA ( #211 ) ;
#220 = COLOUR_RGB ( '',1.000000000000000000, 0.000000000000000000, 0.000000000000000000 ) ;
#221 = CYLINDRICAL_SURFACE ( 'NONE', #16, 0.1562500000000000000 ) ;
#222 = CARTESIAN_POINT ( 'NONE',  ( 7.582401355855259480E-33, 1.000000000000000000, 0.000000000000000000 ) ) ;
#223 = LENGTH_MEASURE_WITH_UNIT ( LENGTH_MEASURE( 0.02539999999999999897 ), #9 );
#224 = EDGE_CURVE ( 'NONE', #229, #72, #228, .T. ) ;
#225 = AXIS2_PLACEMENT_3D ( 'NONE', #22, #30, #112 ) ;
#226 =( CONVERSION_BASED_UNIT ( 'INCH', #223 ) LENGTH_UNIT ( ) NAMED_UNIT ( #118 ) );
#227 = MECHANICAL_DESIGN_GEOMETRIC_PRESENTATION_REPRESENTATION (  '', ( #284 ), #69 ) ;
#228 = CIRCLE ( 'NONE', #86, 0.1562500000000000833 ) ;
#229 = VERTEX_POINT ( 'NONE', #277 ) ;
#230 = CARTESIAN_POINT ( 'NONE',  ( 1.913510623667739463E-17, 0.000000000000000000, 0.1562500000000000000 ) ) ;
#231 = EDGE_CURVE ( 'NONE', #40, #97, #172, .T. ) ;
#232 = FACE_OUTER_BOUND ( 'NONE', #240, .T. ) ;
#233 = SURFACE_STYLE_USAGE ( .BOTH. , #158 ) ;
#234 = COLOUR_RGB ( '',1.000000000000000000, 0.000000000000000000, 0.000000000000000000 ) ;
#235 = UNCERTAINTY_MEASURE_WITH_UNIT (LENGTH_MEASURE( 1.000000000000000082E-05 ), #116, 'distance_accuracy_value', 'NONE');
#236 = VERTEX_POINT ( 'NONE', #14 ) ;
#237 = ADVANCED_FACE ( 'NONE', ( #67 ), #259, .T. ) ;
#238 = CARTESIAN_POINT ( 'NONE',  ( -0.1562500000000001110, 3.000000000000000444, 0.000000000000000000 ) ) ;
#239 = AXIS2_PLACEMENT_3D ( 'NONE', #95, #5, #137 ) ;
#240 = EDGE_LOOP ( 'NONE', ( #286, #119 ) ) ;
#241 = FACE_OUTER_BOUND ( 'NONE', #184, .T. ) ;
#242 = ORIENTED_EDGE ( 'NONE', *, *, #269, .F. ) ;
#243 =( NAMED_UNIT ( * ) PLANE_ANGLE_UNIT ( ) SI_UNIT ( $, .RADIAN. ) );
#244 =( CONVERSION_BASED_UNIT ( 'INCH', #262 ) LENGTH_UNIT ( ) NAMED_UNIT ( #82 ) );
#245 = DIRECTION ( 'NONE',  ( 3.061616997868386099E-17, -1.000000000000000000, 0.000000000000000000 ) ) ;
#246 = EDGE_LOOP ( 'NONE', ( #78, #143 ) ) ;
#247 = DIRECTION ( 'NONE',  ( 0.000000000000000000, 1.000000000000000000, 0.000000000000000000 ) ) ;
#248 = AXIS2_PLACEMENT_3D ( 'NONE', #282, #197, #201 ) ;
#249 = DIMENSIONAL_EXPONENTS ( 1.000000000000000000, 0.000000000000000000, 0.000000000000000000, 0.000000000000000000, 0.000000000000000000, 0.000000000000000000, 0.000000000000000000 ) ;
#250 = PRESENTATION_STYLE_ASSIGNMENT (( #177 ) ) ;
#251 = VERTEX_POINT ( 'NONE', #212 ) ;
#252 = AXIS2_PLACEMENT_3D ( 'NONE', #127, #41, #89 ) ;
#253 = DIRECTION ( 'NONE',  ( -1.000000000000000000, 0.000000000000000000, 0.000000000000000000 ) ) ;
#254 = UNCERTAINTY_MEASURE_WITH_UNIT (LENGTH_MEASURE( 1.000000000000000082E-05 ), #92, 'distance_accuracy_value', 'NONE');
#255 = ADVANCED_FACE ( 'NONE', ( #241 ), #4, .T. ) ;
#256 = DIRECTION ( 'NONE',  ( -0.000000000000000000, -1.000000000000000000, -0.000000000000000000 ) ) ;
#257 =( LENGTH_UNIT ( ) NAMED_UNIT ( * ) SI_UNIT ( $, .METRE. ) );
#258 =( GEOMETRIC_REPRESENTATION_CONTEXT ( 3 ) GLOBAL_UNCERTAINTY_ASSIGNED_CONTEXT ( ( #131 ) ) GLOBAL_UNIT_ASSIGNED_CONTEXT ( ( #226, #66, #189 ) ) REPRESENTATION_CONTEXT ( 'NONE', 'WORKASPACE' ) );
#259 = CYLINDRICAL_SURFACE ( 'NONE', #114, 0.1562500000000000000 ) ;
#260 = EDGE_CURVE ( 'NONE', #72, #229, #299, .T. ) ;
#261 = ADVANCED_BREP_SHAPE_REPRESENTATION ( '03270', ( #217, #6, #225 ), #185 ) ;
#262 = LENGTH_MEASURE_WITH_UNIT ( LENGTH_MEASURE( 0.02539999999999999897 ), #37 );
#263 = COLOUR_RGB ( '',1.000000000000000000, 0.000000000000000000, 0.000000000000000000 ) ;
#264 = DIRECTION ( 'NONE',  ( 0.000000000000000000, 0.000000000000000000, -1.000000000000000000 ) ) ;
#265 = PRODUCT_DEFINITION_FORMATION_WITH_SPECIFIED_SOURCE ( 'ANY', '', #193, .NOT_KNOWN. ) ;
#266 =( NAMED_UNIT ( * ) PLANE_ANGLE_UNIT ( ) SI_UNIT ( $, .RADIAN. ) );
#267 = FACE_OUTER_BOUND ( 'NONE', #215, .T. ) ;
#268 = AXIS2_PLACEMENT_3D ( 'NONE', #152, #150, #296 ) ;
#269 = EDGE_CURVE ( 'NONE', #251, #229, #291, .T. ) ;
#270 = DIMENSIONAL_EXPONENTS ( 1.000000000000000000, 0.000000000000000000, 0.000000000000000000, 0.000000000000000000, 0.000000000000000000, 0.000000000000000000, 0.000000000000000000 ) ;
#271 = DIRECTION ( 'NONE',  ( -3.061616997868386099E-17, 1.000000000000000000, -0.000000000000000000 ) ) ;
#272 = ORIENTED_EDGE ( 'NONE', *, *, #289, .T. ) ;
#273 = DIMENSIONAL_EXPONENTS ( 1.000000000000000000, 0.000000000000000000, 0.000000000000000000, 0.000000000000000000, 0.000000000000000000, 0.000000000000000000, 0.000000000000000000 ) ;
#274 = CIRCLE ( 'NONE', #248, 0.1562500000000000000 ) ;
#275 = ADVANCED_FACE ( 'NONE', ( #84 ), #54, .F. ) ;
#276 = PLANE ( 'NONE',  #7 ) ;
#277 = CARTESIAN_POINT ( 'NONE',  ( -0.1562500000000001388, 3.000000000000000444, 0.000000000000000000 ) ) ;
#278 = ORIENTED_EDGE ( 'NONE', *, *, #148, .F. ) ;
#279 = DIRECTION ( 'NONE',  ( -1.000000000000000000, -3.061616997868386099E-17, 0.000000000000000000 ) ) ;
#280 = DIRECTION ( 'NONE',  ( -3.061616997868386099E-17, 1.000000000000000000, 0.000000000000000000 ) ) ;
#281 = EDGE_CURVE ( 'NONE', #109, #236, #12, .T. ) ;
#282 = CARTESIAN_POINT ( 'NONE',  ( 0.000000000000000000, 0.000000000000000000, 0.000000000000000000 ) ) ;
#283 = ORIENTED_EDGE ( 'NONE', *, *, #224, .T. ) ;
#284 = STYLED_ITEM ( 'NONE', ( #136 ), #32 ) ;
#285 = AXIS2_PLACEMENT_3D ( 'NONE', #307, #96, #52 ) ;
#286 = ORIENTED_EDGE ( 'NONE', *, *, #231, .F. ) ;
#287 = APPLICATION_PROTOCOL_DEFINITION ( 'draft international standard', 'automotive_design', 1998, #298 ) ;
#288 =( CONVERSION_BASED_UNIT ( 'INCH', #183 ) LENGTH_UNIT ( ) NAMED_UNIT ( #249 ) );
#289 = EDGE_CURVE ( 'NONE', #251, #149, #83, .T. ) ;
#290 = MECHANICAL_DESIGN_GEOMETRIC_PRESENTATION_REPRESENTATION (  '', ( #113 ), #147 ) ;
#291 = LINE ( 'NONE', #238, #160 ) ;
#292 = DIRECTION ( 'NONE',  ( 0.000000000000000000, 0.000000000000000000, -1.000000000000000000 ) ) ;
#293 = EDGE_CURVE ( 'NONE', #97, #40, #29, .T. ) ;
#294 = MECHANICAL_DESIGN_GEOMETRIC_PRESENTATION_REPRESENTATION (  '', ( #167 ), #174 ) ;
#295 = AXIS2_PLACEMENT_3D ( 'NONE', #98, #165, #292 ) ;
#296 = DIRECTION ( 'NONE',  ( 0.000000000000000000, 0.000000000000000000, -1.000000000000000000 ) ) ;
#297 = DIRECTION ( 'NONE',  ( -1.000000000000000000, 0.000000000000000000, 0.000000000000000000 ) ) ;
#298 = APPLICATION_CONTEXT ( 'automotive_design' ) ;
#299 = CIRCLE ( 'NONE', #200, 0.1562500000000000833 ) ;
#300 = DIRECTION ( 'NONE',  ( -3.061616997868386099E-17, 1.000000000000000000, -0.000000000000000000 ) ) ;
#301 = PLANE ( 'NONE',  #285 ) ;
#302 = CARTESIAN_POINT ( 'NONE',  ( 0.1562499999999999722, 3.000000000000000444, 1.913510623667739771E-17 ) ) ;
#303 = FILL_AREA_STYLE ('',( #103 ) ) ;
#304 =( GEOMETRIC_REPRESENTATION_CONTEXT ( 3 ) GLOBAL_UNCERTAINTY_ASSIGNED_CONTEXT ( ( #21 ) ) GLOBAL_UNIT_ASSIGNED_CONTEXT ( ( #205, #266, #139 ) ) REPRESENTATION_CONTEXT ( 'NONE', 'WORKASPACE' ) );
#305 = FILL_AREA_STYLE ('',( #70 ) ) ;
#306 = CARTESIAN_POINT ( 'NONE',  ( 1.913510623667739463E-17, 1.000000000000000000, 0.1562500000000000000 ) ) ;
#307 = CARTESIAN_POINT ( 'NONE',  ( 0.000000000000000000, 0.000000000000000000, 0.000000000000000000 ) ) ;
#308 = EDGE_LOOP ( 'NONE', ( #11, #198, #55, #121 ) ) ;
#309 = ORIENTED_EDGE ( 'NONE', *, *, #224, .F. ) ;
ENDSEC;
END-ISO-10303-21;
