ISO-10303-21;
HEADER;
FILE_DESCRIPTION (( 'STEP AP214' ),
    '1' );
FILE_NAME ('01157.STEP',
    '2023-06-22T14:21:16',
    ( '' ),
    ( '' ),
    'SwSTEP 2.0',
    'SolidWorks 2023',
    '' );
FILE_SCHEMA (( 'AUTOMOTIVE_DESIGN' ));
ENDSEC;

DATA;
#1 = ORIENTED_EDGE ( 'NONE', *, *, #204, .F. ) ;
#2 = FACE_OUTER_BOUND ( 'NONE', #221, .T. ) ;
#3 = CIRCLE ( 'NONE', #154, 0.1249999999999999861 ) ;
#4 = CIRCLE ( 'NONE', #152, 0.1250000000000000000 ) ;
#5 = DIRECTION ( 'NONE',  ( -3.061616997868383018E-17, 1.000000000000000000, -0.000000000000000000 ) ) ;
#6 = LINE ( 'NONE', #274, #230 ) ;
#7 = LENGTH_MEASURE_WITH_UNIT ( LENGTH_MEASURE( 0.02539999999999999897 ), #216 );
#8 = COLOUR_RGB ( '',1.000000000000000000, 0.000000000000000000, 0.000000000000000000 ) ;
#9 = DIRECTION ( 'NONE',  ( -3.061616997868383018E-17, 1.000000000000000000, -0.000000000000000000 ) ) ;
#10 = EDGE_CURVE ( 'NONE', #96, #44, #121, .T. ) ;
#11 =( NAMED_UNIT ( * ) PLANE_ANGLE_UNIT ( ) SI_UNIT ( $, .RADIAN. ) );
#12 = UNCERTAINTY_MEASURE_WITH_UNIT (LENGTH_MEASURE( 1.000000000000000082E-05 ), #189, 'distance_accuracy_value', 'NONE');
#13 = AXIS2_PLACEMENT_3D ( 'NONE', #151, #118, #247 ) ;
#14 =( NAMED_UNIT ( * ) SI_UNIT ( $, .STERADIAN. ) SOLID_ANGLE_UNIT ( ) );
#15 = SURFACE_STYLE_USAGE ( .BOTH. , #305 ) ;
#16 = AXIS2_PLACEMENT_3D ( 'NONE', #168, #9, #108 ) ;
#17 = DIRECTION ( 'NONE',  ( -3.061616997868383018E-17, 1.000000000000000000, -0.000000000000000000 ) ) ;
#18 = PRODUCT_DEFINITION_CONTEXT ( 'detailed design', #288, 'design' ) ;
#19 = ORIENTED_EDGE ( 'NONE', *, *, #285, .F. ) ;
#20 = CARTESIAN_POINT ( 'NONE',  ( -6.123233995736766036E-17, 2.500000000000000000, 0.000000000000000000 ) ) ;
#21 = PRODUCT_CONTEXT ( 'NONE', #92, 'mechanical' ) ;
#22 = SURFACE_STYLE_FILL_AREA ( #183 ) ;
#23 = AXIS2_PLACEMENT_3D ( 'NONE', #179, #177, #47 ) ;
#24 = EDGE_LOOP ( 'NONE', ( #69, #98, #156, #278 ) ) ;
#25 = MANIFOLD_SOLID_BREP ( 'Revolve - Cutting Edge', #264 ) ;
#26 = SURFACE_SIDE_STYLE ('',( #263 ) ) ;
#27 = COLOUR_RGB ( '',1.000000000000000000, 0.000000000000000000, 0.000000000000000000 ) ;
#28 = SURFACE_STYLE_USAGE ( .BOTH. , #26 ) ;
#29 = ADVANCED_FACE ( 'NONE', ( #287 ), #251, .F. ) ;
#30 = CARTESIAN_POINT ( 'NONE',  ( -0.1250000000000000833, 2.500000000000000000, 0.000000000000000000 ) ) ;
#31 =( NAMED_UNIT ( * ) PLANE_ANGLE_UNIT ( ) SI_UNIT ( $, .RADIAN. ) );
#32 = DIMENSIONAL_EXPONENTS ( 1.000000000000000000, 0.000000000000000000, 0.000000000000000000, 0.000000000000000000, 0.000000000000000000, 0.000000000000000000, 0.000000000000000000 ) ;
#33 = DIRECTION ( 'NONE',  ( -1.000000000000000000, 0.000000000000000000, 0.000000000000000000 ) ) ;
#34 = CARTESIAN_POINT ( 'NONE',  ( 0.000000000000000000, 0.000000000000000000, -0.1250000000000000000 ) ) ;
#35 =( LENGTH_UNIT ( ) NAMED_UNIT ( * ) SI_UNIT ( $, .METRE. ) );
#36 = PRESENTATION_LAYER_ASSIGNMENT (  '', '', ( #40 ) ) ;
#37 =( NAMED_UNIT ( * ) PLANE_ANGLE_UNIT ( ) SI_UNIT ( $, .RADIAN. ) );
#38 = FILL_AREA_STYLE ('',( #194 ) ) ;
#39 =( NAMED_UNIT ( * ) SI_UNIT ( $, .STERADIAN. ) SOLID_ANGLE_UNIT ( ) );
#40 = STYLED_ITEM ( 'NONE', ( #74 ), #133 ) ;
#41 = FACE_OUTER_BOUND ( 'NONE', #261, .T. ) ;
#42 = PRODUCT_DEFINITION_SHAPE ( 'NONE', 'NONE',  #104 ) ;
#43 = CARTESIAN_POINT ( 'NONE',  ( -0.1250000000000001110, 2.500000000000000000, 0.000000000000000000 ) ) ;
#44 = VERTEX_POINT ( 'NONE', #43 ) ;
#45 =( GEOMETRIC_REPRESENTATION_CONTEXT ( 3 ) GLOBAL_UNCERTAINTY_ASSIGNED_CONTEXT ( ( #93 ) ) GLOBAL_UNIT_ASSIGNED_CONTEXT ( ( #238, #190, #88 ) ) REPRESENTATION_CONTEXT ( 'NONE', 'WORKASPACE' ) );
#46 = AXIS2_PLACEMENT_3D ( 'NONE', #174, #66, #137 ) ;
#47 = DIRECTION ( 'NONE',  ( -1.000000000000000000, 0.000000000000000000, 0.000000000000000000 ) ) ;
#48 = FACE_OUTER_BOUND ( 'NONE', #157, .T. ) ;
#49 = ORIENTED_EDGE ( 'NONE', *, *, #10, .T. ) ;
#50 = FILL_AREA_STYLE_COLOUR ( '', #182 ) ;
#51 = AXIS2_PLACEMENT_3D ( 'NONE', #266, #268, #54 ) ;
#52 = MECHANICAL_DESIGN_GEOMETRIC_PRESENTATION_REPRESENTATION (  '', ( #231 ), #120 ) ;
#53 = PRESENTATION_LAYER_ASSIGNMENT (  '', '', ( #158 ) ) ;
#54 = DIRECTION ( 'NONE',  ( 0.000000000000000000, 0.000000000000000000, -1.000000000000000000 ) ) ;
#55 = PLANE ( 'NONE',  #291 ) ;
#56 = DIRECTION ( 'NONE',  ( 0.000000000000000000, 1.000000000000000000, 0.000000000000000000 ) ) ;
#57 = ADVANCED_FACE ( 'NONE', ( #161 ), #126, .T. ) ;
#58 = DIRECTION ( 'NONE',  ( 0.000000000000000000, 0.000000000000000000, -1.000000000000000000 ) ) ;
#59 = DIRECTION ( 'NONE',  ( -0.000000000000000000, -1.000000000000000000, -0.000000000000000000 ) ) ;
#60 = AXIS2_PLACEMENT_3D ( 'NONE', #272, #56, #86 ) ;
#61 =( NAMED_UNIT ( * ) PLANE_ANGLE_UNIT ( ) SI_UNIT ( $, .RADIAN. ) );
#62 = CARTESIAN_POINT ( 'NONE',  ( 0.000000000000000000, 0.000000000000000000, -0.1250000000000000000 ) ) ;
#63 = PRESENTATION_STYLE_ASSIGNMENT (( #273 ) ) ;
#64 = MECHANICAL_DESIGN_GEOMETRIC_PRESENTATION_REPRESENTATION (  '', ( #158 ), #206 ) ;
#65 = PRODUCT_RELATED_PRODUCT_CATEGORY ( 'part', '', ( #240 ) ) ;
#66 = DIRECTION ( 'NONE',  ( 0.000000000000000000, 0.000000000000000000, 1.000000000000000000 ) ) ;
#67 =( NAMED_UNIT ( * ) PLANE_ANGLE_UNIT ( ) SI_UNIT ( $, .RADIAN. ) );
#68 = PLANE ( 'NONE',  #283 ) ;
#69 = ORIENTED_EDGE ( 'NONE', *, *, #178, .T. ) ;
#70 = DIRECTION ( 'NONE',  ( -1.000000000000000000, -3.061616997868383018E-17, 0.000000000000000000 ) ) ;
#71 = ORIENTED_EDGE ( 'NONE', *, *, #250, .F. ) ;
#72 = COLOUR_RGB ( '',1.000000000000000000, 0.000000000000000000, 0.000000000000000000 ) ;
#73 = VERTEX_POINT ( 'NONE', #269 ) ;
#74 = PRESENTATION_STYLE_ASSIGNMENT (( #309 ) ) ;
#75 = CYLINDRICAL_SURFACE ( 'NONE', #195, 0.1250000000000000278 ) ;
#76 = DIMENSIONAL_EXPONENTS ( 1.000000000000000000, 0.000000000000000000, 0.000000000000000000, 0.000000000000000000, 0.000000000000000000, 0.000000000000000000, 0.000000000000000000 ) ;
#77 = VERTEX_POINT ( 'NONE', #301 ) ;
#78 = MECHANICAL_DESIGN_GEOMETRIC_PRESENTATION_REPRESENTATION (  '', ( #110 ), #211 ) ;
#79 = FILL_AREA_STYLE ('',( #103 ) ) ;
#80 =( CONVERSION_BASED_UNIT ( 'INCH', #109 ) LENGTH_UNIT ( ) NAMED_UNIT ( #83 ) );
#81 = AXIS2_PLACEMENT_3D ( 'NONE', #214, #267, #33 ) ;
#82 = AXIS2_PLACEMENT_3D ( 'NONE', #105, #125, #58 ) ;
#83 = DIMENSIONAL_EXPONENTS ( 1.000000000000000000, 0.000000000000000000, 0.000000000000000000, 0.000000000000000000, 0.000000000000000000, 0.000000000000000000, 0.000000000000000000 ) ;
#84 = EDGE_CURVE ( 'NONE', #99, #253, #270, .T. ) ;
#85 = DIRECTION ( 'NONE',  ( -0.000000000000000000, -1.000000000000000000, -0.000000000000000000 ) ) ;
#86 = DIRECTION ( 'NONE',  ( 0.000000000000000000, -0.000000000000000000, 1.000000000000000000 ) ) ;
#87 = CARTESIAN_POINT ( 'NONE',  ( 0.1250000000000000000, 2.500000000000000000, 1.530808498934192125E-17 ) ) ;
#88 =( NAMED_UNIT ( * ) SI_UNIT ( $, .STERADIAN. ) SOLID_ANGLE_UNIT ( ) );
#89 = FILL_AREA_STYLE_COLOUR ( '', #203 ) ;
#90 = PRESENTATION_LAYER_ASSIGNMENT (  '', '', ( #231 ) ) ;
#91 = STYLED_ITEM ( 'NONE', ( #63 ), #57 ) ;
#92 = APPLICATION_CONTEXT ( 'automotive_design' ) ;
#93 = UNCERTAINTY_MEASURE_WITH_UNIT (LENGTH_MEASURE( 1.000000000000000082E-05 ), #238, 'distance_accuracy_value', 'NONE');
#94 = CARTESIAN_POINT ( 'NONE',  ( 0.000000000000000000, 0.000000000000000000, 0.000000000000000000 ) ) ;
#95 = DIRECTION ( 'NONE',  ( -1.000000000000000000, 0.000000000000000000, 0.000000000000000000 ) ) ;
#96 = VERTEX_POINT ( 'NONE', #87 ) ;
#97 = AXIS2_PLACEMENT_3D ( 'NONE', #232, #210, #165 ) ;
#98 = ORIENTED_EDGE ( 'NONE', *, *, #119, .T. ) ;
#99 = VERTEX_POINT ( 'NONE', #213 ) ;
#100 = EDGE_CURVE ( 'NONE', #73, #155, #166, .T. ) ;
#101 = EDGE_LOOP ( 'NONE', ( #114, #135, #184, #282 ) ) ;
#102 =( GEOMETRIC_REPRESENTATION_CONTEXT ( 3 ) GLOBAL_UNCERTAINTY_ASSIGNED_CONTEXT ( ( #241 ) ) GLOBAL_UNIT_ASSIGNED_CONTEXT ( ( #215, #11, #107 ) ) REPRESENTATION_CONTEXT ( 'NONE', 'WORKASPACE' ) );
#103 = FILL_AREA_STYLE_COLOUR ( '', #72 ) ;
#104 = PRODUCT_DEFINITION ( 'UNKNOWN', '', #290, #18 ) ;
#105 = CARTESIAN_POINT ( 'NONE',  ( 0.000000000000000000, 0.5000000000000000000, 0.000000000000000000 ) ) ;
#106 = DIRECTION ( 'NONE',  ( 0.000000000000000000, -1.000000000000000000, -0.000000000000000000 ) ) ;
#107 =( NAMED_UNIT ( * ) SI_UNIT ( $, .STERADIAN. ) SOLID_ANGLE_UNIT ( ) );
#108 = DIRECTION ( 'NONE',  ( -1.000000000000000000, 0.000000000000000000, 0.000000000000000000 ) ) ;
#109 = LENGTH_MEASURE_WITH_UNIT ( LENGTH_MEASURE( 0.02539999999999999897 ), #299 );
#110 = STYLED_ITEM ( 'NONE', ( #197 ), #25 ) ;
#111 = PRESENTATION_STYLE_ASSIGNMENT (( #167 ) ) ;
#112 = APPLICATION_PROTOCOL_DEFINITION ( 'draft international standard', 'automotive_design', 1998, #288 ) ;
#113 = ORIENTED_EDGE ( 'NONE', *, *, #149, .F. ) ;
#114 = ORIENTED_EDGE ( 'NONE', *, *, #119, .F. ) ;
#115 = CLOSED_SHELL ( 'NONE', ( #188, #124, #262, #29 ) ) ;
#116 = CARTESIAN_POINT ( 'NONE',  ( 5.858436651022881281E-35, 0.5000000000000000000, 0.000000000000000000 ) ) ;
#117 = ORIENTED_EDGE ( 'NONE', *, *, #172, .F. ) ;
#118 = DIRECTION ( 'NONE',  ( -0.000000000000000000, -1.000000000000000000, -0.000000000000000000 ) ) ;
#119 = EDGE_CURVE ( 'NONE', #99, #96, #200, .T. ) ;
#120 =( GEOMETRIC_REPRESENTATION_CONTEXT ( 3 ) GLOBAL_UNCERTAINTY_ASSIGNED_CONTEXT ( ( #12 ) ) GLOBAL_UNIT_ASSIGNED_CONTEXT ( ( #189, #31, #39 ) ) REPRESENTATION_CONTEXT ( 'NONE', 'WORKASPACE' ) );
#121 = CIRCLE ( 'NONE', #23, 0.1250000000000000555 ) ;
#122 = ORIENTED_EDGE ( 'NONE', *, *, #250, .T. ) ;
#123 = MECHANICAL_DESIGN_GEOMETRIC_PRESENTATION_REPRESENTATION (  '', ( #40 ), #186 ) ;
#124 = ADVANCED_FACE ( 'NONE', ( #41 ), #68, .F. ) ;
#125 = DIRECTION ( 'NONE',  ( -0.000000000000000000, -1.000000000000000000, -0.000000000000000000 ) ) ;
#126 = CYLINDRICAL_SURFACE ( 'NONE', #169, 0.1250000000000000000 ) ;
#127 = DIRECTION ( 'NONE',  ( 0.000000000000000000, 0.000000000000000000, -1.000000000000000000 ) ) ;
#128 = FACE_OUTER_BOUND ( 'NONE', #101, .T. ) ;
#129 = UNCERTAINTY_MEASURE_WITH_UNIT (LENGTH_MEASURE( 1.000000000000000082E-05 ), #144, 'distance_accuracy_value', 'NONE');
#130 = CYLINDRICAL_SURFACE ( 'NONE', #187, 0.1250000000000000278 ) ;
#131 = SURFACE_SIDE_STYLE ('',( #193 ) ) ;
#132 = LENGTH_MEASURE_WITH_UNIT ( LENGTH_MEASURE( 0.02539999999999999897 ), #173 );
#133 = ADVANCED_FACE ( 'NONE', ( #48 ), #225, .T. ) ;
#134 = ORIENTED_EDGE ( 'NONE', *, *, #100, .F. ) ;
#135 = ORIENTED_EDGE ( 'NONE', *, *, #84, .T. ) ;
#136 = CIRCLE ( 'NONE', #97, 0.1250000000000000000 ) ;
#137 = DIRECTION ( 'NONE',  ( 1.000000000000000000, 0.000000000000000000, 0.000000000000000000 ) ) ;
#138 = ORIENTED_EDGE ( 'NONE', *, *, #204, .T. ) ;
#139 = FILL_AREA_STYLE_COLOUR ( '', #8 ) ;
#140 = SURFACE_STYLE_FILL_AREA ( #254 ) ;
#141 = ORIENTED_EDGE ( 'NONE', *, *, #285, .T. ) ;
#142 = ADVANCED_FACE ( 'NONE', ( #297 ), #150, .T. ) ;
#143 = CIRCLE ( 'NONE', #13, 0.1249999999999999861 ) ;
#144 =( CONVERSION_BASED_UNIT ( 'INCH', #185 ) LENGTH_UNIT ( ) NAMED_UNIT ( #32 ) );
#145 = DIRECTION ( 'NONE',  ( -3.061616997868383018E-17, 1.000000000000000000, -0.000000000000000000 ) ) ;
#146 = CARTESIAN_POINT ( 'NONE',  ( 0.000000000000000000, 0.5000000000000001110, 0.000000000000000000 ) ) ;
#147 = PRESENTATION_LAYER_ASSIGNMENT (  '', '', ( #91 ) ) ;
#148 = UNCERTAINTY_MEASURE_WITH_UNIT (LENGTH_MEASURE( 1.000000000000000082E-05 ), #80, 'distance_accuracy_value', 'NONE');
#149 = EDGE_CURVE ( 'NONE', #77, #155, #136, .T. ) ;
#150 = CYLINDRICAL_SURFACE ( 'NONE', #51, 0.1250000000000000000 ) ;
#151 = CARTESIAN_POINT ( 'NONE',  ( 0.000000000000000000, 0.5000000000000000000, 0.000000000000000000 ) ) ;
#152 = AXIS2_PLACEMENT_3D ( 'NONE', #246, #85, #212 ) ;
#153 = EDGE_CURVE ( 'NONE', #253, #44, #243, .T. ) ;
#154 = AXIS2_PLACEMENT_3D ( 'NONE', #146, #222, #95 ) ;
#155 = VERTEX_POINT ( 'NONE', #34 ) ;
#156 = ORIENTED_EDGE ( 'NONE', *, *, #298, .F. ) ;
#157 = EDGE_LOOP ( 'NONE', ( #117, #1 ) ) ;
#158 = STYLED_ITEM ( 'NONE', ( #300 ), #218 ) ;
#159 = DIRECTION ( 'NONE',  ( -1.000000000000000000, 0.000000000000000000, 0.000000000000000000 ) ) ;
#160 = DIRECTION ( 'NONE',  ( 3.061616997868383018E-17, -1.000000000000000000, 0.000000000000000000 ) ) ;
#161 = FACE_OUTER_BOUND ( 'NONE', #258, .T. ) ;
#162 =( LENGTH_UNIT ( ) NAMED_UNIT ( * ) SI_UNIT ( $, .METRE. ) );
#163 = MECHANICAL_DESIGN_GEOMETRIC_PRESENTATION_REPRESENTATION (  '', ( #248 ), #102 ) ;
#164 = DIRECTION ( 'NONE',  ( -1.000000000000000000, 0.000000000000000000, 0.000000000000000000 ) ) ;
#165 = DIRECTION ( 'NONE',  ( 0.000000000000000000, 0.000000000000000000, -1.000000000000000000 ) ) ;
#166 = LINE ( 'NONE', #62, #308 ) ;
#167 = SURFACE_STYLE_USAGE ( .BOTH. , #131 ) ;
#168 = CARTESIAN_POINT ( 'NONE',  ( 0.000000000000000000, 0.5000000000000001110, 0.000000000000000000 ) ) ;
#169 = AXIS2_PLACEMENT_3D ( 'NONE', #196, #271, #296 ) ;
#170 = CARTESIAN_POINT ( 'NONE',  ( -6.123233995736766036E-17, 2.500000000000000000, 0.000000000000000000 ) ) ;
#171 = SURFACE_SIDE_STYLE ('',( #245 ) ) ;
#172 = EDGE_CURVE ( 'NONE', #73, #304, #293, .T. ) ;
#173 =( LENGTH_UNIT ( ) NAMED_UNIT ( * ) SI_UNIT ( $, .METRE. ) );
#174 = CARTESIAN_POINT ( 'NONE',  ( 0.000000000000000000, 0.000000000000000000, 0.000000000000000000 ) ) ;
#175 = PRESENTATION_LAYER_ASSIGNMENT (  '', '', ( #248 ) ) ;
#176 = CARTESIAN_POINT ( 'NONE',  ( 0.1249999999999999445, 2.500000000000000000, 1.530808498934191817E-17 ) ) ;
#177 = DIRECTION ( 'NONE',  ( -3.061616997868383018E-17, 1.000000000000000000, -0.000000000000000000 ) ) ;
#178 = EDGE_CURVE ( 'NONE', #253, #99, #3, .T. ) ;
#179 = CARTESIAN_POINT ( 'NONE',  ( -6.123233995736766036E-17, 2.500000000000000000, 0.000000000000000000 ) ) ;
#180 = ORIENTED_EDGE ( 'NONE', *, *, #100, .T. ) ;
#181 = ORIENTED_EDGE ( 'NONE', *, *, #172, .T. ) ;
#182 = COLOUR_RGB ( '',0.7921568627450980005, 0.8196078431372548767, 0.9333333333333333481 ) ;
#183 = FILL_AREA_STYLE ('',( #139 ) ) ;
#184 = ORIENTED_EDGE ( 'NONE', *, *, #153, .T. ) ;
#185 = LENGTH_MEASURE_WITH_UNIT ( LENGTH_MEASURE( 0.02539999999999999897 ), #229 );
#186 =( GEOMETRIC_REPRESENTATION_CONTEXT ( 3 ) GLOBAL_UNCERTAINTY_ASSIGNED_CONTEXT ( ( #148 ) ) GLOBAL_UNIT_ASSIGNED_CONTEXT ( ( #80, #61, #234 ) ) REPRESENTATION_CONTEXT ( 'NONE', 'WORKASPACE' ) );
#187 = AXIS2_PLACEMENT_3D ( 'NONE', #170, #145, #164 ) ;
#188 = ADVANCED_FACE ( 'NONE', ( #201 ), #75, .T. ) ;
#189 =( CONVERSION_BASED_UNIT ( 'INCH', #209 ) LENGTH_UNIT ( ) NAMED_UNIT ( #228 ) );
#190 =( NAMED_UNIT ( * ) PLANE_ANGLE_UNIT ( ) SI_UNIT ( $, .RADIAN. ) );
#191 =( NAMED_UNIT ( * ) PLANE_ANGLE_UNIT ( ) SI_UNIT ( $, .RADIAN. ) );
#192 = LENGTH_MEASURE_WITH_UNIT ( LENGTH_MEASURE( 0.02539999999999999897 ), #35 );
#193 = SURFACE_STYLE_FILL_AREA ( #239 ) ;
#194 = FILL_AREA_STYLE_COLOUR ( '', #27 ) ;
#195 = AXIS2_PLACEMENT_3D ( 'NONE', #20, #17, #159 ) ;
#196 = CARTESIAN_POINT ( 'NONE',  ( 0.000000000000000000, 0.000000000000000000, 0.000000000000000000 ) ) ;
#197 = PRESENTATION_STYLE_ASSIGNMENT (( #15 ) ) ;
#198 = EDGE_LOOP ( 'NONE', ( #277, #49 ) ) ;
#199 = FILL_AREA_STYLE ('',( #223 ) ) ;
#200 = LINE ( 'NONE', #176, #255 ) ;
#201 = FACE_OUTER_BOUND ( 'NONE', #24, .T. ) ;
#202 = ORIENTED_EDGE ( 'NONE', *, *, #178, .F. ) ;
#203 = COLOUR_RGB ( '',1.000000000000000000, 0.000000000000000000, 0.000000000000000000 ) ;
#204 = EDGE_CURVE ( 'NONE', #304, #73, #143, .T. ) ;
#205 = ORIENTED_EDGE ( 'NONE', *, *, #149, .T. ) ;
#206 =( GEOMETRIC_REPRESENTATION_CONTEXT ( 3 ) GLOBAL_UNCERTAINTY_ASSIGNED_CONTEXT ( ( #129 ) ) GLOBAL_UNIT_ASSIGNED_CONTEXT ( ( #144, #191, #233 ) ) REPRESENTATION_CONTEXT ( 'NONE', 'WORKASPACE' ) );
#207 = VECTOR ( 'NONE', #5, 39.37007874015748143 ) ;
#208 = PRESENTATION_STYLE_ASSIGNMENT (( #28 ) ) ;
#209 = LENGTH_MEASURE_WITH_UNIT ( LENGTH_MEASURE( 0.02539999999999999897 ), #162 );
#210 = DIRECTION ( 'NONE',  ( -0.000000000000000000, -1.000000000000000000, -0.000000000000000000 ) ) ;
#211 =( GEOMETRIC_REPRESENTATION_CONTEXT ( 3 ) GLOBAL_UNCERTAINTY_ASSIGNED_CONTEXT ( ( #280 ) ) GLOBAL_UNIT_ASSIGNED_CONTEXT ( ( #284, #67, #260 ) ) REPRESENTATION_CONTEXT ( 'NONE', 'WORKASPACE' ) );
#212 = DIRECTION ( 'NONE',  ( 0.000000000000000000, 0.000000000000000000, -1.000000000000000000 ) ) ;
#213 = CARTESIAN_POINT ( 'NONE',  ( 0.1250000000000000000, 0.5000000000000001110, 1.530808498934192125E-17 ) ) ;
#214 = CARTESIAN_POINT ( 'NONE',  ( -6.123233995736766036E-17, 2.500000000000000000, 0.000000000000000000 ) ) ;
#215 =( CONVERSION_BASED_UNIT ( 'INCH', #7 ) LENGTH_UNIT ( ) NAMED_UNIT ( #306 ) );
#216 =( LENGTH_UNIT ( ) NAMED_UNIT ( * ) SI_UNIT ( $, .METRE. ) );
#217 = PRESENTATION_LAYER_ASSIGNMENT (  '', '', ( #110 ) ) ;
#218 = MANIFOLD_SOLID_BREP ( 'Revolve - Tool Body (Straight Shanked)', #115 ) ;
#219 = APPLICATION_PROTOCOL_DEFINITION ( 'draft international standard', 'automotive_design', 1998, #92 ) ;
#220 = SURFACE_STYLE_USAGE ( .BOTH. , #226 ) ;
#221 = EDGE_LOOP ( 'NONE', ( #141, #205 ) ) ;
#222 = DIRECTION ( 'NONE',  ( -3.061616997868383018E-17, 1.000000000000000000, -0.000000000000000000 ) ) ;
#223 = FILL_AREA_STYLE_COLOUR ( '', #236 ) ;
#224 = EDGE_LOOP ( 'NONE', ( #71, #138, #180, #113 ) ) ;
#225 = PLANE ( 'NONE',  #60 ) ;
#226 = SURFACE_SIDE_STYLE ('',( #140 ) ) ;
#227 = ORIENTED_EDGE ( 'NONE', *, *, #84, .F. ) ;
#228 = DIMENSIONAL_EXPONENTS ( 1.000000000000000000, 0.000000000000000000, 0.000000000000000000, 0.000000000000000000, 0.000000000000000000, 0.000000000000000000, 0.000000000000000000 ) ;
#229 =( LENGTH_UNIT ( ) NAMED_UNIT ( * ) SI_UNIT ( $, .METRE. ) );
#230 = VECTOR ( 'NONE', #242, 39.37007874015748143 ) ;
#231 = STYLED_ITEM ( 'NONE', ( #208 ), #244 ) ;
#232 = CARTESIAN_POINT ( 'NONE',  ( 0.000000000000000000, 0.000000000000000000, 0.000000000000000000 ) ) ;
#233 =( NAMED_UNIT ( * ) SI_UNIT ( $, .STERADIAN. ) SOLID_ANGLE_UNIT ( ) );
#234 =( NAMED_UNIT ( * ) SI_UNIT ( $, .STERADIAN. ) SOLID_ANGLE_UNIT ( ) );
#235 = CARTESIAN_POINT ( 'NONE',  ( -0.1249999999999999861, 0.5000000000000001110, 0.000000000000000000 ) ) ;
#236 = COLOUR_RGB ( '',0.7921568627450980005, 0.8196078431372548767, 0.9333333333333333481 ) ;
#237 = MECHANICAL_DESIGN_GEOMETRIC_PRESENTATION_REPRESENTATION (  '', ( #91 ), #275 ) ;
#238 =( CONVERSION_BASED_UNIT ( 'INCH', #192 ) LENGTH_UNIT ( ) NAMED_UNIT ( #265 ) );
#239 = FILL_AREA_STYLE ('',( #89 ) ) ;
#240 = PRODUCT ( '01157', '01157', '', ( #21 ) ) ;
#241 = UNCERTAINTY_MEASURE_WITH_UNIT (LENGTH_MEASURE( 1.000000000000000082E-05 ), #215, 'distance_accuracy_value', 'NONE');
#242 = DIRECTION ( 'NONE',  ( -0.000000000000000000, -1.000000000000000000, -0.000000000000000000 ) ) ;
#243 = LINE ( 'NONE', #30, #207 ) ;
#244 = ADVANCED_FACE ( 'NONE', ( #2 ), #55, .T. ) ;
#245 = SURFACE_STYLE_FILL_AREA ( #38 ) ;
#246 = CARTESIAN_POINT ( 'NONE',  ( 0.000000000000000000, 0.000000000000000000, 0.000000000000000000 ) ) ;
#247 = DIRECTION ( 'NONE',  ( 0.000000000000000000, 0.000000000000000000, -1.000000000000000000 ) ) ;
#248 = STYLED_ITEM ( 'NONE', ( #111 ), #142 ) ;
#249 =( CONVERSION_BASED_UNIT ( 'INCH', #132 ) LENGTH_UNIT ( ) NAMED_UNIT ( #295 ) );
#250 = EDGE_CURVE ( 'NONE', #304, #77, #6, .T. ) ;
#251 = PLANE ( 'NONE',  #289 ) ;
#252 = DIRECTION ( 'NONE',  ( 1.000000000000000000, 3.061616997868383018E-17, 0.000000000000000000 ) ) ;
#253 = VERTEX_POINT ( 'NONE', #235 ) ;
#254 = FILL_AREA_STYLE ('',( #50 ) ) ;
#255 = VECTOR ( 'NONE', #259, 39.37007874015748143 ) ;
#256 = CIRCLE ( 'NONE', #81, 0.1250000000000000555 ) ;
#257 = CARTESIAN_POINT ( 'NONE',  ( 0.1249999999999999861, 2.500000000000000000, 0.000000000000000000 ) ) ;
#258 = EDGE_LOOP ( 'NONE', ( #181, #122, #19, #134 ) ) ;
#259 = DIRECTION ( 'NONE',  ( -3.061616997868383018E-17, 1.000000000000000000, -0.000000000000000000 ) ) ;
#260 =( NAMED_UNIT ( * ) SI_UNIT ( $, .STERADIAN. ) SOLID_ANGLE_UNIT ( ) );
#261 = EDGE_LOOP ( 'NONE', ( #202, #227 ) ) ;
#262 = ADVANCED_FACE ( 'NONE', ( #128 ), #130, .T. ) ;
#263 = SURFACE_STYLE_FILL_AREA ( #79 ) ;
#264 = CLOSED_SHELL ( 'NONE', ( #57, #133, #142, #244 ) ) ;
#265 = DIMENSIONAL_EXPONENTS ( 1.000000000000000000, 0.000000000000000000, 0.000000000000000000, 0.000000000000000000, 0.000000000000000000, 0.000000000000000000, 0.000000000000000000 ) ;
#266 = CARTESIAN_POINT ( 'NONE',  ( 0.000000000000000000, 0.000000000000000000, 0.000000000000000000 ) ) ;
#267 = DIRECTION ( 'NONE',  ( -3.061616997868383018E-17, 1.000000000000000000, -0.000000000000000000 ) ) ;
#268 = DIRECTION ( 'NONE',  ( -0.000000000000000000, -1.000000000000000000, -0.000000000000000000 ) ) ;
#269 = CARTESIAN_POINT ( 'NONE',  ( 0.000000000000000000, 0.5000000000000000000, -0.1249999999999999861 ) ) ;
#270 = CIRCLE ( 'NONE', #16, 0.1249999999999999861 ) ;
#271 = DIRECTION ( 'NONE',  ( -0.000000000000000000, -1.000000000000000000, -0.000000000000000000 ) ) ;
#272 = CARTESIAN_POINT ( 'NONE',  ( 0.000000000000000000, 0.5000000000000000000, 0.000000000000000000 ) ) ;
#273 = SURFACE_STYLE_USAGE ( .BOTH. , #171 ) ;
#274 = CARTESIAN_POINT ( 'NONE',  ( 1.530808498934191509E-17, 0.000000000000000000, 0.1250000000000000000 ) ) ;
#275 =( GEOMETRIC_REPRESENTATION_CONTEXT ( 3 ) GLOBAL_UNCERTAINTY_ASSIGNED_CONTEXT ( ( #276 ) ) GLOBAL_UNIT_ASSIGNED_CONTEXT ( ( #249, #37, #14 ) ) REPRESENTATION_CONTEXT ( 'NONE', 'WORKASPACE' ) );
#276 = UNCERTAINTY_MEASURE_WITH_UNIT (LENGTH_MEASURE( 1.000000000000000082E-05 ), #249, 'distance_accuracy_value', 'NONE');
#277 = ORIENTED_EDGE ( 'NONE', *, *, #298, .T. ) ;
#278 = ORIENTED_EDGE ( 'NONE', *, *, #153, .F. ) ;
#279 = DIRECTION ( 'NONE',  ( -3.061616997868383018E-17, 1.000000000000000000, 0.000000000000000000 ) ) ;
#280 = UNCERTAINTY_MEASURE_WITH_UNIT (LENGTH_MEASURE( 1.000000000000000082E-05 ), #284, 'distance_accuracy_value', 'NONE');
#281 = SURFACE_STYLE_FILL_AREA ( #199 ) ;
#282 = ORIENTED_EDGE ( 'NONE', *, *, #10, .F. ) ;
#283 = AXIS2_PLACEMENT_3D ( 'NONE', #116, #279, #70 ) ;
#284 =( CONVERSION_BASED_UNIT ( 'INCH', #302 ) LENGTH_UNIT ( ) NAMED_UNIT ( #76 ) );
#285 = EDGE_CURVE ( 'NONE', #155, #77, #4, .T. ) ;
#286 = SURFACE_SIDE_STYLE ('',( #22 ) ) ;
#287 = FACE_OUTER_BOUND ( 'NONE', #198, .T. ) ;
#288 = APPLICATION_CONTEXT ( 'automotive_design' ) ;
#289 = AXIS2_PLACEMENT_3D ( 'NONE', #257, #160, #252 ) ;
#290 = PRODUCT_DEFINITION_FORMATION_WITH_SPECIFIED_SOURCE ( 'ANY', '', #240, .NOT_KNOWN. ) ;
#291 = AXIS2_PLACEMENT_3D ( 'NONE', #94, #106, #127 ) ;
#292 = CARTESIAN_POINT ( 'NONE',  ( 1.530808498934191201E-17, 0.5000000000000000000, 0.1249999999999999861 ) ) ;
#293 = CIRCLE ( 'NONE', #82, 0.1249999999999999861 ) ;
#294 = ADVANCED_BREP_SHAPE_REPRESENTATION ( '01157', ( #25, #218, #46 ), #45 ) ;
#295 = DIMENSIONAL_EXPONENTS ( 1.000000000000000000, 0.000000000000000000, 0.000000000000000000, 0.000000000000000000, 0.000000000000000000, 0.000000000000000000, 0.000000000000000000 ) ;
#296 = DIRECTION ( 'NONE',  ( 0.000000000000000000, 0.000000000000000000, -1.000000000000000000 ) ) ;
#297 = FACE_OUTER_BOUND ( 'NONE', #224, .T. ) ;
#298 = EDGE_CURVE ( 'NONE', #44, #96, #256, .T. ) ;
#299 =( LENGTH_UNIT ( ) NAMED_UNIT ( * ) SI_UNIT ( $, .METRE. ) );
#300 = PRESENTATION_STYLE_ASSIGNMENT (( #220 ) ) ;
#301 = CARTESIAN_POINT ( 'NONE',  ( 1.530808498934191509E-17, 0.000000000000000000, 0.1250000000000000000 ) ) ;
#302 = LENGTH_MEASURE_WITH_UNIT ( LENGTH_MEASURE( 0.02539999999999999897 ), #307 );
#303 = SHAPE_DEFINITION_REPRESENTATION ( #42, #294 ) ;
#304 = VERTEX_POINT ( 'NONE', #292 ) ;
#305 = SURFACE_SIDE_STYLE ('',( #281 ) ) ;
#306 = DIMENSIONAL_EXPONENTS ( 1.000000000000000000, 0.000000000000000000, 0.000000000000000000, 0.000000000000000000, 0.000000000000000000, 0.000000000000000000, 0.000000000000000000 ) ;
#307 =( LENGTH_UNIT ( ) NAMED_UNIT ( * ) SI_UNIT ( $, .METRE. ) );
#308 = VECTOR ( 'NONE', #59, 39.37007874015748143 ) ;
#309 = SURFACE_STYLE_USAGE ( .BOTH. , #286 ) ;
ENDSEC;
END-ISO-10303-21;
