ISO-10303-21;
HEADER;
FILE_DESCRIPTION (( 'STEP AP214' ),
    '1' );
FILE_NAME ('Micro_DCM-032.STEP',
    '2021-08-31T17:23:29',
    ( '' ),
    ( '' ),
    'SwSTEP 2.0',
    'SolidWorks 2020',
    '' );
FILE_SCHEMA (( 'AUTOMOTIVE_DESIGN' ));
ENDSEC;

DATA;
#1 = CIRCLE ( 'NONE', #225, 0.06200799999999999368 ) ;
#2 = ADVANCED_FACE ( 'NONE', ( #202 ), #236, .T. ) ;
#3 = EDGE_LOOP ( 'NONE', ( #194, #381, #155, #351 ) ) ;
#4 = STYLED_ITEM ( 'NONE', ( #111 ), #193 ) ;
#5 = CARTESIAN_POINT ( 'NONE',  ( 0.0000000000000000000, 0.0000000000000000000, 1.968503999999999809 ) ) ;
#6 = ORIENTED_EDGE ( 'NONE', *, *, #298, .F. ) ;
#7 = CONICAL_SURFACE ( 'NONE', #198, 0.06200799999999999368, 0.5235987755982994818 ) ;
#8 = FACE_OUTER_BOUND ( 'NONE', #276, .T. ) ;
#9 = ORIENTED_EDGE ( 'NONE', *, *, #366, .F. ) ;
#10 = DIRECTION ( 'NONE',  ( -1.000000000000000000, 0.0000000000000000000, 0.0000000000000000000 ) ) ;
#11 = EDGE_LOOP ( 'NONE', ( #152, #333, #317 ) ) ;
#12 = CARTESIAN_POINT ( 'NONE',  ( 2.316910750257218848E-17, 0.0000000000000000000, 1.777702834735338966 ) ) ;
#13 = ORIENTED_EDGE ( 'NONE', *, *, #108, .T. ) ;
#14 = DIRECTION ( 'NONE',  ( -0.8571673007021136659, 1.049727191138620298E-16, 0.5150380749100519351 ) ) ;
#15 = CARTESIAN_POINT ( 'NONE',  ( 0.1574804999999999955, 1.928579902531247412E-17, 1.968503999999999809 ) ) ;
#16 = EDGE_LOOP ( 'NONE', ( #9, #138, #161, #219 ) ) ;
#17 = FACE_OUTER_BOUND ( 'NONE', #371, .T. ) ;
#18 = CARTESIAN_POINT ( 'NONE',  ( 0.0000000000000000000, 0.0000000000000000000, 0.0000000000000000000 ) ) ;
#19 = LINE ( 'NONE', #141, #182 ) ;
#20 = DIRECTION ( 'NONE',  ( -1.000000000000000000, 0.0000000000000000000, 1.376761866243198215E-16 ) ) ;
#21 = CONICAL_SURFACE ( 'NONE', #118, 0.06200799999999999368, 0.5235987755982994818 ) ;
#22 =( NAMED_UNIT ( * ) PLANE_ANGLE_UNIT ( ) SI_UNIT ( $, .RADIAN. ) );
#23 = CARTESIAN_POINT ( 'NONE',  ( 4.324926913391766322E-17, 0.0000000000000000000, 0.3561643859902801079 ) ) ;
#24 = FACE_OUTER_BOUND ( 'NONE', #11, .T. ) ;
#25 = PRODUCT_CONTEXT ( 'NONE', #346, 'mechanical' ) ;
#26 = DIRECTION ( 'NONE',  ( 1.214306394325960326E-16, 0.0000000000000000000, -1.000000000000000000 ) ) ;
#27 = AXIS2_PLACEMENT_3D ( 'NONE', #36, #116, #210 ) ;
#28 = CARTESIAN_POINT ( 'NONE',  ( 0.06200799999999999368, 7.593789872152906742E-18, -7.529671089936413622E-18 ) ) ;
#29 = CIRCLE ( 'NONE', #231, 0.1574804999999999400 ) ;
#30 = DIRECTION ( 'NONE',  ( 1.000000000000000000, 0.0000000000000000000, 0.0000000000000000000 ) ) ;
#31 = DIMENSIONAL_EXPONENTS ( 1.000000000000000000, 0.0000000000000000000, 0.0000000000000000000, 0.0000000000000000000, 0.0000000000000000000, 0.0000000000000000000, 0.0000000000000000000 ) ;
#32 = AXIS2_PLACEMENT_3D ( 'NONE', #71, #223, #256 ) ;
#33 = AXIS2_PLACEMENT_3D ( 'NONE', #261, #260, #80 ) ;
#34 = FACE_OUTER_BOUND ( 'NONE', #342, .T. ) ;
#35 = PRODUCT_DEFINITION_CONTEXT ( 'detailed design', #361, 'design' ) ;
#36 = CARTESIAN_POINT ( 'NONE',  ( 4.324926913391766322E-17, 0.0000000000000000000, 0.3561643859902801079 ) ) ;
#37 = ORIENTED_EDGE ( 'NONE', *, *, #394, .F. ) ;
#38 = SURFACE_STYLE_FILL_AREA ( #188 ) ;
#39 = CARTESIAN_POINT ( 'NONE',  ( 2.316910750257218848E-17, 0.0000000000000000000, 0.1908011652646607881 ) ) ;
#40 = VERTEX_POINT ( 'NONE', #294 ) ;
#41 = FACE_OUTER_BOUND ( 'NONE', #159, .T. ) ;
#42 = ADVANCED_FACE ( 'NONE', ( #388 ), #191, .T. ) ;
#43 = VERTEX_POINT ( 'NONE', #49 ) ;
#44 = FACE_OUTER_BOUND ( 'NONE', #3, .T. ) ;
#45 = EDGE_CURVE ( 'NONE', #127, #338, #166, .T. ) ;
#46 = ORIENTED_EDGE ( 'NONE', *, *, #140, .T. ) ;
#47 = ADVANCED_FACE ( 'NONE', ( #232 ), #52, .T. ) ;
#48 = DIRECTION ( 'NONE',  ( -0.5000000000000004441, -6.123233995736773431E-17, -0.8660254037844383745 ) ) ;
#49 = CARTESIAN_POINT ( 'NONE',  ( -0.06200800000000011858, -7.593789872152923690E-18, 1.931245834735339173 ) ) ;
#50 = DIMENSIONAL_EXPONENTS ( 1.000000000000000000, 0.0000000000000000000, 0.0000000000000000000, 0.0000000000000000000, 0.0000000000000000000, 0.0000000000000000000, 0.0000000000000000000 ) ;
#51 = SURFACE_SIDE_STYLE ('',( #265 ) ) ;
#52 = CYLINDRICAL_SURFACE ( 'NONE', #33, 0.1574804999999999955 ) ;
#53 = CONICAL_SURFACE ( 'NONE', #271, 0.06200799999999999368, 0.5235987755982994818 ) ;
#54 = DIRECTION ( 'NONE',  ( 1.214306394325960326E-16, 0.0000000000000000000, 1.000000000000000000 ) ) ;
#55 = EDGE_CURVE ( 'NONE', #336, #40, #29, .T. ) ;
#56 = CARTESIAN_POINT ( 'NONE',  ( 4.524282832173091545E-18, 0.0000000000000000000, 1.931245834735339173 ) ) ;
#57 = LINE ( 'NONE', #275, #213 ) ;
#58 = CARTESIAN_POINT ( 'NONE',  ( 0.0000000000000000000, 0.0000000000000000000, 1.968503999999999809 ) ) ;
#59 = CONICAL_SURFACE ( 'NONE', #32, 65.52281426576882950, 1.029744258676657198 ) ;
#60 = CIRCLE ( 'NONE', #251, 0.06200799999999999368 ) ;
#61 = DIRECTION ( 'NONE',  ( 0.5000000000000006661, 0.0000000000000000000, 0.8660254037844382635 ) ) ;
#62 = AXIS2_PLACEMENT_3D ( 'NONE', #319, #75, #139 ) ;
#63 = CARTESIAN_POINT ( 'NONE',  ( 0.0000000000000000000, 0.0000000000000000000, 1.968503999999999809 ) ) ;
#64 = VECTOR ( 'NONE', #78, 39.37007874015748143 ) ;
#65 = DIRECTION ( 'NONE',  ( -1.000000000000000000, 0.0000000000000000000, 0.0000000000000000000 ) ) ;
#66 = ORIENTED_EDGE ( 'NONE', *, *, #74, .T. ) ;
#67 = CIRCLE ( 'NONE', #107, 0.06200799999999999368 ) ;
#68 = DIRECTION ( 'NONE',  ( -1.214306394325960326E-16, -0.0000000000000000000, 1.000000000000000000 ) ) ;
#69 = ORIENTED_EDGE ( 'NONE', *, *, #55, .F. ) ;
#70 = EDGE_CURVE ( 'NONE', #189, #245, #375, .T. ) ;
#71 = CARTESIAN_POINT ( 'NONE',  ( 4.780733835928977573E-15, 0.0000000000000000000, 39.37007874015748143 ) ) ;
#72 = ORIENTED_EDGE ( 'NONE', *, *, #45, .F. ) ;
#73 =( LENGTH_UNIT ( ) NAMED_UNIT ( * ) SI_UNIT ( $, .METRE. ) );
#74 = EDGE_CURVE ( 'NONE', #350, #338, #60, .T. ) ;
#75 = DIRECTION ( 'NONE',  ( 1.214306394325960326E-16, 0.0000000000000000000, -1.000000000000000000 ) ) ;
#76 = CIRCLE ( 'NONE', #293, 0.1574804999999999400 ) ;
#77 = ORIENTED_EDGE ( 'NONE', *, *, #267, .T. ) ;
#78 = DIRECTION ( 'NONE',  ( -1.214306394325960326E-16, -0.0000000000000000000, -1.000000000000000000 ) ) ;
#79 = ORIENTED_EDGE ( 'NONE', *, *, #70, .T. ) ;
#80 = DIRECTION ( 'NONE',  ( -1.000000000000000000, 0.0000000000000000000, 0.0000000000000000000 ) ) ;
#81 = VECTOR ( 'NONE', #48, 39.37007874015748143 ) ;
#82 = LINE ( 'NONE', #15, #83 ) ;
#83 = VECTOR ( 'NONE', #253, 39.37007874015748143 ) ;
#84 = CARTESIAN_POINT ( 'NONE',  ( 0.06200800000000013940, 0.0000000000000000000, 1.931245834735339173 ) ) ;
#85 = ADVANCED_FACE ( 'NONE', ( #233 ), #110, .T. ) ;
#86 = CARTESIAN_POINT ( 'NONE',  ( 4.324926913391766322E-17, 0.0000000000000000000, 1.612339614009719702 ) ) ;
#87 = PRESENTATION_LAYER_ASSIGNMENT (  '', '', ( #250 ) ) ;
#88 = EDGE_CURVE ( 'NONE', #362, #40, #82, .T. ) ;
#89 = EDGE_CURVE ( 'NONE', #99, #345, #280, .T. ) ;
#90 = CARTESIAN_POINT ( 'NONE',  ( 2.316910750257218848E-17, 0.0000000000000000000, 0.1908011652646607881 ) ) ;
#91 = VECTOR ( 'NONE', #327, 39.37007874015748143 ) ;
#92 = DIRECTION ( 'NONE',  ( -1.214306394325960326E-16, -0.0000000000000000000, -1.000000000000000000 ) ) ;
#93 = ORIENTED_EDGE ( 'NONE', *, *, #140, .F. ) ;
#94 = CARTESIAN_POINT ( 'NONE',  ( -0.06200799999999996592, 0.0000000000000000000, 0.1908011652646607881 ) ) ;
#95 = ORIENTED_EDGE ( 'NONE', *, *, #45, .T. ) ;
#96 = ADVANCED_FACE ( 'NONE', ( #24 ), #158, .T. ) ;
#97 = PRODUCT ( 'Micro_DCM-032', 'Micro_DCM-032', '', ( #25 ) ) ;
#98 = PRESENTATION_STYLE_ASSIGNMENT (( #254 ) ) ;
#99 = VERTEX_POINT ( 'NONE', #94 ) ;
#100 = VECTOR ( 'NONE', #121, 39.37007874015748854 ) ;
#101 = FACE_OUTER_BOUND ( 'NONE', #16, .T. ) ;
#102 = FILL_AREA_STYLE_COLOUR ( '', #373 ) ;
#103 = CARTESIAN_POINT ( 'NONE',  ( 2.316910750257218848E-17, 0.0000000000000000000, 0.1908011652646607881 ) ) ;
#104 = ADVANCED_FACE ( 'NONE', ( #360 ), #385, .T. ) ;
#105 = VERTEX_POINT ( 'NONE', #147 ) ;
#106 = DIRECTION ( 'NONE',  ( 1.214306394325960326E-16, 0.0000000000000000000, -1.000000000000000000 ) ) ;
#107 = AXIS2_PLACEMENT_3D ( 'NONE', #12, #106, #252 ) ;
#108 = EDGE_CURVE ( 'NONE', #99, #350, #334, .T. ) ;
#109 = ORIENTED_EDGE ( 'NONE', *, *, #89, .F. ) ;
#110 = CYLINDRICAL_SURFACE ( 'NONE', #330, 0.06200799999999999368 ) ;
#111 = PRESENTATION_STYLE_ASSIGNMENT (( #170 ) ) ;
#112 = ORIENTED_EDGE ( 'NONE', *, *, #262, .F. ) ;
#113 = LENGTH_MEASURE_WITH_UNIT ( LENGTH_MEASURE( 0.02539999999999999897 ), #238 );
#114 = DIRECTION ( 'NONE',  ( 1.214306394325960326E-16, 0.0000000000000000000, -1.000000000000000000 ) ) ;
#115 = ADVANCED_FACE ( 'NONE', ( #34 ), #21, .T. ) ;
#116 = DIRECTION ( 'NONE',  ( -1.214306394325960326E-16, -0.0000000000000000000, -1.000000000000000000 ) ) ;
#117 = DIRECTION ( 'NONE',  ( -1.214306394325960326E-16, -0.0000000000000000000, -1.000000000000000000 ) ) ;
#118 = AXIS2_PLACEMENT_3D ( 'NONE', #90, #239, #218 ) ;
#119 = MECHANICAL_DESIGN_GEOMETRIC_PRESENTATION_REPRESENTATION (  '', ( #4 ), #380 ) ;
#120 = ORIENTED_EDGE ( 'NONE', *, *, #390, .F. ) ;
#121 = DIRECTION ( 'NONE',  ( -0.8571673007021136659, -1.049727191138620298E-16, -0.5150380749100519351 ) ) ;
#122 = ORIENTED_EDGE ( 'NONE', *, *, #315, .T. ) ;
#123 = AXIS2_PLACEMENT_3D ( 'NONE', #154, #243, #365 ) ;
#124 = DIRECTION ( 'NONE',  ( 0.8571673007021137769, 0.0000000000000000000, -0.5150380749100517130 ) ) ;
#125 = ORIENTED_EDGE ( 'NONE', *, *, #209, .F. ) ;
#126 = CARTESIAN_POINT ( 'NONE',  ( 0.0000000000000000000, 0.0000000000000000000, 1.968503999999999809 ) ) ;
#127 = VERTEX_POINT ( 'NONE', #221 ) ;
#128 = LINE ( 'NONE', #226, #258 ) ;
#129 = ORIENTED_EDGE ( 'NONE', *, *, #344, .F. ) ;
#130 = DIRECTION ( 'NONE',  ( -1.214306394325960326E-16, -0.0000000000000000000, 1.000000000000000000 ) ) ;
#131 = CARTESIAN_POINT ( 'NONE',  ( 4.780733835928977573E-15, 0.0000000000000000000, 39.37007874015748143 ) ) ;
#132 = LENGTH_MEASURE_WITH_UNIT ( LENGTH_MEASURE( 0.02539999999999999897 ), #73 );
#133 = EDGE_LOOP ( 'NONE', ( #72, #367, #66 ) ) ;
#134 = ADVANCED_FACE ( 'NONE', ( #8 ), #7, .T. ) ;
#135 = CARTESIAN_POINT ( 'NONE',  ( 0.06200800000000002837, 7.593789872152909823E-18, 0.1908011652646607881 ) ) ;
#136 = ORIENTED_EDGE ( 'NONE', *, *, #74, .F. ) ;
#137 = MECHANICAL_DESIGN_GEOMETRIC_PRESENTATION_REPRESENTATION (  '', ( #250 ), #264 ) ;
#138 = ORIENTED_EDGE ( 'NONE', *, *, #70, .F. ) ;
#139 = DIRECTION ( 'NONE',  ( -1.000000000000000000, 0.0000000000000000000, 0.0000000000000000000 ) ) ;
#140 = EDGE_CURVE ( 'NONE', #99, #336, #244, .T. ) ;
#141 = CARTESIAN_POINT ( 'NONE',  ( 0.06200800000000002143, 0.0000000000000000000, 1.777702834735338966 ) ) ;
#142 = CARTESIAN_POINT ( 'NONE',  ( 4.780733835928977573E-15, 0.0000000000000000000, -37.40157474015748562 ) ) ;
#143 = FILL_AREA_STYLE_COLOUR ( '', #331 ) ;
#144 = CIRCLE ( 'NONE', #299, 0.06200799999999999368 ) ;
#145 = DIRECTION ( 'NONE',  ( 1.214306394325960326E-16, 0.0000000000000000000, -1.000000000000000000 ) ) ;
#146 = DIMENSIONAL_EXPONENTS ( 1.000000000000000000, 0.0000000000000000000, 0.0000000000000000000, 0.0000000000000000000, 0.0000000000000000000, 0.0000000000000000000, 0.0000000000000000000 ) ;
#147 = CARTESIAN_POINT ( 'NONE',  ( -0.1574804999999999122, 0.0000000000000000000, 1.612339614009719702 ) ) ;
#148 = PRODUCT_RELATED_PRODUCT_CATEGORY ( 'part', '', ( #97 ) ) ;
#149 = EDGE_CURVE ( 'NONE', #168, #197, #266, .T. ) ;
#150 = VECTOR ( 'NONE', #14, 39.37007874015748854 ) ;
#151 = CYLINDRICAL_SURFACE ( 'NONE', #240, 0.1574804999999999955 ) ;
#152 = ORIENTED_EDGE ( 'NONE', *, *, #267, .F. ) ;
#153 = ADVANCED_FACE ( 'NONE', ( #180 ), #151, .T. ) ;
#154 = CARTESIAN_POINT ( 'NONE',  ( 4.524282832173091545E-18, 0.0000000000000000000, 1.931245834735339173 ) ) ;
#155 = ORIENTED_EDGE ( 'NONE', *, *, #209, .T. ) ;
#156 = AXIS2_PLACEMENT_3D ( 'NONE', #313, #160, #382 ) ;
#157 = LINE ( 'NONE', #268, #91 ) ;
#158 = CONICAL_SURFACE ( 'NONE', #386, 65.52281426576882950, 1.029744258676657198 ) ;
#159 = EDGE_LOOP ( 'NONE', ( #6, #95, #279 ) ) ;
#160 = DIRECTION ( 'NONE',  ( -1.214306394325960326E-16, -0.0000000000000000000, -1.000000000000000000 ) ) ;
#161 = ORIENTED_EDGE ( 'NONE', *, *, #355, .T. ) ;
#162 = AXIS2_PLACEMENT_3D ( 'NONE', #172, #204, #323 ) ;
#163 = CARTESIAN_POINT ( 'NONE',  ( 0.0000000000000000000, 0.0000000000000000000, 1.968503999999999809 ) ) ;
#164 = DIRECTION ( 'NONE',  ( -1.214306394325960326E-16, -0.0000000000000000000, -1.000000000000000000 ) ) ;
#165 = LINE ( 'NONE', #340, #364 ) ;
#166 = LINE ( 'NONE', #18, #199 ) ;
#167 = DIRECTION ( 'NONE',  ( 1.214306394325960326E-16, 0.0000000000000000000, -1.000000000000000000 ) ) ;
#168 = VERTEX_POINT ( 'NONE', #305 ) ;
#169 = DIRECTION ( 'NONE',  ( -1.214306394325960326E-16, -0.0000000000000000000, -1.000000000000000000 ) ) ;
#170 = SURFACE_STYLE_USAGE ( .BOTH. , #51 ) ;
#171 = ORIENTED_EDGE ( 'NONE', *, *, #344, .T. ) ;
#172 = CARTESIAN_POINT ( 'NONE',  ( 0.0000000000000000000, 0.0000000000000000000, 0.0000000000000000000 ) ) ;
#173 = DIRECTION ( 'NONE',  ( -1.000000000000000000, 0.0000000000000000000, 0.0000000000000000000 ) ) ;
#174 =( CONVERSION_BASED_UNIT ( 'INCH', #113 ) LENGTH_UNIT ( ) NAMED_UNIT ( #50 ) );
#175 =( GEOMETRIC_REPRESENTATION_CONTEXT ( 3 ) GLOBAL_UNCERTAINTY_ASSIGNED_CONTEXT ( ( #303 ) ) GLOBAL_UNIT_ASSIGNED_CONTEXT ( ( #325, #201, #178 ) ) REPRESENTATION_CONTEXT ( 'NONE', 'WORKASPACE' ) );
#176 = CLOSED_SHELL ( 'NONE', ( #104, #302, #2, #115, #85, #42, #47, #153, #335, #274, #184, #96, #272, #134 ) ) ;
#177 = DIRECTION ( 'NONE',  ( 1.000000000000000000, 0.0000000000000000000, 0.0000000000000000000 ) ) ;
#178 =( NAMED_UNIT ( * ) SI_UNIT ( $, .STERADIAN. ) SOLID_ANGLE_UNIT ( ) );
#179 = CIRCLE ( 'NONE', #123, 0.06200799999999999368 ) ;
#180 = FACE_OUTER_BOUND ( 'NONE', #347, .T. ) ;
#181 = EDGE_CURVE ( 'NONE', #40, #336, #341, .T. ) ;
#182 = VECTOR ( 'NONE', #387, 39.37007874015748143 ) ;
#183 = DIRECTION ( 'NONE',  ( 1.214306394325960326E-16, 0.0000000000000000000, 1.000000000000000000 ) ) ;
#184 = ADVANCED_FACE ( 'NONE', ( #300 ), #53, .T. ) ;
#185 = UNCERTAINTY_MEASURE_WITH_UNIT (LENGTH_MEASURE( 1.000000000000000082E-05 ), #174, 'distance_accuracy_value', 'NONE');
#186 = DIRECTION ( 'NONE',  ( 1.214306394325960326E-16, 0.0000000000000000000, -1.000000000000000000 ) ) ;
#187 = ORIENTED_EDGE ( 'NONE', *, *, #259, .F. ) ;
#188 = FILL_AREA_STYLE ('',( #102 ) ) ;
#189 = VERTEX_POINT ( 'NONE', #277 ) ;
#190 = VECTOR ( 'NONE', #124, 39.37007874015748143 ) ;
#191 = CONICAL_SURFACE ( 'NONE', #206, 65.52281426576882950, 1.029744258676657198 ) ;
#192 = DIRECTION ( 'NONE',  ( -1.000000000000000000, 0.0000000000000000000, 0.0000000000000000000 ) ) ;
#193 = ADVANCED_BREP_SHAPE_REPRESENTATION ( 'Micro_DCM-032', ( #377, #162 ), #175 ) ;
#194 = ORIENTED_EDGE ( 'NONE', *, *, #339, .F. ) ;
#195 = CARTESIAN_POINT ( 'NONE',  ( 0.1574804999999999955, 1.928579902531247412E-17, 1.612339614009719702 ) ) ;
#196 = CYLINDRICAL_SURFACE ( 'NONE', #156, 0.06200799999999999368 ) ;
#197 = VERTEX_POINT ( 'NONE', #84 ) ;
#198 = AXIS2_PLACEMENT_3D ( 'NONE', #216, #186, #30 ) ;
#199 = VECTOR ( 'NONE', #257, 39.37007874015748143 ) ;
#200 = DIRECTION ( 'NONE',  ( 1.214306394325960326E-16, 0.0000000000000000000, -1.000000000000000000 ) ) ;
#201 =( NAMED_UNIT ( * ) PLANE_ANGLE_UNIT ( ) SI_UNIT ( $, .RADIAN. ) );
#202 = FACE_OUTER_BOUND ( 'NONE', #222, .T. ) ;
#203 = EDGE_LOOP ( 'NONE', ( #369, #228, #69, #120 ) ) ;
#204 = DIRECTION ( 'NONE',  ( 0.0000000000000000000, 0.0000000000000000000, 1.000000000000000000 ) ) ;
#205 = AXIS2_PLACEMENT_3D ( 'NONE', #163, #286, #248 ) ;
#206 = AXIS2_PLACEMENT_3D ( 'NONE', #131, #54, #289 ) ;
#207 = EDGE_LOOP ( 'NONE', ( #230, #122, #129, #37 ) ) ;
#208 = LINE ( 'NONE', #28, #64 ) ;
#209 = EDGE_CURVE ( 'NONE', #197, #43, #144, .T. ) ;
#210 = DIRECTION ( 'NONE',  ( -1.000000000000000000, 0.0000000000000000000, 0.0000000000000000000 ) ) ;
#211 = SHAPE_DEFINITION_REPRESENTATION ( #284, #193 ) ;
#212 = DIRECTION ( 'NONE',  ( -1.214306394325960326E-16, -0.0000000000000000000, -1.000000000000000000 ) ) ;
#213 = VECTOR ( 'NONE', #61, 39.37007874015748143 ) ;
#214 = AXIS2_PLACEMENT_3D ( 'NONE', #384, #200, #353 ) ;
#215 = VECTOR ( 'NONE', #92, 39.37007874015748143 ) ;
#216 = CARTESIAN_POINT ( 'NONE',  ( 2.316910750257218848E-17, 0.0000000000000000000, 1.777702834735338966 ) ) ;
#217 = ORIENTED_EDGE ( 'NONE', *, *, #315, .F. ) ;
#218 = DIRECTION ( 'NONE',  ( 1.000000000000000000, 0.0000000000000000000, 0.0000000000000000000 ) ) ;
#219 = ORIENTED_EDGE ( 'NONE', *, *, #270, .T. ) ;
#220 = UNCERTAINTY_MEASURE_WITH_UNIT (LENGTH_MEASURE( 1.000000000000000082E-05 ), #379, 'distance_accuracy_value', 'NONE');
#221 = CARTESIAN_POINT ( 'NONE',  ( 0.0000000000000000000, 0.0000000000000000000, 0.0000000000000000000 ) ) ;
#222 = EDGE_LOOP ( 'NONE', ( #311, #77, #125 ) ) ;
#223 = DIRECTION ( 'NONE',  ( 1.214306394325960326E-16, 0.0000000000000000000, 1.000000000000000000 ) ) ;
#224 = ORIENTED_EDGE ( 'NONE', *, *, #288, .F. ) ;
#225 = AXIS2_PLACEMENT_3D ( 'NONE', #39, #246, #10 ) ;
#226 = CARTESIAN_POINT ( 'NONE',  ( -0.06200799999999999368, 0.0000000000000000000, 1.968503999999999809 ) ) ;
#227 = ORIENTED_EDGE ( 'NONE', *, *, #394, .T. ) ;
#228 = ORIENTED_EDGE ( 'NONE', *, *, #88, .T. ) ;
#229 = PRESENTATION_LAYER_ASSIGNMENT (  '', '', ( #4 ) ) ;
#230 = ORIENTED_EDGE ( 'NONE', *, *, #339, .T. ) ;
#231 = AXIS2_PLACEMENT_3D ( 'NONE', #23, #169, #235 ) ;
#232 = FACE_OUTER_BOUND ( 'NONE', #203, .T. ) ;
#233 = FACE_OUTER_BOUND ( 'NONE', #255, .T. ) ;
#234 = EDGE_CURVE ( 'NONE', #105, #362, #76, .T. ) ;
#235 = DIRECTION ( 'NONE',  ( -1.000000000000000000, 0.0000000000000000000, 0.0000000000000000000 ) ) ;
#236 = CONICAL_SURFACE ( 'NONE', #214, 65.52281426576882950, 1.029744258676657198 ) ;
#237 = DIRECTION ( 'NONE',  ( 1.000000000000000000, 0.0000000000000000000, 1.334178587669835812E-16 ) ) ;
#238 =( LENGTH_UNIT ( ) NAMED_UNIT ( * ) SI_UNIT ( $, .METRE. ) );
#239 = DIRECTION ( 'NONE',  ( 1.214306394325960326E-16, 0.0000000000000000000, 1.000000000000000000 ) ) ;
#240 = AXIS2_PLACEMENT_3D ( 'NONE', #63, #332, #368 ) ;
#241 = DIRECTION ( 'NONE',  ( -1.000000000000000000, 0.0000000000000000000, 1.376761866243198215E-16 ) ) ;
#242 = ORIENTED_EDGE ( 'NONE', *, *, #259, .T. ) ;
#243 = DIRECTION ( 'NONE',  ( 1.214306394325960326E-16, 0.0000000000000000000, -1.000000000000000000 ) ) ;
#244 = LINE ( 'NONE', #263, #329 ) ;
#245 = VERTEX_POINT ( 'NONE', #397 ) ;
#246 = DIRECTION ( 'NONE',  ( -1.214306394325960326E-16, -0.0000000000000000000, -1.000000000000000000 ) ) ;
#247 = ORIENTED_EDGE ( 'NONE', *, *, #390, .T. ) ;
#248 = DIRECTION ( 'NONE',  ( -1.000000000000000000, 0.0000000000000000000, 0.0000000000000000000 ) ) ;
#249 = ORIENTED_EDGE ( 'NONE', *, *, #89, .T. ) ;
#250 = STYLED_ITEM ( 'NONE', ( #98 ), #377 ) ;
#251 = AXIS2_PLACEMENT_3D ( 'NONE', #292, #164, #20 ) ;
#252 = DIRECTION ( 'NONE',  ( -1.000000000000000000, 0.0000000000000000000, 0.0000000000000000000 ) ) ;
#253 = DIRECTION ( 'NONE',  ( -0.0000000000000000000, -0.0000000000000000000, -1.000000000000000000 ) ) ;
#254 = SURFACE_STYLE_USAGE ( .BOTH. , #281 ) ;
#255 = EDGE_LOOP ( 'NONE', ( #249, #374, #136, #324 ) ) ;
#256 = DIRECTION ( 'NONE',  ( 1.000000000000000000, 0.0000000000000000000, -1.334178587669835812E-16 ) ) ;
#257 = DIRECTION ( 'NONE',  ( 0.8571673007021137769, 0.0000000000000000000, 0.5150380749100517130 ) ) ;
#258 = VECTOR ( 'NONE', #343, 39.37007874015748143 ) ;
#259 = EDGE_CURVE ( 'NONE', #345, #40, #57, .T. ) ;
#260 = DIRECTION ( 'NONE',  ( -0.0000000000000000000, -0.0000000000000000000, -1.000000000000000000 ) ) ;
#261 = CARTESIAN_POINT ( 'NONE',  ( 0.0000000000000000000, 0.0000000000000000000, 1.968503999999999809 ) ) ;
#262 = EDGE_CURVE ( 'NONE', #338, #350, #322, .T. ) ;
#263 = CARTESIAN_POINT ( 'NONE',  ( -0.06200799999999996592, 7.593789872152906742E-18, 0.1908011652646607881 ) ) ;
#264 =( GEOMETRIC_REPRESENTATION_CONTEXT ( 3 ) GLOBAL_UNCERTAINTY_ASSIGNED_CONTEXT ( ( #220 ) ) GLOBAL_UNIT_ASSIGNED_CONTEXT ( ( #379, #348, #352 ) ) REPRESENTATION_CONTEXT ( 'NONE', 'WORKASPACE' ) );
#265 = SURFACE_STYLE_FILL_AREA ( #318 ) ;
#266 = LINE ( 'NONE', #58, #190 ) ;
#267 = EDGE_CURVE ( 'NONE', #168, #43, #304, .T. ) ;
#268 = CARTESIAN_POINT ( 'NONE',  ( -0.1574804999999999955, 0.0000000000000000000, 1.968503999999999809 ) ) ;
#269 = DIRECTION ( 'NONE',  ( -1.000000000000000000, 0.0000000000000000000, 0.0000000000000000000 ) ) ;
#270 = EDGE_CURVE ( 'NONE', #43, #197, #179, .T. ) ;
#271 = AXIS2_PLACEMENT_3D ( 'NONE', #326, #183, #177 ) ;
#272 = ADVANCED_FACE ( 'NONE', ( #101 ), #310, .T. ) ;
#273 = EDGE_LOOP ( 'NONE', ( #93, #224, #242, #308 ) ) ;
#274 = ADVANCED_FACE ( 'NONE', ( #17 ), #196, .T. ) ;
#275 = CARTESIAN_POINT ( 'NONE',  ( 0.06200800000000002143, 0.0000000000000000000, 0.1908011652646607881 ) ) ;
#276 = EDGE_LOOP ( 'NONE', ( #217, #79, #227, #306 ) ) ;
#277 = CARTESIAN_POINT ( 'NONE',  ( -0.06200799999999996592, 0.0000000000000000000, 1.777702834735338966 ) ) ;
#278 = AXIS2_PLACEMENT_3D ( 'NONE', #295, #117, #241 ) ;
#279 = ORIENTED_EDGE ( 'NONE', *, *, #262, .T. ) ;
#280 = CIRCLE ( 'NONE', #359, 0.06200799999999999368 ) ;
#281 = SURFACE_SIDE_STYLE ('',( #38 ) ) ;
#282 = ORIENTED_EDGE ( 'NONE', *, *, #396, .F. ) ;
#283 = CARTESIAN_POINT ( 'NONE',  ( 0.0000000000000000000, 0.0000000000000000000, 0.0000000000000000000 ) ) ;
#284 = PRODUCT_DEFINITION_SHAPE ( 'NONE', 'NONE',  #363 ) ;
#285 = PRODUCT_DEFINITION_FORMATION_WITH_SPECIFIED_SOURCE ( 'ANY', '', #97, .NOT_KNOWN. ) ;
#286 = DIRECTION ( 'NONE',  ( -1.214306394325960326E-16, -0.0000000000000000000, 1.000000000000000000 ) ) ;
#287 = ORIENTED_EDGE ( 'NONE', *, *, #88, .F. ) ;
#288 = EDGE_CURVE ( 'NONE', #345, #99, #1, .T. ) ;
#289 = DIRECTION ( 'NONE',  ( 1.000000000000000000, 0.0000000000000000000, -1.334178587669835812E-16 ) ) ;
#290 = CARTESIAN_POINT ( 'NONE',  ( 4.324926913391766322E-17, 0.0000000000000000000, 1.612339614009719702 ) ) ;
#291 = ORIENTED_EDGE ( 'NONE', *, *, #181, .F. ) ;
#292 = CARTESIAN_POINT ( 'NONE',  ( 4.524282832173091545E-18, 0.0000000000000000000, 0.03725816526466073364 ) ) ;
#293 = AXIS2_PLACEMENT_3D ( 'NONE', #86, #114, #269 ) ;
#294 = CARTESIAN_POINT ( 'NONE',  ( 0.1574804999999999955, 1.928579902531247412E-17, 0.3561643859902801079 ) ) ;
#295 = CARTESIAN_POINT ( 'NONE',  ( 4.524282832173091545E-18, 0.0000000000000000000, 0.03725816526466073364 ) ) ;
#296 = APPLICATION_PROTOCOL_DEFINITION ( 'draft international standard', 'automotive_design', 1998, #346 ) ;
#297 = DIRECTION ( 'NONE',  ( -1.000000000000000000, 0.0000000000000000000, 0.0000000000000000000 ) ) ;
#298 = EDGE_CURVE ( 'NONE', #127, #350, #370, .T. ) ;
#299 = AXIS2_PLACEMENT_3D ( 'NONE', #56, #395, #173 ) ;
#300 = FACE_OUTER_BOUND ( 'NONE', #273, .T. ) ;
#301 = AXIS2_PLACEMENT_3D ( 'NONE', #290, #167, #65 ) ;
#302 = ADVANCED_FACE ( 'NONE', ( #44 ), #316, .T. ) ;
#303 = UNCERTAINTY_MEASURE_WITH_UNIT (LENGTH_MEASURE( 1.000000000000000082E-05 ), #325, 'distance_accuracy_value', 'NONE');
#304 = LINE ( 'NONE', #5, #100 ) ;
#305 = CARTESIAN_POINT ( 'NONE',  ( 0.0000000000000000000, 0.0000000000000000000, 1.968503999999999809 ) ) ;
#306 = ORIENTED_EDGE ( 'NONE', *, *, #234, .F. ) ;
#307 = CARTESIAN_POINT ( 'NONE',  ( 0.06200800000000000756, 0.0000000000000000000, 0.03725816526466072670 ) ) ;
#308 = ORIENTED_EDGE ( 'NONE', *, *, #181, .T. ) ;
#309 = AXIS2_PLACEMENT_3D ( 'NONE', #328, #145, #392 ) ;
#310 = CYLINDRICAL_SURFACE ( 'NONE', #383, 0.06200799999999999368 ) ;
#311 = ORIENTED_EDGE ( 'NONE', *, *, #149, .F. ) ;
#312 = CARTESIAN_POINT ( 'NONE',  ( -0.1574804999999999122, 0.0000000000000000000, 0.3561643859902801079 ) ) ;
#313 = CARTESIAN_POINT ( 'NONE',  ( 0.0000000000000000000, 0.0000000000000000000, 0.0000000000000000000 ) ) ;
#314 = ORIENTED_EDGE ( 'NONE', *, *, #288, .T. ) ;
#315 = EDGE_CURVE ( 'NONE', #189, #105, #376, .T. ) ;
#316 = CYLINDRICAL_SURFACE ( 'NONE', #205, 0.06200799999999999368 ) ;
#317 = ORIENTED_EDGE ( 'NONE', *, *, #270, .F. ) ;
#318 = FILL_AREA_STYLE ('',( #143 ) ) ;
#319 = CARTESIAN_POINT ( 'NONE',  ( 2.316910750257218848E-17, 0.0000000000000000000, 1.777702834735338966 ) ) ;
#320 =( LENGTH_UNIT ( ) NAMED_UNIT ( * ) SI_UNIT ( $, .METRE. ) );
#321 = ORIENTED_EDGE ( 'NONE', *, *, #55, .T. ) ;
#322 = CIRCLE ( 'NONE', #278, 0.06200799999999999368 ) ;
#323 = DIRECTION ( 'NONE',  ( 1.000000000000000000, 0.0000000000000000000, 0.0000000000000000000 ) ) ;
#324 = ORIENTED_EDGE ( 'NONE', *, *, #108, .F. ) ;
#325 =( CONVERSION_BASED_UNIT ( 'INCH', #391 ) LENGTH_UNIT ( ) NAMED_UNIT ( #31 ) );
#326 = CARTESIAN_POINT ( 'NONE',  ( 2.316910750257218848E-17, 0.0000000000000000000, 0.1908011652646607881 ) ) ;
#327 = DIRECTION ( 'NONE',  ( -0.0000000000000000000, -0.0000000000000000000, -1.000000000000000000 ) ) ;
#328 = CARTESIAN_POINT ( 'NONE',  ( 2.316910750257218848E-17, 0.0000000000000000000, 1.777702834735338966 ) ) ;
#329 = VECTOR ( 'NONE', #358, 39.37007874015748143 ) ;
#330 = AXIS2_PLACEMENT_3D ( 'NONE', #378, #389, #354 ) ;
#331 = COLOUR_RGB ( '',0.7921568627450980005, 0.8196078431372548767, 0.9333333333333333481 ) ;
#332 = DIRECTION ( 'NONE',  ( -0.0000000000000000000, -0.0000000000000000000, -1.000000000000000000 ) ) ;
#333 = ORIENTED_EDGE ( 'NONE', *, *, #149, .T. ) ;
#334 = LINE ( 'NONE', #356, #215 ) ;
#335 = ADVANCED_FACE ( 'NONE', ( #41 ), #59, .T. ) ;
#336 = VERTEX_POINT ( 'NONE', #312 ) ;
#337 = CARTESIAN_POINT ( 'NONE',  ( -0.06200799999999996592, -7.593789872152906742E-18, 1.777702834735338966 ) ) ;
#338 = VERTEX_POINT ( 'NONE', #307 ) ;
#339 = EDGE_CURVE ( 'NONE', #245, #189, #67, .T. ) ;
#340 = CARTESIAN_POINT ( 'NONE',  ( 0.06200799999999999368, -7.593789872152906742E-18, 1.968503999999999809 ) ) ;
#341 = CIRCLE ( 'NONE', #27, 0.1574804999999999400 ) ;
#342 = EDGE_LOOP ( 'NONE', ( #109, #46, #321, #187 ) ) ;
#343 = DIRECTION ( 'NONE',  ( -1.214306394325960326E-16, -0.0000000000000000000, 1.000000000000000000 ) ) ;
#344 = EDGE_CURVE ( 'NONE', #362, #105, #349, .T. ) ;
#345 = VERTEX_POINT ( 'NONE', #135 ) ;
#346 = APPLICATION_CONTEXT ( 'automotive_design' ) ;
#347 = EDGE_LOOP ( 'NONE', ( #287, #171, #247, #291 ) ) ;
#348 =( NAMED_UNIT ( * ) PLANE_ANGLE_UNIT ( ) SI_UNIT ( $, .RADIAN. ) );
#349 = CIRCLE ( 'NONE', #301, 0.1574804999999999400 ) ;
#350 = VERTEX_POINT ( 'NONE', #372 ) ;
#351 = ORIENTED_EDGE ( 'NONE', *, *, #355, .F. ) ;
#352 =( NAMED_UNIT ( * ) SI_UNIT ( $, .STERADIAN. ) SOLID_ANGLE_UNIT ( ) );
#353 = DIRECTION ( 'NONE',  ( 1.000000000000000000, 0.0000000000000000000, 1.334178587669835812E-16 ) ) ;
#354 = DIRECTION ( 'NONE',  ( -1.000000000000000000, 0.0000000000000000000, 1.214306394325960326E-16 ) ) ;
#355 = EDGE_CURVE ( 'NONE', #189, #43, #128, .T. ) ;
#356 = CARTESIAN_POINT ( 'NONE',  ( -0.06200799999999999368, 0.0000000000000000000, 7.529671089936413622E-18 ) ) ;
#357 = APPLICATION_PROTOCOL_DEFINITION ( 'draft international standard', 'automotive_design', 1998, #361 ) ;
#358 = DIRECTION ( 'NONE',  ( -0.5000000000000004441, 6.123233995736773431E-17, 0.8660254037844383745 ) ) ;
#359 = AXIS2_PLACEMENT_3D ( 'NONE', #103, #212, #297 ) ;
#360 = FACE_OUTER_BOUND ( 'NONE', #207, .T. ) ;
#361 = APPLICATION_CONTEXT ( 'automotive_design' ) ;
#362 = VERTEX_POINT ( 'NONE', #195 ) ;
#363 = PRODUCT_DEFINITION ( 'UNKNOWN', '', #285, #35 ) ;
#364 = VECTOR ( 'NONE', #130, 39.37007874015748143 ) ;
#365 = DIRECTION ( 'NONE',  ( -1.000000000000000000, 0.0000000000000000000, 0.0000000000000000000 ) ) ;
#366 = EDGE_CURVE ( 'NONE', #245, #197, #165, .T. ) ;
#367 = ORIENTED_EDGE ( 'NONE', *, *, #298, .T. ) ;
#368 = DIRECTION ( 'NONE',  ( -1.000000000000000000, 0.0000000000000000000, 0.0000000000000000000 ) ) ;
#369 = ORIENTED_EDGE ( 'NONE', *, *, #234, .T. ) ;
#370 = LINE ( 'NONE', #283, #150 ) ;
#371 = EDGE_LOOP ( 'NONE', ( #282, #314, #13, #112 ) ) ;
#372 = CARTESIAN_POINT ( 'NONE',  ( -0.06200799999999999368, 7.593789872152906742E-18, 0.03725816526466074058 ) ) ;
#373 = COLOUR_RGB ( '',0.7921568627450980005, 0.8196078431372548767, 0.9333333333333333481 ) ;
#374 = ORIENTED_EDGE ( 'NONE', *, *, #396, .T. ) ;
#375 = CIRCLE ( 'NONE', #62, 0.06200799999999999368 ) ;
#376 = LINE ( 'NONE', #337, #81 ) ;
#377 = MANIFOLD_SOLID_BREP ( 'Mirror1', #176 ) ;
#378 = CARTESIAN_POINT ( 'NONE',  ( 0.0000000000000000000, 0.0000000000000000000, 0.0000000000000000000 ) ) ;
#379 =( CONVERSION_BASED_UNIT ( 'INCH', #132 ) LENGTH_UNIT ( ) NAMED_UNIT ( #146 ) );
#380 =( GEOMETRIC_REPRESENTATION_CONTEXT ( 3 ) GLOBAL_UNCERTAINTY_ASSIGNED_CONTEXT ( ( #185 ) ) GLOBAL_UNIT_ASSIGNED_CONTEXT ( ( #174, #22, #393 ) ) REPRESENTATION_CONTEXT ( 'NONE', 'WORKASPACE' ) );
#381 = ORIENTED_EDGE ( 'NONE', *, *, #366, .T. ) ;
#382 = DIRECTION ( 'NONE',  ( -1.000000000000000000, 0.0000000000000000000, 1.214306394325960326E-16 ) ) ;
#383 = AXIS2_PLACEMENT_3D ( 'NONE', #126, #68, #192 ) ;
#384 = CARTESIAN_POINT ( 'NONE',  ( 4.780733835928977573E-15, 0.0000000000000000000, -37.40157474015748562 ) ) ;
#385 = CONICAL_SURFACE ( 'NONE', #309, 0.06200799999999999368, 0.5235987755982994818 ) ;
#386 = AXIS2_PLACEMENT_3D ( 'NONE', #142, #26, #237 ) ;
#387 = DIRECTION ( 'NONE',  ( 0.5000000000000006661, 0.0000000000000000000, -0.8660254037844382635 ) ) ;
#388 = FACE_OUTER_BOUND ( 'NONE', #133, .T. ) ;
#389 = DIRECTION ( 'NONE',  ( -1.214306394325960326E-16, -0.0000000000000000000, -1.000000000000000000 ) ) ;
#390 = EDGE_CURVE ( 'NONE', #105, #336, #157, .T. ) ;
#391 = LENGTH_MEASURE_WITH_UNIT ( LENGTH_MEASURE( 0.02539999999999999897 ), #320 );
#392 = DIRECTION ( 'NONE',  ( 1.000000000000000000, 0.0000000000000000000, 0.0000000000000000000 ) ) ;
#393 =( NAMED_UNIT ( * ) SI_UNIT ( $, .STERADIAN. ) SOLID_ANGLE_UNIT ( ) );
#394 = EDGE_CURVE ( 'NONE', #245, #362, #19, .T. ) ;
#395 = DIRECTION ( 'NONE',  ( 1.214306394325960326E-16, 0.0000000000000000000, -1.000000000000000000 ) ) ;
#396 = EDGE_CURVE ( 'NONE', #345, #338, #208, .T. ) ;
#397 = CARTESIAN_POINT ( 'NONE',  ( 0.06200800000000002837, -7.593789872152909823E-18, 1.777702834735338966 ) ) ;
ENDSEC;
END-ISO-10303-21;
