ISO-10303-21;
HEADER;
FILE_DESCRIPTION (( 'STEP AP214' ),
    '1' );
FILE_NAME ('06183.STEP',
    '2023-07-05T16:01:03',
    ( '' ),
    ( '' ),
    'SwSTEP 2.0',
    'SolidWorks 2023',
    '' );
FILE_SCHEMA (( 'AUTOMOTIVE_DESIGN' ));
ENDSEC;

DATA;
#1 = CIRCLE ( 'NONE', #215, 0.3750000000000000555 ) ;
#2 = PRODUCT_CONTEXT ( 'NONE', #243, 'mechanical' ) ;
#3 = CARTESIAN_POINT ( 'NONE',  ( 0.000000000000000000, 0.3749999999999986122, 0.000000000000000000 ) ) ;
#4 = LINE ( 'NONE', #73, #162 ) ;
#5 = ORIENTED_EDGE ( 'NONE', *, *, #115, .F. ) ;
#6 = PRODUCT_DEFINITION_SHAPE ( 'NONE', 'NONE',  #172 ) ;
#7 = CONICAL_SURFACE ( 'NONE', #57, 39.37007874015762354, 0.7853981633974501664 ) ;
#8 = APPLICATION_CONTEXT ( 'automotive_design' ) ;
#9 = DIRECTION ( 'NONE',  ( -1.000000000000000000, -1.821231995776177451E-16, 0.000000000000000000 ) ) ;
#10 = AXIS2_PLACEMENT_3D ( 'NONE', #207, #25, #132 ) ;
#11 = FILL_AREA_STYLE_COLOUR ( '', #191 ) ;
#12 = FILL_AREA_STYLE_COLOUR ( '', #22 ) ;
#13 = LENGTH_MEASURE_WITH_UNIT ( LENGTH_MEASURE( 0.02539999999999999897 ), #15 );
#14 = AXIS2_PLACEMENT_3D ( 'NONE', #189, #211, #106 ) ;
#15 =( LENGTH_UNIT ( ) NAMED_UNIT ( * ) SI_UNIT ( $, .METRE. ) );
#16 = LENGTH_MEASURE_WITH_UNIT ( LENGTH_MEASURE( 0.02539999999999999897 ), #186 );
#17 = CARTESIAN_POINT ( 'NONE',  ( -6.123233995736770966E-17, 3.000000000000000444, 0.000000000000000000 ) ) ;
#18 = MANIFOLD_SOLID_BREP ( 'Revolve - Cutting Edge', #175 ) ;
#19 =( CONVERSION_BASED_UNIT ( 'INCH', #34 ) LENGTH_UNIT ( ) NAMED_UNIT ( #44 ) );
#20 = ORIENTED_EDGE ( 'NONE', *, *, #24, .F. ) ;
#21 = ORIENTED_EDGE ( 'NONE', *, *, #212, .T. ) ;
#22 = COLOUR_RGB ( '',1.000000000000000000, 0.000000000000000000, 0.000000000000000000 ) ;
#23 = DIRECTION ( 'NONE',  ( 0.000000000000000000, 0.000000000000000000, -1.000000000000000000 ) ) ;
#24 = EDGE_CURVE ( 'NONE', #56, #264, #214, .T. ) ;
#25 = DIRECTION ( 'NONE',  ( -1.469102054114281051E-16, 1.000000000000000000, -0.000000000000000000 ) ) ;
#26 = AXIS2_PLACEMENT_3D ( 'NONE', #45, #124, #130 ) ;
#27 = AXIS2_PLACEMENT_3D ( 'NONE', #131, #101, #154 ) ;
#28 = PRESENTATION_STYLE_ASSIGNMENT (( #230 ) ) ;
#29 = PLANE ( 'NONE',  #27 ) ;
#30 =( GEOMETRIC_REPRESENTATION_CONTEXT ( 3 ) GLOBAL_UNCERTAINTY_ASSIGNED_CONTEXT ( ( #96 ) ) GLOBAL_UNIT_ASSIGNED_CONTEXT ( ( #75, #92, #241 ) ) REPRESENTATION_CONTEXT ( 'NONE', 'WORKASPACE' ) );
#31 =( NAMED_UNIT ( * ) SI_UNIT ( $, .STERADIAN. ) SOLID_ANGLE_UNIT ( ) );
#32 = FILL_AREA_STYLE ('',( #12 ) ) ;
#33 =( LENGTH_UNIT ( ) NAMED_UNIT ( * ) SI_UNIT ( $, .METRE. ) );
#34 = LENGTH_MEASURE_WITH_UNIT ( LENGTH_MEASURE( 0.02539999999999999897 ), #117 );
#35 = ORIENTED_EDGE ( 'NONE', *, *, #160, .T. ) ;
#36 = SURFACE_SIDE_STYLE ('',( #219 ) ) ;
#37 = AXIS2_PLACEMENT_3D ( 'NONE', #231, #105, #9 ) ;
#38 = DIRECTION ( 'NONE',  ( 0.000000000000000000, 0.000000000000000000, 1.000000000000000000 ) ) ;
#39 = CARTESIAN_POINT ( 'NONE',  ( -0.3749999999999992784, 0.3749999999999985012, 0.000000000000000000 ) ) ;
#40 = VECTOR ( 'NONE', #236, 39.37007874015748143 ) ;
#41 = ADVANCED_FACE ( 'NONE', ( #176 ), #64, .T. ) ;
#42 = DIMENSIONAL_EXPONENTS ( 1.000000000000000000, 0.000000000000000000, 0.000000000000000000, 0.000000000000000000, 0.000000000000000000, 0.000000000000000000, 0.000000000000000000 ) ;
#43 = CYLINDRICAL_SURFACE ( 'NONE', #10, 0.3749999999999998335 ) ;
#44 = DIMENSIONAL_EXPONENTS ( 1.000000000000000000, 0.000000000000000000, 0.000000000000000000, 0.000000000000000000, 0.000000000000000000, 0.000000000000000000, 0.000000000000000000 ) ;
#45 = CARTESIAN_POINT ( 'NONE',  ( -6.123233995736772199E-17, 3.000000000000000444, 0.000000000000000000 ) ) ;
#46 = CARTESIAN_POINT ( 'NONE',  ( 0.3749999999999997780, 3.000000000000000444, 4.592425496802572370E-17 ) ) ;
#47 = EDGE_CURVE ( 'NONE', #74, #242, #234, .T. ) ;
#48 = SURFACE_STYLE_FILL_AREA ( #158 ) ;
#49 = CARTESIAN_POINT ( 'NONE',  ( 0.000000000000000000, 0.3749999999999986122, 0.000000000000000000 ) ) ;
#50 = FILL_AREA_STYLE ('',( #157 ) ) ;
#51 = FACE_OUTER_BOUND ( 'NONE', #246, .T. ) ;
#52 = SURFACE_STYLE_USAGE ( .BOTH. , #216 ) ;
#53 = ORIENTED_EDGE ( 'NONE', *, *, #218, .F. ) ;
#54 = UNCERTAINTY_MEASURE_WITH_UNIT (LENGTH_MEASURE( 1.000000000000000082E-05 ), #120, 'distance_accuracy_value', 'NONE');
#55 = AXIS2_PLACEMENT_3D ( 'NONE', #100, #153, #253 ) ;
#56 = VERTEX_POINT ( 'NONE', #63 ) ;
#57 = AXIS2_PLACEMENT_3D ( 'NONE', #70, #163, #110 ) ;
#58 = PRESENTATION_STYLE_ASSIGNMENT (( #52 ) ) ;
#59 = PRODUCT ( '06183', '06183', '', ( #2 ) ) ;
#60 = SURFACE_STYLE_USAGE ( .BOTH. , #36 ) ;
#61 = ORIENTED_EDGE ( 'NONE', *, *, #47, .T. ) ;
#62 = AXIS2_PLACEMENT_3D ( 'NONE', #223, #38, #121 ) ;
#63 = CARTESIAN_POINT ( 'NONE',  ( 0.000000000000000000, 0.3749999999999986122, 0.3749999999999999445 ) ) ;
#64 = CYLINDRICAL_SURFACE ( 'NONE', #26, 0.3749999999999998335 ) ;
#65 = DIRECTION ( 'NONE',  ( -0.000000000000000000, -1.000000000000000000, -0.000000000000000000 ) ) ;
#66 = ADVANCED_FACE ( 'NONE', ( #155 ), #43, .T. ) ;
#67 = FILL_AREA_STYLE_COLOUR ( '', #205 ) ;
#68 = STYLED_ITEM ( 'NONE', ( #258 ), #137 ) ;
#69 = DIRECTION ( 'NONE',  ( -1.000000000000000000, 0.000000000000000000, 0.000000000000000000 ) ) ;
#70 = CARTESIAN_POINT ( 'NONE',  ( 0.000000000000000000, 39.37007874015748143, 0.000000000000000000 ) ) ;
#71 = VECTOR ( 'NONE', #168, 39.37007874015748143 ) ;
#72 = UNCERTAINTY_MEASURE_WITH_UNIT (LENGTH_MEASURE( 1.000000000000000082E-05 ), #213, 'distance_accuracy_value', 'NONE');
#73 = CARTESIAN_POINT ( 'NONE',  ( 0.000000000000000000, 0.000000000000000000, 0.000000000000000000 ) ) ;
#74 = VERTEX_POINT ( 'NONE', #151 ) ;
#75 =( CONVERSION_BASED_UNIT ( 'INCH', #16 ) LENGTH_UNIT ( ) NAMED_UNIT ( #128 ) );
#76 = EDGE_LOOP ( 'NONE', ( #116, #171, #21 ) ) ;
#77 = DIRECTION ( 'NONE',  ( -1.000000000000000000, 0.000000000000000000, 0.000000000000000000 ) ) ;
#78 = AXIS2_PLACEMENT_3D ( 'NONE', #49, #233, #193 ) ;
#79 = VERTEX_POINT ( 'NONE', #126 ) ;
#80 = APPLICATION_PROTOCOL_DEFINITION ( 'draft international standard', 'automotive_design', 1998, #8 ) ;
#81 = ORIENTED_EDGE ( 'NONE', *, *, #47, .F. ) ;
#82 = DIRECTION ( 'NONE',  ( 8.659560562354948882E-17, 0.7071067811865462405, -0.7071067811865487940 ) ) ;
#83 = ORIENTED_EDGE ( 'NONE', *, *, #148, .F. ) ;
#84 = SURFACE_SIDE_STYLE ('',( #178 ) ) ;
#85 =( NAMED_UNIT ( * ) SI_UNIT ( $, .STERADIAN. ) SOLID_ANGLE_UNIT ( ) );
#86 = DIMENSIONAL_EXPONENTS ( 1.000000000000000000, 0.000000000000000000, 0.000000000000000000, 0.000000000000000000, 0.000000000000000000, 0.000000000000000000, 0.000000000000000000 ) ;
#87 = SURFACE_STYLE_USAGE ( .BOTH. , #88 ) ;
#88 = SURFACE_SIDE_STYLE ('',( #195 ) ) ;
#89 = CIRCLE ( 'NONE', #244, 0.3750000000000000555 ) ;
#90 =( GEOMETRIC_REPRESENTATION_CONTEXT ( 3 ) GLOBAL_UNCERTAINTY_ASSIGNED_CONTEXT ( ( #222 ) ) GLOBAL_UNIT_ASSIGNED_CONTEXT ( ( #179, #259, #256 ) ) REPRESENTATION_CONTEXT ( 'NONE', 'WORKASPACE' ) );
#91 = DIRECTION ( 'NONE',  ( -1.469102054114281051E-16, 1.000000000000000000, -0.000000000000000000 ) ) ;
#92 =( NAMED_UNIT ( * ) PLANE_ANGLE_UNIT ( ) SI_UNIT ( $, .RADIAN. ) );
#93 = ADVANCED_FACE ( 'NONE', ( #210 ), #103, .F. ) ;
#94 = PRODUCT_RELATED_PRODUCT_CATEGORY ( 'part', '', ( #59 ) ) ;
#95 =( NAMED_UNIT ( * ) PLANE_ANGLE_UNIT ( ) SI_UNIT ( $, .RADIAN. ) );
#96 = UNCERTAINTY_MEASURE_WITH_UNIT (LENGTH_MEASURE( 1.000000000000000082E-05 ), #75, 'distance_accuracy_value', 'NONE');
#97 = APPLICATION_PROTOCOL_DEFINITION ( 'draft international standard', 'automotive_design', 1998, #243 ) ;
#98 =( NAMED_UNIT ( * ) PLANE_ANGLE_UNIT ( ) SI_UNIT ( $, .RADIAN. ) );
#99 =( NAMED_UNIT ( * ) SI_UNIT ( $, .STERADIAN. ) SOLID_ANGLE_UNIT ( ) );
#100 = CARTESIAN_POINT ( 'NONE',  ( 3.244069492476312942E-16, 0.3749999999999986122, 0.000000000000000000 ) ) ;
#101 = DIRECTION ( 'NONE',  ( 1.469102054114281051E-16, -1.000000000000000000, 0.000000000000000000 ) ) ;
#102 = DIMENSIONAL_EXPONENTS ( 1.000000000000000000, 0.000000000000000000, 0.000000000000000000, 0.000000000000000000, 0.000000000000000000, 0.000000000000000000, 0.000000000000000000 ) ;
#103 = PLANE ( 'NONE',  #14 ) ;
#104 = MANIFOLD_SOLID_BREP ( 'Revolve - Tool Body (Pointed)', #182 ) ;
#105 = DIRECTION ( 'NONE',  ( -1.469102054114281051E-16, 1.000000000000000000, -0.000000000000000000 ) ) ;
#106 = DIRECTION ( 'NONE',  ( -1.000000000000000000, -1.469102054114281051E-16, 0.000000000000000000 ) ) ;
#107 = VECTOR ( 'NONE', #247, 39.37007874015748143 ) ;
#108 = SURFACE_STYLE_USAGE ( .BOTH. , #109 ) ;
#109 = SURFACE_SIDE_STYLE ('',( #135 ) ) ;
#110 = DIRECTION ( 'NONE',  ( 0.000000000000000000, 0.000000000000000000, 1.000000000000000000 ) ) ;
#111 = MECHANICAL_DESIGN_GEOMETRIC_PRESENTATION_REPRESENTATION (  '', ( #239 ), #261 ) ;
#112 = LINE ( 'NONE', #46, #40 ) ;
#113 = ADVANCED_FACE ( 'NONE', ( #150 ), #29, .F. ) ;
#114 = CARTESIAN_POINT ( 'NONE',  ( 0.000000000000000000, 0.000000000000000000, 0.000000000000000000 ) ) ;
#115 = EDGE_CURVE ( 'NONE', #242, #74, #227, .T. ) ;
#116 = ORIENTED_EDGE ( 'NONE', *, *, #260, .F. ) ;
#117 =( LENGTH_UNIT ( ) NAMED_UNIT ( * ) SI_UNIT ( $, .METRE. ) );
#118 = CIRCLE ( 'NONE', #159, 0.3749999999999999445 ) ;
#119 = DIRECTION ( 'NONE',  ( 0.000000000000000000, 0.000000000000000000, 1.000000000000000000 ) ) ;
#120 =( CONVERSION_BASED_UNIT ( 'INCH', #226 ) LENGTH_UNIT ( ) NAMED_UNIT ( #232 ) );
#121 = DIRECTION ( 'NONE',  ( 1.000000000000000000, 0.000000000000000000, 0.000000000000000000 ) ) ;
#122 =( GEOMETRIC_REPRESENTATION_CONTEXT ( 3 ) GLOBAL_UNCERTAINTY_ASSIGNED_CONTEXT ( ( #183 ) ) GLOBAL_UNIT_ASSIGNED_CONTEXT ( ( #19, #95, #204 ) ) REPRESENTATION_CONTEXT ( 'NONE', 'WORKASPACE' ) );
#123 = EDGE_LOOP ( 'NONE', ( #201, #262, #143, #144 ) ) ;
#124 = DIRECTION ( 'NONE',  ( -1.469102054114281051E-16, 1.000000000000000000, -0.000000000000000000 ) ) ;
#125 = LENGTH_MEASURE_WITH_UNIT ( LENGTH_MEASURE( 0.02539999999999999897 ), #181 );
#126 = CARTESIAN_POINT ( 'NONE',  ( -0.3750000000000001110, 3.000000000000000444, 0.000000000000000000 ) ) ;
#127 = PRESENTATION_LAYER_ASSIGNMENT (  '', '', ( #239 ) ) ;
#128 = DIMENSIONAL_EXPONENTS ( 1.000000000000000000, 0.000000000000000000, 0.000000000000000000, 0.000000000000000000, 0.000000000000000000, 0.000000000000000000, 0.000000000000000000 ) ;
#129 =( CONVERSION_BASED_UNIT ( 'INCH', #125 ) LENGTH_UNIT ( ) NAMED_UNIT ( #102 ) );
#130 = DIRECTION ( 'NONE',  ( -1.000000000000000000, 0.000000000000000000, 0.000000000000000000 ) ) ;
#131 = CARTESIAN_POINT ( 'NONE',  ( 0.3749999999999999445, 3.000000000000000444, 0.000000000000000000 ) ) ;
#132 = DIRECTION ( 'NONE',  ( -1.000000000000000000, 0.000000000000000000, 0.000000000000000000 ) ) ;
#133 = CARTESIAN_POINT ( 'NONE',  ( 0.000000000000000000, 39.37007874015748143, 0.000000000000000000 ) ) ;
#134 = CARTESIAN_POINT ( 'NONE',  ( -6.123233995736770966E-17, 3.000000000000000444, 0.000000000000000000 ) ) ;
#135 = SURFACE_STYLE_FILL_AREA ( #50 ) ;
#136 = COLOUR_RGB ( '',1.000000000000000000, 0.000000000000000000, 0.000000000000000000 ) ;
#137 = ADVANCED_FACE ( 'NONE', ( #174 ), #255, .T. ) ;
#138 = LINE ( 'NONE', #140, #71 ) ;
#139 = ORIENTED_EDGE ( 'NONE', *, *, #260, .T. ) ;
#140 = CARTESIAN_POINT ( 'NONE',  ( -0.3749999999999998890, 3.000000000000000444, 0.000000000000000000 ) ) ;
#141 =( GEOMETRIC_REPRESENTATION_CONTEXT ( 3 ) GLOBAL_UNCERTAINTY_ASSIGNED_CONTEXT ( ( #54 ) ) GLOBAL_UNIT_ASSIGNED_CONTEXT ( ( #120, #98, #99 ) ) REPRESENTATION_CONTEXT ( 'NONE', 'WORKASPACE' ) );
#142 = CONICAL_SURFACE ( 'NONE', #235, 39.37007874015762354, 0.7853981633974501664 ) ;
#143 = ORIENTED_EDGE ( 'NONE', *, *, #160, .F. ) ;
#144 = ORIENTED_EDGE ( 'NONE', *, *, #240, .F. ) ;
#145 = PRESENTATION_STYLE_ASSIGNMENT (( #60 ) ) ;
#146 = MECHANICAL_DESIGN_GEOMETRIC_PRESENTATION_REPRESENTATION (  '', ( #156 ), #122 ) ;
#147 = EDGE_LOOP ( 'NONE', ( #35, #265 ) ) ;
#148 = EDGE_CURVE ( 'NONE', #74, #184, #112, .T. ) ;
#149 = ADVANCED_FACE ( 'NONE', ( #196 ), #7, .T. ) ;
#150 = FACE_OUTER_BOUND ( 'NONE', #147, .T. ) ;
#151 = CARTESIAN_POINT ( 'NONE',  ( 0.3749999999999999445, 0.3749999999999986677, 4.592425496802574219E-17 ) ) ;
#152 = UNCERTAINTY_MEASURE_WITH_UNIT (LENGTH_MEASURE( 1.000000000000000082E-05 ), #129, 'distance_accuracy_value', 'NONE');
#153 = DIRECTION ( 'NONE',  ( -1.469102054114281051E-16, 1.000000000000000000, -0.000000000000000000 ) ) ;
#154 = DIRECTION ( 'NONE',  ( 1.000000000000000000, 1.469102054114281051E-16, 0.000000000000000000 ) ) ;
#155 = FACE_OUTER_BOUND ( 'NONE', #165, .T. ) ;
#156 = STYLED_ITEM ( 'NONE', ( #58 ), #200 ) ;
#157 = FILL_AREA_STYLE_COLOUR ( '', #136 ) ;
#158 = FILL_AREA_STYLE ('',( #67 ) ) ;
#159 = AXIS2_PLACEMENT_3D ( 'NONE', #166, #263, #23 ) ;
#160 = EDGE_CURVE ( 'NONE', #79, #184, #1, .T. ) ;
#161 =( NAMED_UNIT ( * ) PLANE_ANGLE_UNIT ( ) SI_UNIT ( $, .RADIAN. ) );
#162 = VECTOR ( 'NONE', #82, 39.37007874015748143 ) ;
#163 = DIRECTION ( 'NONE',  ( 0.000000000000000000, 1.000000000000000000, 0.000000000000000000 ) ) ;
#164 = CARTESIAN_POINT ( 'NONE',  ( 4.592425496802574219E-17, 0.3749999999999986122, -0.3749999999999999445 ) ) ;
#165 = EDGE_LOOP ( 'NONE', ( #83, #61, #167, #202 ) ) ;
#166 = CARTESIAN_POINT ( 'NONE',  ( 0.000000000000000000, 0.3749999999999986122, 0.000000000000000000 ) ) ;
#167 = ORIENTED_EDGE ( 'NONE', *, *, #240, .T. ) ;
#168 = DIRECTION ( 'NONE',  ( -1.469102054114281051E-16, 1.000000000000000000, -0.000000000000000000 ) ) ;
#169 = VERTEX_POINT ( 'NONE', #238 ) ;
#170 = SHAPE_DEFINITION_REPRESENTATION ( #6, #229 ) ;
#171 = ORIENTED_EDGE ( 'NONE', *, *, #218, .T. ) ;
#172 = PRODUCT_DEFINITION ( 'UNKNOWN', '', #251, #225 ) ;
#173 = MECHANICAL_DESIGN_GEOMETRIC_PRESENTATION_REPRESENTATION (  '', ( #68 ), #209 ) ;
#174 = FACE_OUTER_BOUND ( 'NONE', #249, .T. ) ;
#175 = CLOSED_SHELL ( 'NONE', ( #149, #137, #200 ) ) ;
#176 = FACE_OUTER_BOUND ( 'NONE', #123, .T. ) ;
#177 = PRESENTATION_LAYER_ASSIGNMENT (  '', '', ( #221 ) ) ;
#178 = SURFACE_STYLE_FILL_AREA ( #190 ) ;
#179 =( CONVERSION_BASED_UNIT ( 'INCH', #13 ) LENGTH_UNIT ( ) NAMED_UNIT ( #86 ) );
#180 = PRESENTATION_LAYER_ASSIGNMENT (  '', '', ( #203 ) ) ;
#181 =( LENGTH_UNIT ( ) NAMED_UNIT ( * ) SI_UNIT ( $, .METRE. ) );
#182 = CLOSED_SHELL ( 'NONE', ( #41, #93, #66, #113 ) ) ;
#183 = UNCERTAINTY_MEASURE_WITH_UNIT (LENGTH_MEASURE( 1.000000000000000082E-05 ), #19, 'distance_accuracy_value', 'NONE');
#184 = VERTEX_POINT ( 'NONE', #192 ) ;
#185 = EDGE_LOOP ( 'NONE', ( #5, #81 ) ) ;
#186 =( LENGTH_UNIT ( ) NAMED_UNIT ( * ) SI_UNIT ( $, .METRE. ) );
#187 = ORIENTED_EDGE ( 'NONE', *, *, #212, .F. ) ;
#188 = COLOUR_RGB ( '',0.7921568627450980005, 0.8196078431372548767, 0.9333333333333333481 ) ;
#189 = CARTESIAN_POINT ( 'NONE',  ( 3.244069492476312449E-16, 0.3749999999999986122, 0.000000000000000000 ) ) ;
#190 = FILL_AREA_STYLE ('',( #11 ) ) ;
#191 = COLOUR_RGB ( '',0.7921568627450980005, 0.8196078431372548767, 0.9333333333333333481 ) ;
#192 = CARTESIAN_POINT ( 'NONE',  ( 0.3749999999999999445, 3.000000000000000444, 4.592425496802574219E-17 ) ) ;
#193 = DIRECTION ( 'NONE',  ( 0.000000000000000000, -0.000000000000000000, 1.000000000000000000 ) ) ;
#194 = LENGTH_MEASURE_WITH_UNIT ( LENGTH_MEASURE( 0.02539999999999999897 ), #33 );
#195 = SURFACE_STYLE_FILL_AREA ( #32 ) ;
#196 = FACE_OUTER_BOUND ( 'NONE', #76, .T. ) ;
#197 = ORIENTED_EDGE ( 'NONE', *, *, #24, .T. ) ;
#198 = MECHANICAL_DESIGN_GEOMETRIC_PRESENTATION_REPRESENTATION (  '', ( #221 ), #90 ) ;
#199 = DIRECTION ( 'NONE',  ( 0.000000000000000000, 1.000000000000000000, 0.000000000000000000 ) ) ;
#200 = ADVANCED_FACE ( 'NONE', ( #51 ), #142, .T. ) ;
#201 = ORIENTED_EDGE ( 'NONE', *, *, #115, .T. ) ;
#202 = ORIENTED_EDGE ( 'NONE', *, *, #252, .F. ) ;
#203 = STYLED_ITEM ( 'NONE', ( #145 ), #18 ) ;
#204 =( NAMED_UNIT ( * ) SI_UNIT ( $, .STERADIAN. ) SOLID_ANGLE_UNIT ( ) );
#205 = COLOUR_RGB ( '',1.000000000000000000, 0.000000000000000000, 0.000000000000000000 ) ;
#206 = FILL_AREA_STYLE_COLOUR ( '', #188 ) ;
#207 = CARTESIAN_POINT ( 'NONE',  ( -6.123233995736772199E-17, 3.000000000000000444, 0.000000000000000000 ) ) ;
#208 =( NAMED_UNIT ( * ) PLANE_ANGLE_UNIT ( ) SI_UNIT ( $, .RADIAN. ) );
#209 =( GEOMETRIC_REPRESENTATION_CONTEXT ( 3 ) GLOBAL_UNCERTAINTY_ASSIGNED_CONTEXT ( ( #72 ) ) GLOBAL_UNIT_ASSIGNED_CONTEXT ( ( #213, #161, #31 ) ) REPRESENTATION_CONTEXT ( 'NONE', 'WORKASPACE' ) );
#210 = FACE_OUTER_BOUND ( 'NONE', #185, .T. ) ;
#211 = DIRECTION ( 'NONE',  ( -1.469102054114281051E-16, 1.000000000000000000, 0.000000000000000000 ) ) ;
#212 = EDGE_CURVE ( 'NONE', #264, #56, #118, .T. ) ;
#213 =( CONVERSION_BASED_UNIT ( 'INCH', #194 ) LENGTH_UNIT ( ) NAMED_UNIT ( #42 ) );
#214 = CIRCLE ( 'NONE', #250, 0.3749999999999999445 ) ;
#215 = AXIS2_PLACEMENT_3D ( 'NONE', #134, #91, #69 ) ;
#216 = SURFACE_SIDE_STYLE ('',( #48 ) ) ;
#217 = LINE ( 'NONE', #114, #107 ) ;
#218 = EDGE_CURVE ( 'NONE', #169, #264, #4, .T. ) ;
#219 = SURFACE_STYLE_FILL_AREA ( #248 ) ;
#220 = MECHANICAL_DESIGN_GEOMETRIC_PRESENTATION_REPRESENTATION (  '', ( #203 ), #141 ) ;
#221 = STYLED_ITEM ( 'NONE', ( #237 ), #149 ) ;
#222 = UNCERTAINTY_MEASURE_WITH_UNIT (LENGTH_MEASURE( 1.000000000000000082E-05 ), #179, 'distance_accuracy_value', 'NONE');
#223 = CARTESIAN_POINT ( 'NONE',  ( 0.000000000000000000, 0.000000000000000000, 0.000000000000000000 ) ) ;
#224 =( LENGTH_UNIT ( ) NAMED_UNIT ( * ) SI_UNIT ( $, .METRE. ) );
#225 = PRODUCT_DEFINITION_CONTEXT ( 'detailed design', #8, 'design' ) ;
#226 = LENGTH_MEASURE_WITH_UNIT ( LENGTH_MEASURE( 0.02539999999999999897 ), #224 );
#227 = CIRCLE ( 'NONE', #37, 0.3749999999999996114 ) ;
#228 = DIRECTION ( 'NONE',  ( 0.000000000000000000, 0.000000000000000000, -1.000000000000000000 ) ) ;
#229 = ADVANCED_BREP_SHAPE_REPRESENTATION ( '06183', ( #18, #104, #62 ), #30 ) ;
#230 = SURFACE_STYLE_USAGE ( .BOTH. , #84 ) ;
#231 = CARTESIAN_POINT ( 'NONE',  ( 3.244069492476312942E-16, 0.3749999999999986122, 0.000000000000000000 ) ) ;
#232 = DIMENSIONAL_EXPONENTS ( 1.000000000000000000, 0.000000000000000000, 0.000000000000000000, 0.000000000000000000, 0.000000000000000000, 0.000000000000000000, 0.000000000000000000 ) ;
#233 = DIRECTION ( 'NONE',  ( 0.000000000000000000, 1.000000000000000000, 0.000000000000000000 ) ) ;
#234 = CIRCLE ( 'NONE', #55, 0.3749999999999996114 ) ;
#235 = AXIS2_PLACEMENT_3D ( 'NONE', #133, #199, #119 ) ;
#236 = DIRECTION ( 'NONE',  ( -1.469102054114281051E-16, 1.000000000000000000, -0.000000000000000000 ) ) ;
#237 = PRESENTATION_STYLE_ASSIGNMENT (( #87 ) ) ;
#238 = CARTESIAN_POINT ( 'NONE',  ( 0.000000000000000000, 0.000000000000000000, 0.000000000000000000 ) ) ;
#239 = STYLED_ITEM ( 'NONE', ( #28 ), #104 ) ;
#240 = EDGE_CURVE ( 'NONE', #242, #79, #138, .T. ) ;
#241 =( NAMED_UNIT ( * ) SI_UNIT ( $, .STERADIAN. ) SOLID_ANGLE_UNIT ( ) );
#242 = VERTEX_POINT ( 'NONE', #39 ) ;
#243 = APPLICATION_CONTEXT ( 'automotive_design' ) ;
#244 = AXIS2_PLACEMENT_3D ( 'NONE', #17, #245, #77 ) ;
#245 = DIRECTION ( 'NONE',  ( -1.469102054114281051E-16, 1.000000000000000000, -0.000000000000000000 ) ) ;
#246 = EDGE_LOOP ( 'NONE', ( #53, #139, #197 ) ) ;
#247 = DIRECTION ( 'NONE',  ( 0.000000000000000000, 0.7071067811865462405, 0.7071067811865487940 ) ) ;
#248 = FILL_AREA_STYLE ('',( #206 ) ) ;
#249 = EDGE_LOOP ( 'NONE', ( #20, #187 ) ) ;
#250 = AXIS2_PLACEMENT_3D ( 'NONE', #3, #65, #228 ) ;
#251 = PRODUCT_DEFINITION_FORMATION_WITH_SPECIFIED_SOURCE ( 'ANY', '', #59, .NOT_KNOWN. ) ;
#252 = EDGE_CURVE ( 'NONE', #184, #79, #89, .T. ) ;
#253 = DIRECTION ( 'NONE',  ( -1.000000000000000000, -1.821231995776177451E-16, 0.000000000000000000 ) ) ;
#254 = PRESENTATION_LAYER_ASSIGNMENT (  '', '', ( #68 ) ) ;
#255 = PLANE ( 'NONE',  #78 ) ;
#256 =( NAMED_UNIT ( * ) SI_UNIT ( $, .STERADIAN. ) SOLID_ANGLE_UNIT ( ) );
#257 = PRESENTATION_LAYER_ASSIGNMENT (  '', '', ( #156 ) ) ;
#258 = PRESENTATION_STYLE_ASSIGNMENT (( #108 ) ) ;
#259 =( NAMED_UNIT ( * ) PLANE_ANGLE_UNIT ( ) SI_UNIT ( $, .RADIAN. ) );
#260 = EDGE_CURVE ( 'NONE', #169, #56, #217, .T. ) ;
#261 =( GEOMETRIC_REPRESENTATION_CONTEXT ( 3 ) GLOBAL_UNCERTAINTY_ASSIGNED_CONTEXT ( ( #152 ) ) GLOBAL_UNIT_ASSIGNED_CONTEXT ( ( #129, #208, #85 ) ) REPRESENTATION_CONTEXT ( 'NONE', 'WORKASPACE' ) );
#262 = ORIENTED_EDGE ( 'NONE', *, *, #148, .T. ) ;
#263 = DIRECTION ( 'NONE',  ( -0.000000000000000000, -1.000000000000000000, -0.000000000000000000 ) ) ;
#264 = VERTEX_POINT ( 'NONE', #164 ) ;
#265 = ORIENTED_EDGE ( 'NONE', *, *, #252, .T. ) ;
ENDSEC;
END-ISO-10303-21;
