ISO-10303-21;
HEADER;
FILE_DESCRIPTION (( 'STEP AP214' ),
    '1' );
FILE_NAME ('Micro_DMM-030-2120.STEP',
    '2021-09-02T16:13:38',
    ( '' ),
    ( '' ),
    'SwSTEP 2.0',
    'SolidWorks 2020',
    '' );
FILE_SCHEMA (( 'AUTOMOTIVE_DESIGN' ));
ENDSEC;

DATA;
#1 = UNCERTAINTY_MEASURE_WITH_UNIT (LENGTH_MEASURE( 1.000000000000000082E-05 ), #109, 'distance_accuracy_value', 'NONE');
#2 = CONICAL_SURFACE ( 'NONE', #155, 0.007499999999999999722, 1.047197551196600740 ) ;
#3 = SURFACE_SIDE_STYLE ('',( #22 ) ) ;
#4 = AXIS2_PLACEMENT_3D ( 'NONE', #160, #8, #62 ) ;
#5 = ORIENTED_EDGE ( 'NONE', *, *, #278, .T. ) ;
#6 = DIRECTION ( 'NONE',  ( -1.000000000000000000, 0.0000000000000000000, 0.0000000000000000000 ) ) ;
#7 = ADVANCED_FACE ( 'NONE', ( #47 ), #232, .T. ) ;
#8 = DIRECTION ( 'NONE',  ( -0.0000000000000000000, 0.0000000000000000000, -1.000000000000000000 ) ) ;
#9 = EDGE_CURVE ( 'NONE', #95, #61, #57, .T. ) ;
#10 = UNCERTAINTY_MEASURE_WITH_UNIT (LENGTH_MEASURE( 1.000000000000000082E-05 ), #218, 'distance_accuracy_value', 'NONE');
#11 = DIRECTION ( 'NONE',  ( -0.0000000000000000000, -0.0000000000000000000, -1.000000000000000000 ) ) ;
#12 = PRODUCT_RELATED_PRODUCT_CATEGORY ( 'part', '', ( #119 ) ) ;
#13 = CYLINDRICAL_SURFACE ( 'NONE', #305, 0.05900500000000003659 ) ;
#14 = EDGE_LOOP ( 'NONE', ( #280, #222, #129, #137 ) ) ;
#15 = CARTESIAN_POINT ( 'NONE',  ( -0.05905499999999998251, 0.0000000000000000000, 1.496062999999999921 ) ) ;
#16 = AXIS2_PLACEMENT_3D ( 'NONE', #186, #102, #242 ) ;
#17 = LINE ( 'NONE', #170, #187 ) ;
#18 = DIRECTION ( 'NONE',  ( -1.000000000000000000, 0.0000000000000000000, 0.0000000000000000000 ) ) ;
#19 = CLOSED_SHELL ( 'NONE', ( #195, #7, #285, #30, #43, #193, #185, #180, #51, #297, #44 ) ) ;
#20 = VECTOR ( 'NONE', #283, 39.37007874015748143 ) ;
#21 = CARTESIAN_POINT ( 'NONE',  ( 0.0000000000000000000, 0.0000000000000000000, 0.3149610000000000465 ) ) ;
#22 = SURFACE_STYLE_FILL_AREA ( #231 ) ;
#23 = EDGE_CURVE ( 'NONE', #329, #174, #17, .T. ) ;
#24 = PRODUCT_DEFINITION_CONTEXT ( 'detailed design', #207, 'design' ) ;
#25 = CARTESIAN_POINT ( 'NONE',  ( -0.05900500000000003659, 0.0000000000000000000, 0.0000000000000000000 ) ) ;
#26 = CIRCLE ( 'NONE', #181, 0.05900500000000000883 ) ;
#27 =( LENGTH_UNIT ( ) NAMED_UNIT ( * ) SI_UNIT ( $, .METRE. ) );
#28 = VECTOR ( 'NONE', #318, 39.37007874015748143 ) ;
#29 = CARTESIAN_POINT ( 'NONE',  ( 0.0000000000000000000, 0.0000000000000000000, 0.3149610000000000465 ) ) ;
#30 = ADVANCED_FACE ( 'NONE', ( #76 ), #70, .T. ) ;
#31 = DIRECTION ( 'NONE',  ( -0.0000000000000000000, -0.0000000000000000000, -1.000000000000000000 ) ) ;
#32 = SHAPE_DEFINITION_REPRESENTATION ( #53, #219 ) ;
#33 = DIRECTION ( 'NONE',  ( -0.0000000000000000000, -0.0000000000000000000, -1.000000000000000000 ) ) ;
#34 = COLOUR_RGB ( '',0.7921568627450980005, 0.8196078431372548767, 0.9333333333333333481 ) ;
#35 = ORIENTED_EDGE ( 'NONE', *, *, #273, .F. ) ;
#36 = DIRECTION ( 'NONE',  ( -0.0000000000000000000, -0.0000000000000000000, -1.000000000000000000 ) ) ;
#37 =( LENGTH_UNIT ( ) NAMED_UNIT ( * ) SI_UNIT ( $, .METRE. ) );
#38 = ORIENTED_EDGE ( 'NONE', *, *, #307, .F. ) ;
#39 = LENGTH_MEASURE_WITH_UNIT ( LENGTH_MEASURE( 0.02539999999999999897 ), #79 );
#40 =( NAMED_UNIT ( * ) SI_UNIT ( $, .STERADIAN. ) SOLID_ANGLE_UNIT ( ) );
#41 = CARTESIAN_POINT ( 'NONE',  ( -0.007499999999999999722, 4.072256768864737466E-18, 1.707404996040164512E-17 ) ) ;
#42 = PRODUCT_DEFINITION_FORMATION_WITH_SPECIFIED_SOURCE ( 'ANY', '', #119, .NOT_KNOWN. ) ;
#43 = ADVANCED_FACE ( 'NONE', ( #248 ), #272, .T. ) ;
#44 = ADVANCED_FACE ( 'NONE', ( #130 ), #133, .F. ) ;
#45 = LINE ( 'NONE', #15, #28 ) ;
#46 = DIRECTION ( 'NONE',  ( -0.0000000000000000000, -0.0000000000000000000, -1.000000000000000000 ) ) ;
#47 = FACE_OUTER_BOUND ( 'NONE', #212, .T. ) ;
#48 = CARTESIAN_POINT ( 'NONE',  ( 0.0000000000000000000, 0.0000000000000000000, 1.707404996040164512E-17 ) ) ;
#49 = COLOUR_RGB ( '',0.7921568627450980005, 0.8196078431372548767, 0.9333333333333333481 ) ;
#50 = CARTESIAN_POINT ( 'NONE',  ( 0.0000000000000000000, 0.0000000000000000000, 1.496062999999999921 ) ) ;
#51 = ADVANCED_FACE ( 'NONE', ( #101 ), #2, .T. ) ;
#52 = EDGE_LOOP ( 'NONE', ( #198, #123, #80, #89 ) ) ;
#53 = PRODUCT_DEFINITION_SHAPE ( 'NONE', 'NONE',  #284 ) ;
#54 = VERTEX_POINT ( 'NONE', #106 ) ;
#55 = DIRECTION ( 'NONE',  ( 0.7071067811865536790, 8.659560562355008046E-17, -0.7071067811865412445 ) ) ;
#56 = FACE_OUTER_BOUND ( 'NONE', #240, .T. ) ;
#57 = CIRCLE ( 'NONE', #115, 0.007499999999999999722 ) ;
#58 = ORIENTED_EDGE ( 'NONE', *, *, #278, .F. ) ;
#59 = DIRECTION ( 'NONE',  ( 0.0000000000000000000, 0.0000000000000000000, 1.000000000000000000 ) ) ;
#60 = AXIS2_PLACEMENT_3D ( 'NONE', #213, #99, #184 ) ;
#61 = VERTEX_POINT ( 'NONE', #41 ) ;
#62 = DIRECTION ( 'NONE',  ( -1.000000000000000000, 0.0000000000000000000, 0.0000000000000000000 ) ) ;
#63 = PRODUCT_CONTEXT ( 'NONE', #204, 'mechanical' ) ;
#64 = ORIENTED_EDGE ( 'NONE', *, *, #100, .F. ) ;
#65 = FACE_OUTER_BOUND ( 'NONE', #74, .T. ) ;
#66 = DIRECTION ( 'NONE',  ( -1.000000000000000000, 0.0000000000000000000, 0.0000000000000000000 ) ) ;
#67 = EDGE_CURVE ( 'NONE', #125, #234, #246, .T. ) ;
#68 = CIRCLE ( 'NONE', #16, 0.05900500000000007128 ) ;
#69 = EDGE_LOOP ( 'NONE', ( #117, #114 ) ) ;
#70 = CYLINDRICAL_SURFACE ( 'NONE', #135, 0.05905499999999998251 ) ;
#71 = EDGE_CURVE ( 'NONE', #256, #298, #26, .T. ) ;
#72 = DIRECTION ( 'NONE',  ( -0.0000000000000000000, -0.0000000000000000000, -1.000000000000000000 ) ) ;
#73 = SURFACE_SIDE_STYLE ('',( #75 ) ) ;
#74 = EDGE_LOOP ( 'NONE', ( #113, #107, #269, #214 ) ) ;
#75 = SURFACE_STYLE_FILL_AREA ( #304 ) ;
#76 = FACE_OUTER_BOUND ( 'NONE', #176, .T. ) ;
#77 = EDGE_CURVE ( 'NONE', #54, #175, #139, .T. ) ;
#78 = AXIS2_PLACEMENT_3D ( 'NONE', #268, #271, #192 ) ;
#79 =( LENGTH_UNIT ( ) NAMED_UNIT ( * ) SI_UNIT ( $, .METRE. ) );
#80 = ORIENTED_EDGE ( 'NONE', *, *, #314, .F. ) ;
#81 = EDGE_CURVE ( 'NONE', #175, #256, #97, .T. ) ;
#82 = ORIENTED_EDGE ( 'NONE', *, *, #23, .T. ) ;
#83 = AXIS2_PLACEMENT_3D ( 'NONE', #326, #237, #153 ) ;
#84 = FACE_BOUND ( 'NONE', #289, .T. ) ;
#85 = EDGE_CURVE ( 'NONE', #194, #125, #196, .T. ) ;
#86 = CARTESIAN_POINT ( 'NONE',  ( 0.05900500000000003659, 7.226028438368962060E-18, 0.0000000000000000000 ) ) ;
#87 = CARTESIAN_POINT ( 'NONE',  ( 0.007499999999999999722, 0.0000000000000000000, 1.707404996040164512E-17 ) ) ;
#88 = EDGE_CURVE ( 'NONE', #194, #329, #118, .T. ) ;
#89 = ORIENTED_EDGE ( 'NONE', *, *, #67, .F. ) ;
#90 = CARTESIAN_POINT ( 'NONE',  ( -0.04405500000000001082, 0.0000000000000000000, 1.496062999999999921 ) ) ;
#91 = CONICAL_SURFACE ( 'NONE', #161, 0.04405500000000001082, 0.7853981633974570498 ) ;
#92 = CARTESIAN_POINT ( 'NONE',  ( -0.05900500000000002271, 7.226028438368960519E-18, 0.02973642561461150094 ) ) ;
#93 = DIRECTION ( 'NONE',  ( -1.000000000000000000, 0.0000000000000000000, 0.0000000000000000000 ) ) ;
#94 = MANIFOLD_SOLID_BREP ( 'Cut-Revolve4', #19 ) ;
#95 = VERTEX_POINT ( 'NONE', #87 ) ;
#96 = CARTESIAN_POINT ( 'NONE',  ( -0.007499999999999999722, 9.184850993605147975E-19, 1.707404996040164512E-17 ) ) ;
#97 = LINE ( 'NONE', #25, #110 ) ;
#98 = EDGE_LOOP ( 'NONE', ( #282, #259, #262, #159 ) ) ;
#99 = DIRECTION ( 'NONE',  ( -0.0000000000000000000, -0.0000000000000000000, -1.000000000000000000 ) ) ;
#100 = EDGE_CURVE ( 'NONE', #308, #174, #325, .T. ) ;
#101 = FACE_OUTER_BOUND ( 'NONE', #164, .T. ) ;
#102 = DIRECTION ( 'NONE',  ( -0.0000000000000000000, -0.0000000000000000000, -1.000000000000000000 ) ) ;
#103 = CARTESIAN_POINT ( 'NONE',  ( 0.0000000000000000000, 0.0000000000000000000, 0.02973642561461150094 ) ) ;
#104 = DIMENSIONAL_EXPONENTS ( 1.000000000000000000, 0.0000000000000000000, 0.0000000000000000000, 0.0000000000000000000, 0.0000000000000000000, 0.0000000000000000000, 0.0000000000000000000 ) ;
#105 = PRESENTATION_STYLE_ASSIGNMENT (( #252 ) ) ;
#106 = CARTESIAN_POINT ( 'NONE',  ( 0.05900500000000007822, 7.226028438368966682E-18, 0.3149610000000000465 ) ) ;
#107 = ORIENTED_EDGE ( 'NONE', *, *, #178, .T. ) ;
#108 =( NAMED_UNIT ( * ) SI_UNIT ( $, .STERADIAN. ) SOLID_ANGLE_UNIT ( ) );
#109 =( CONVERSION_BASED_UNIT ( 'INCH', #209 ) LENGTH_UNIT ( ) NAMED_UNIT ( #322 ) );
#110 = VECTOR ( 'NONE', #260, 39.37007874015748143 ) ;
#111 =( GEOMETRIC_REPRESENTATION_CONTEXT ( 3 ) GLOBAL_UNCERTAINTY_ASSIGNED_CONTEXT ( ( #10 ) ) GLOBAL_UNIT_ASSIGNED_CONTEXT ( ( #218, #296, #40 ) ) REPRESENTATION_CONTEXT ( 'NONE', 'WORKASPACE' ) );
#112 = EDGE_CURVE ( 'NONE', #125, #194, #151, .T. ) ;
#113 = ORIENTED_EDGE ( 'NONE', *, *, #307, .T. ) ;
#114 = ORIENTED_EDGE ( 'NONE', *, *, #85, .T. ) ;
#115 = AXIS2_PLACEMENT_3D ( 'NONE', #48, #72, #274 ) ;
#116 = DIRECTION ( 'NONE',  ( 0.0000000000000000000, 0.0000000000000000000, 1.000000000000000000 ) ) ;
#117 = ORIENTED_EDGE ( 'NONE', *, *, #112, .T. ) ;
#118 = LINE ( 'NONE', #303, #327 ) ;
#119 = PRODUCT ( 'Micro_DMM-030-2120', 'Micro_DMM-030-2120', '', ( #63 ) ) ;
#120 = CARTESIAN_POINT ( 'NONE',  ( 0.0000000000000000000, 0.0000000000000000000, 0.0000000000000000000 ) ) ;
#121 = VECTOR ( 'NONE', #241, 39.37007874015748143 ) ;
#122 = EDGE_CURVE ( 'NONE', #329, #234, #132, .T. ) ;
#123 = ORIENTED_EDGE ( 'NONE', *, *, #88, .T. ) ;
#124 = CARTESIAN_POINT ( 'NONE',  ( 0.0000000000000000000, 0.0000000000000000000, 1.496062999999999921 ) ) ;
#125 = VERTEX_POINT ( 'NONE', #90 ) ;
#126 = DIRECTION ( 'NONE',  ( -1.000000000000000000, 0.0000000000000000000, 0.0000000000000000000 ) ) ;
#127 = LENGTH_MEASURE_WITH_UNIT ( LENGTH_MEASURE( 0.02539999999999999897 ), #37 );
#128 = AXIS2_PLACEMENT_3D ( 'NONE', #29, #31, #313 ) ;
#129 = ORIENTED_EDGE ( 'NONE', *, *, #253, .T. ) ;
#130 = FACE_OUTER_BOUND ( 'NONE', #236, .T. ) ;
#131 = MECHANICAL_DESIGN_GEOMETRIC_PRESENTATION_REPRESENTATION (  '', ( #172 ), #258 ) ;
#132 = CIRCLE ( 'NONE', #83, 0.05905499999999998251 ) ;
#133 = PLANE ( 'NONE',  #291 ) ;
#134 = DIRECTION ( 'NONE',  ( -0.0000000000000000000, -0.0000000000000000000, -1.000000000000000000 ) ) ;
#135 = AXIS2_PLACEMENT_3D ( 'NONE', #197, #46, #295 ) ;
#136 = ORIENTED_EDGE ( 'NONE', *, *, #9, .T. ) ;
#137 = ORIENTED_EDGE ( 'NONE', *, *, #233, .F. ) ;
#138 = DIRECTION ( 'NONE',  ( 1.000000000000000000, 0.0000000000000000000, 0.0000000000000000000 ) ) ;
#139 = CIRCLE ( 'NONE', #321, 0.05900500000000007128 ) ;
#140 = DIRECTION ( 'NONE',  ( 1.000000000000000000, 0.0000000000000000000, 0.0000000000000000000 ) ) ;
#141 = PLANE ( 'NONE',  #4 ) ;
#142 = DIRECTION ( 'NONE',  ( 0.0000000000000000000, 0.0000000000000000000, 1.000000000000000000 ) ) ;
#143 = ORIENTED_EDGE ( 'NONE', *, *, #202, .F. ) ;
#144 = DIRECTION ( 'NONE',  ( -1.000000000000000000, 0.0000000000000000000, 0.0000000000000000000 ) ) ;
#145 = CARTESIAN_POINT ( 'NONE',  ( 0.007499999999999999722, 0.0000000000000000000, 1.707404996040164512E-17 ) ) ;
#146 = CARTESIAN_POINT ( 'NONE',  ( 0.0000000000000000000, 0.0000000000000000000, 0.0000000000000000000 ) ) ;
#147 = AXIS2_PLACEMENT_3D ( 'NONE', #50, #142, #138 ) ;
#148 = VECTOR ( 'NONE', #288, 39.37007874015748143 ) ;
#149 = DIRECTION ( 'NONE',  ( 1.000000000000000000, 0.0000000000000000000, 0.0000000000000000000 ) ) ;
#150 = DIRECTION ( 'NONE',  ( 0.0000000000000000000, 0.0000000000000000000, 1.000000000000000000 ) ) ;
#151 = CIRCLE ( 'NONE', #264, 0.04405500000000001082 ) ;
#152 = CIRCLE ( 'NONE', #60, 0.007499999999999999722 ) ;
#153 = DIRECTION ( 'NONE',  ( 1.000000000000000000, 0.0000000000000000000, 0.0000000000000000000 ) ) ;
#154 = PRESENTATION_LAYER_ASSIGNMENT (  '', '', ( #172 ) ) ;
#155 = AXIS2_PLACEMENT_3D ( 'NONE', #191, #168, #190 ) ;
#156 = AXIS2_PLACEMENT_3D ( 'NONE', #165, #11, #66 ) ;
#157 = ORIENTED_EDGE ( 'NONE', *, *, #100, .T. ) ;
#158 = UNCERTAINTY_MEASURE_WITH_UNIT (LENGTH_MEASURE( 1.000000000000000082E-05 ), #293, 'distance_accuracy_value', 'NONE');
#159 = ORIENTED_EDGE ( 'NONE', *, *, #122, .F. ) ;
#160 = CARTESIAN_POINT ( 'NONE',  ( 0.05900500000000007128, 0.0000000000000000000, 0.3149610000000000465 ) ) ;
#161 = AXIS2_PLACEMENT_3D ( 'NONE', #124, #217, #167 ) ;
#162 = DIRECTION ( 'NONE',  ( 1.000000000000000000, 0.0000000000000000000, -0.0000000000000000000 ) ) ;
#163 = CARTESIAN_POINT ( 'NONE',  ( 0.04405500000000001082, 6.313666573004179469E-18, 1.496062999999999921 ) ) ;
#164 = EDGE_LOOP ( 'NONE', ( #58, #302, #312, #201 ) ) ;
#165 = CARTESIAN_POINT ( 'NONE',  ( 0.0000000000000000000, 0.0000000000000000000, 0.3149610000000000465 ) ) ;
#166 = CONICAL_SURFACE ( 'NONE', #270, 0.04405500000000001082, 0.7853981633974570498 ) ;
#167 = DIRECTION ( 'NONE',  ( -1.000000000000000000, 0.0000000000000000000, 0.0000000000000000000 ) ) ;
#168 = DIRECTION ( 'NONE',  ( 0.0000000000000000000, 0.0000000000000000000, 1.000000000000000000 ) ) ;
#169 = APPLICATION_PROTOCOL_DEFINITION ( 'draft international standard', 'automotive_design', 1998, #204 ) ;
#170 = CARTESIAN_POINT ( 'NONE',  ( 0.05905499999999998251, 7.232151672364692341E-18, 1.496062999999999921 ) ) ;
#171 = DIRECTION ( 'NONE',  ( -0.0000000000000000000, -0.0000000000000000000, -1.000000000000000000 ) ) ;
#172 = STYLED_ITEM ( 'NONE', ( #173 ), #94 ) ;
#173 = PRESENTATION_STYLE_ASSIGNMENT (( #177 ) ) ;
#174 = VERTEX_POINT ( 'NONE', #203 ) ;
#175 = VERTEX_POINT ( 'NONE', #310 ) ;
#176 = EDGE_LOOP ( 'NONE', ( #208, #82, #64, #309 ) ) ;
#177 = SURFACE_STYLE_USAGE ( .BOTH. , #3 ) ;
#178 = EDGE_CURVE ( 'NONE', #54, #298, #235, .T. ) ;
#179 = CARTESIAN_POINT ( 'NONE',  ( 0.0000000000000000000, 0.0000000000000000000, 1.496062999999999921 ) ) ;
#180 = ADVANCED_FACE ( 'NONE', ( #84, #56 ), #141, .T. ) ;
#181 = AXIS2_PLACEMENT_3D ( 'NONE', #103, #300, #250 ) ;
#182 = FACE_OUTER_BOUND ( 'NONE', #69, .T. ) ;
#183 =( NAMED_UNIT ( * ) SI_UNIT ( $, .STERADIAN. ) SOLID_ANGLE_UNIT ( ) );
#184 = DIRECTION ( 'NONE',  ( -1.000000000000000000, 0.0000000000000000000, 0.0000000000000000000 ) ) ;
#185 = ADVANCED_FACE ( 'NONE', ( #281 ), #166, .T. ) ;
#186 = CARTESIAN_POINT ( 'NONE',  ( 0.0000000000000000000, 0.0000000000000000000, 0.3149610000000000465 ) ) ;
#187 = VECTOR ( 'NONE', #171, 39.37007874015748143 ) ;
#188 = CIRCLE ( 'NONE', #328, 0.05900500000000000883 ) ;
#189 = CARTESIAN_POINT ( 'NONE',  ( -0.05905499999999998251, 0.0000000000000000000, 0.3149610000000000465 ) ) ;
#190 = DIRECTION ( 'NONE',  ( 1.000000000000000000, 0.0000000000000000000, 0.0000000000000000000 ) ) ;
#191 = CARTESIAN_POINT ( 'NONE',  ( 0.0000000000000000000, 0.0000000000000000000, 1.707404996040164512E-17 ) ) ;
#192 = DIRECTION ( 'NONE',  ( 1.000000000000000000, 0.0000000000000000000, 0.0000000000000000000 ) ) ;
#193 = ADVANCED_FACE ( 'NONE', ( #182 ), #311, .T. ) ;
#194 = VERTEX_POINT ( 'NONE', #163 ) ;
#195 = ADVANCED_FACE ( 'NONE', ( #65 ), #13, .T. ) ;
#196 = CIRCLE ( 'NONE', #147, 0.04405500000000001082 ) ;
#197 = CARTESIAN_POINT ( 'NONE',  ( 0.0000000000000000000, 0.0000000000000000000, 1.496062999999999921 ) ) ;
#198 = ORIENTED_EDGE ( 'NONE', *, *, #85, .F. ) ;
#199 = EDGE_CURVE ( 'NONE', #95, #298, #244, .T. ) ;
#200 = AXIS2_PLACEMENT_3D ( 'NONE', #179, #59, #162 ) ;
#201 = ORIENTED_EDGE ( 'NONE', *, *, #273, .T. ) ;
#202 = EDGE_CURVE ( 'NONE', #61, #95, #152, .T. ) ;
#203 = CARTESIAN_POINT ( 'NONE',  ( 0.05905499999999998251, 7.232151672364692341E-18, 0.3149610000000000465 ) ) ;
#204 = APPLICATION_CONTEXT ( 'automotive_design' ) ;
#205 = AXIS2_PLACEMENT_3D ( 'NONE', #319, #36, #93 ) ;
#206 =( NAMED_UNIT ( * ) PLANE_ANGLE_UNIT ( ) SI_UNIT ( $, .RADIAN. ) );
#207 = APPLICATION_CONTEXT ( 'automotive_design' ) ;
#208 = ORIENTED_EDGE ( 'NONE', *, *, #314, .T. ) ;
#209 = LENGTH_MEASURE_WITH_UNIT ( LENGTH_MEASURE( 0.02539999999999999897 ), #27 );
#210 = CARTESIAN_POINT ( 'NONE',  ( 0.0000000000000000000, 0.0000000000000000000, 1.496062999999999921 ) ) ;
#211 = DIRECTION ( 'NONE',  ( 0.0000000000000000000, 0.0000000000000000000, 1.000000000000000000 ) ) ;
#212 = EDGE_LOOP ( 'NONE', ( #143, #5, #220, #254 ) ) ;
#213 = CARTESIAN_POINT ( 'NONE',  ( 0.0000000000000000000, 0.0000000000000000000, 1.707404996040164512E-17 ) ) ;
#214 = ORIENTED_EDGE ( 'NONE', *, *, #81, .F. ) ;
#215 = CYLINDRICAL_SURFACE ( 'NONE', #205, 0.05900500000000003659 ) ;
#216 = EDGE_LOOP ( 'NONE', ( #229, #255, #228, #35 ) ) ;
#217 = DIRECTION ( 'NONE',  ( 0.0000000000000000000, 0.0000000000000000000, -1.000000000000000000 ) ) ;
#218 =( CONVERSION_BASED_UNIT ( 'INCH', #127 ) LENGTH_UNIT ( ) NAMED_UNIT ( #104 ) );
#219 = ADVANCED_BREP_SHAPE_REPRESENTATION ( 'Micro_DMM-030-2120', ( #94, #286 ), #111 ) ;
#220 = ORIENTED_EDGE ( 'NONE', *, *, #71, .T. ) ;
#221 = CARTESIAN_POINT ( 'NONE',  ( 0.0000000000000000000, 0.0000000000000000000, 0.02973642561461150094 ) ) ;
#222 = ORIENTED_EDGE ( 'NONE', *, *, #122, .T. ) ;
#223 = DIRECTION ( 'NONE',  ( 1.000000000000000000, 0.0000000000000000000, -0.0000000000000000000 ) ) ;
#224 = CIRCLE ( 'NONE', #156, 0.05905499999999998251 ) ;
#225 = CARTESIAN_POINT ( 'NONE',  ( 0.0000000000000000000, 0.0000000000000000000, 1.707404996040164512E-17 ) ) ;
#226 = DIRECTION ( 'NONE',  ( -1.000000000000000000, 0.0000000000000000000, 0.0000000000000000000 ) ) ;
#227 = FILL_AREA_STYLE_COLOUR ( '', #49 ) ;
#228 = ORIENTED_EDGE ( 'NONE', *, *, #81, .T. ) ;
#229 = ORIENTED_EDGE ( 'NONE', *, *, #178, .F. ) ;
#230 = ORIENTED_EDGE ( 'NONE', *, *, #202, .T. ) ;
#231 = FILL_AREA_STYLE ('',( #251 ) ) ;
#232 = CONICAL_SURFACE ( 'NONE', #299, 0.007499999999999999722, 1.047197551196600740 ) ;
#233 = EDGE_CURVE ( 'NONE', #174, #308, #224, .T. ) ;
#234 = VERTEX_POINT ( 'NONE', #263 ) ;
#235 = LINE ( 'NONE', #86, #20 ) ;
#236 = EDGE_LOOP ( 'NONE', ( #136, #230 ) ) ;
#237 = DIRECTION ( 'NONE',  ( 0.0000000000000000000, 0.0000000000000000000, -1.000000000000000000 ) ) ;
#238 = FACE_OUTER_BOUND ( 'NONE', #52, .T. ) ;
#239 = CIRCLE ( 'NONE', #78, 0.05905499999999998251 ) ;
#240 = EDGE_LOOP ( 'NONE', ( #157, #317 ) ) ;
#241 = DIRECTION ( 'NONE',  ( -0.8660254037844402619, 1.060575238724908640E-16, 0.4999999999999973910 ) ) ;
#242 = DIRECTION ( 'NONE',  ( -1.000000000000000000, 0.0000000000000000000, 0.0000000000000000000 ) ) ;
#243 =( NAMED_UNIT ( * ) PLANE_ANGLE_UNIT ( ) SI_UNIT ( $, .RADIAN. ) );
#244 = LINE ( 'NONE', #145, #148 ) ;
#245 = DIRECTION ( 'NONE',  ( 0.0000000000000000000, 0.0000000000000000000, 1.000000000000000000 ) ) ;
#246 = LINE ( 'NONE', #324, #275 ) ;
#247 = CARTESIAN_POINT ( 'NONE',  ( 0.0000000000000000000, 0.0000000000000000000, 1.496062999999999921 ) ) ;
#248 = FACE_OUTER_BOUND ( 'NONE', #14, .T. ) ;
#249 = DIMENSIONAL_EXPONENTS ( 1.000000000000000000, 0.0000000000000000000, 0.0000000000000000000, 0.0000000000000000000, 0.0000000000000000000, 0.0000000000000000000, 0.0000000000000000000 ) ;
#250 = DIRECTION ( 'NONE',  ( -1.000000000000000000, 0.0000000000000000000, 0.0000000000000000000 ) ) ;
#251 = FILL_AREA_STYLE_COLOUR ( '', #34 ) ;
#252 = SURFACE_STYLE_USAGE ( .BOTH. , #73 ) ;
#253 = EDGE_CURVE ( 'NONE', #234, #308, #45, .T. ) ;
#254 = ORIENTED_EDGE ( 'NONE', *, *, #199, .F. ) ;
#255 = ORIENTED_EDGE ( 'NONE', *, *, #77, .T. ) ;
#256 = VERTEX_POINT ( 'NONE', #92 ) ;
#257 = DIRECTION ( 'NONE',  ( 0.0000000000000000000, 0.0000000000000000000, -1.000000000000000000 ) ) ;
#258 =( GEOMETRIC_REPRESENTATION_CONTEXT ( 3 ) GLOBAL_UNCERTAINTY_ASSIGNED_CONTEXT ( ( #1 ) ) GLOBAL_UNIT_ASSIGNED_CONTEXT ( ( #109, #206, #108 ) ) REPRESENTATION_CONTEXT ( 'NONE', 'WORKASPACE' ) );
#259 = ORIENTED_EDGE ( 'NONE', *, *, #112, .F. ) ;
#260 = DIRECTION ( 'NONE',  ( -0.0000000000000000000, -0.0000000000000000000, -1.000000000000000000 ) ) ;
#261 = APPLICATION_PROTOCOL_DEFINITION ( 'draft international standard', 'automotive_design', 1998, #207 ) ;
#262 = ORIENTED_EDGE ( 'NONE', *, *, #67, .T. ) ;
#263 = CARTESIAN_POINT ( 'NONE',  ( -0.05905499999999998251, 0.0000000000000000000, 1.481063000000000240 ) ) ;
#264 = AXIS2_PLACEMENT_3D ( 'NONE', #277, #116, #140 ) ;
#265 = FACE_OUTER_BOUND ( 'NONE', #216, .T. ) ;
#266 = CARTESIAN_POINT ( 'NONE',  ( 0.0000000000000000000, 0.0000000000000000000, 0.0000000000000000000 ) ) ;
#267 = DIRECTION ( 'NONE',  ( -0.0000000000000000000, -0.0000000000000000000, -1.000000000000000000 ) ) ;
#268 = CARTESIAN_POINT ( 'NONE',  ( 0.0000000000000000000, 0.0000000000000000000, 1.481063000000000240 ) ) ;
#269 = ORIENTED_EDGE ( 'NONE', *, *, #71, .F. ) ;
#270 = AXIS2_PLACEMENT_3D ( 'NONE', #210, #257, #6 ) ;
#271 = DIRECTION ( 'NONE',  ( 0.0000000000000000000, 0.0000000000000000000, -1.000000000000000000 ) ) ;
#272 = CYLINDRICAL_SURFACE ( 'NONE', #315, 0.05905499999999998251 ) ;
#273 = EDGE_CURVE ( 'NONE', #298, #256, #188, .T. ) ;
#274 = DIRECTION ( 'NONE',  ( -1.000000000000000000, 0.0000000000000000000, 0.0000000000000000000 ) ) ;
#275 = VECTOR ( 'NONE', #301, 39.37007874015748854 ) ;
#276 = PRESENTATION_LAYER_ASSIGNMENT (  '', '', ( #279 ) ) ;
#277 = CARTESIAN_POINT ( 'NONE',  ( 0.0000000000000000000, 0.0000000000000000000, 1.496062999999999921 ) ) ;
#278 = EDGE_CURVE ( 'NONE', #61, #256, #323, .T. ) ;
#279 = STYLED_ITEM ( 'NONE', ( #105 ), #219 ) ;
#280 = ORIENTED_EDGE ( 'NONE', *, *, #23, .F. ) ;
#281 = FACE_OUTER_BOUND ( 'NONE', #98, .T. ) ;
#282 = ORIENTED_EDGE ( 'NONE', *, *, #88, .F. ) ;
#283 = DIRECTION ( 'NONE',  ( -0.0000000000000000000, -0.0000000000000000000, -1.000000000000000000 ) ) ;
#284 = PRODUCT_DEFINITION ( 'UNKNOWN', '', #42, #24 ) ;
#285 = ADVANCED_FACE ( 'NONE', ( #238 ), #91, .T. ) ;
#286 = AXIS2_PLACEMENT_3D ( 'NONE', #120, #211, #287 ) ;
#287 = DIRECTION ( 'NONE',  ( 1.000000000000000000, 0.0000000000000000000, 0.0000000000000000000 ) ) ;
#288 = DIRECTION ( 'NONE',  ( 0.8660254037844402619, 0.0000000000000000000, 0.4999999999999973910 ) ) ;
#289 = EDGE_LOOP ( 'NONE', ( #38, #306 ) ) ;
#290 = CARTESIAN_POINT ( 'NONE',  ( 0.05900500000000002271, 0.0000000000000000000, 0.02973642561461150094 ) ) ;
#291 = AXIS2_PLACEMENT_3D ( 'NONE', #146, #245, #223 ) ;
#292 =( GEOMETRIC_REPRESENTATION_CONTEXT ( 3 ) GLOBAL_UNCERTAINTY_ASSIGNED_CONTEXT ( ( #158 ) ) GLOBAL_UNIT_ASSIGNED_CONTEXT ( ( #293, #243, #183 ) ) REPRESENTATION_CONTEXT ( 'NONE', 'WORKASPACE' ) );
#293 =( CONVERSION_BASED_UNIT ( 'INCH', #39 ) LENGTH_UNIT ( ) NAMED_UNIT ( #249 ) );
#294 = CARTESIAN_POINT ( 'NONE',  ( 0.05905499999999998251, 7.232151672364692341E-18, 1.481063000000000240 ) ) ;
#295 = DIRECTION ( 'NONE',  ( -1.000000000000000000, 0.0000000000000000000, 0.0000000000000000000 ) ) ;
#296 =( NAMED_UNIT ( * ) PLANE_ANGLE_UNIT ( ) SI_UNIT ( $, .RADIAN. ) );
#297 = ADVANCED_FACE ( 'NONE', ( #265 ), #215, .T. ) ;
#298 = VERTEX_POINT ( 'NONE', #290 ) ;
#299 = AXIS2_PLACEMENT_3D ( 'NONE', #225, #150, #149 ) ;
#300 = DIRECTION ( 'NONE',  ( -0.0000000000000000000, -0.0000000000000000000, -1.000000000000000000 ) ) ;
#301 = DIRECTION ( 'NONE',  ( -0.7071067811865536790, 0.0000000000000000000, -0.7071067811865412445 ) ) ;
#302 = ORIENTED_EDGE ( 'NONE', *, *, #9, .F. ) ;
#303 = CARTESIAN_POINT ( 'NONE',  ( 0.04405500000000001082, 5.395181473643666598E-18, 1.496062999999999921 ) ) ;
#304 = FILL_AREA_STYLE ('',( #227 ) ) ;
#305 = AXIS2_PLACEMENT_3D ( 'NONE', #266, #320, #126 ) ;
#306 = ORIENTED_EDGE ( 'NONE', *, *, #77, .F. ) ;
#307 = EDGE_CURVE ( 'NONE', #175, #54, #68, .T. ) ;
#308 = VERTEX_POINT ( 'NONE', #189 ) ;
#309 = ORIENTED_EDGE ( 'NONE', *, *, #253, .F. ) ;
#310 = CARTESIAN_POINT ( 'NONE',  ( -0.05900500000000007128, 0.0000000000000000000, 0.3149610000000000465 ) ) ;
#311 = PLANE ( 'NONE',  #200 ) ;
#312 = ORIENTED_EDGE ( 'NONE', *, *, #199, .T. ) ;
#313 = DIRECTION ( 'NONE',  ( -1.000000000000000000, 0.0000000000000000000, 0.0000000000000000000 ) ) ;
#314 = EDGE_CURVE ( 'NONE', #234, #329, #239, .T. ) ;
#315 = AXIS2_PLACEMENT_3D ( 'NONE', #247, #267, #18 ) ;
#316 = MECHANICAL_DESIGN_GEOMETRIC_PRESENTATION_REPRESENTATION (  '', ( #279 ), #292 ) ;
#317 = ORIENTED_EDGE ( 'NONE', *, *, #233, .T. ) ;
#318 = DIRECTION ( 'NONE',  ( -0.0000000000000000000, -0.0000000000000000000, -1.000000000000000000 ) ) ;
#319 = CARTESIAN_POINT ( 'NONE',  ( 0.0000000000000000000, 0.0000000000000000000, 0.0000000000000000000 ) ) ;
#320 = DIRECTION ( 'NONE',  ( -0.0000000000000000000, -0.0000000000000000000, -1.000000000000000000 ) ) ;
#321 = AXIS2_PLACEMENT_3D ( 'NONE', #21, #134, #226 ) ;
#322 = DIMENSIONAL_EXPONENTS ( 1.000000000000000000, 0.0000000000000000000, 0.0000000000000000000, 0.0000000000000000000, 0.0000000000000000000, 0.0000000000000000000, 0.0000000000000000000 ) ;
#323 = LINE ( 'NONE', #96, #121 ) ;
#324 = CARTESIAN_POINT ( 'NONE',  ( -0.04405500000000001082, 0.0000000000000000000, 1.496062999999999921 ) ) ;
#325 = CIRCLE ( 'NONE', #128, 0.05905499999999998251 ) ;
#326 = CARTESIAN_POINT ( 'NONE',  ( 0.0000000000000000000, 0.0000000000000000000, 1.481063000000000240 ) ) ;
#327 = VECTOR ( 'NONE', #55, 39.37007874015748854 ) ;
#328 = AXIS2_PLACEMENT_3D ( 'NONE', #221, #33, #144 ) ;
#329 = VERTEX_POINT ( 'NONE', #294 ) ;
ENDSEC;
END-ISO-10303-21;
