ISO-10303-21;
HEADER;
FILE_DESCRIPTION (( 'STEP AP214' ),
    '1' );
FILE_NAME ('83852.STEP',
    '2023-07-05T16:19:47',
    ( '' ),
    ( '' ),
    'SwSTEP 2.0',
    'SolidWorks 2023',
    '' );
FILE_SCHEMA (( 'AUTOMOTIVE_DESIGN' ));
ENDSEC;

DATA;
#1 = SURFACE_STYLE_FILL_AREA ( #98 ) ;
#2 = ORIENTED_EDGE ( 'NONE', *, *, #91, .T. ) ;
#3 = CARTESIAN_POINT ( 'NONE',  ( 1.574041360807988724E-18, 0.1874999999999993061, 0.000000000000000000 ) ) ;
#4 = EDGE_CURVE ( 'NONE', #259, #182, #187, .T. ) ;
#5 = PRESENTATION_LAYER_ASSIGNMENT (  '', '', ( #34 ) ) ;
#6 = CARTESIAN_POINT ( 'NONE',  ( 2.817218243466271259E-16, 0.1874999999999993061, 0.000000000000000000 ) ) ;
#7 = CARTESIAN_POINT ( 'NONE',  ( 0.1874999999999998057, 2.500000000000000000, 2.296212748401285877E-17 ) ) ;
#8 = CARTESIAN_POINT ( 'NONE',  ( 0.000000000000000000, 0.000000000000000000, 0.000000000000000000 ) ) ;
#9 = PRESENTATION_STYLE_ASSIGNMENT (( #52 ) ) ;
#10 = VERTEX_POINT ( 'NONE', #184 ) ;
#11 = LINE ( 'NONE', #7, #116 ) ;
#12 = FILL_AREA_STYLE ('',( #118 ) ) ;
#13 = APPLICATION_CONTEXT ( 'automotive_design' ) ;
#14 = MECHANICAL_DESIGN_GEOMETRIC_PRESENTATION_REPRESENTATION (  '', ( #189 ), #18 ) ;
#15 = PRODUCT_RELATED_PRODUCT_CATEGORY ( 'part', '', ( #193 ) ) ;
#16 = CARTESIAN_POINT ( 'NONE',  ( -6.123233995736764803E-17, 2.500000000000000000, 0.000000000000000000 ) ) ;
#17 = LENGTH_MEASURE_WITH_UNIT ( LENGTH_MEASURE( 0.02539999999999999897 ), #153 );
#18 =( GEOMETRIC_REPRESENTATION_CONTEXT ( 3 ) GLOBAL_UNCERTAINTY_ASSIGNED_CONTEXT ( ( #224 ) ) GLOBAL_UNIT_ASSIGNED_CONTEXT ( ( #262, #217, #219 ) ) REPRESENTATION_CONTEXT ( 'NONE', 'WORKASPACE' ) );
#19 = FILL_AREA_STYLE_COLOUR ( '', #48 ) ;
#20 =( LENGTH_UNIT ( ) NAMED_UNIT ( * ) SI_UNIT ( $, .METRE. ) );
#21 = DIRECTION ( 'NONE',  ( -1.483045034828085136E-16, 1.000000000000000000, -0.000000000000000000 ) ) ;
#22 = CARTESIAN_POINT ( 'NONE',  ( 0.000000000000000000, 0.000000000000000000, 0.000000000000000000 ) ) ;
#23 = DIRECTION ( 'NONE',  ( -1.483045034828085136E-16, 1.000000000000000000, -0.000000000000000000 ) ) ;
#24 = PLANE ( 'NONE',  #190 ) ;
#25 = VERTEX_POINT ( 'NONE', #88 ) ;
#26 = LENGTH_MEASURE_WITH_UNIT ( LENGTH_MEASURE( 0.02539999999999999897 ), #204 );
#27 =( GEOMETRIC_REPRESENTATION_CONTEXT ( 3 ) GLOBAL_UNCERTAINTY_ASSIGNED_CONTEXT ( ( #79 ) ) GLOBAL_UNIT_ASSIGNED_CONTEXT ( ( #243, #85, #249 ) ) REPRESENTATION_CONTEXT ( 'NONE', 'WORKASPACE' ) );
#28 = DIRECTION ( 'NONE',  ( 1.000000000000000000, 0.000000000000000000, 0.000000000000000000 ) ) ;
#29 = CARTESIAN_POINT ( 'NONE',  ( 0.000000000000000000, 0.000000000000000000, 0.000000000000000000 ) ) ;
#30 = EDGE_LOOP ( 'NONE', ( #235, #191 ) ) ;
#31 = AXIS2_PLACEMENT_3D ( 'NONE', #6, #68, #147 ) ;
#32 = EDGE_CURVE ( 'NONE', #182, #259, #81, .T. ) ;
#33 = AXIS2_PLACEMENT_3D ( 'NONE', #233, #62, #250 ) ;
#34 = STYLED_ITEM ( 'NONE', ( #9 ), #194 ) ;
#35 = PRESENTATION_LAYER_ASSIGNMENT (  '', '', ( #63 ) ) ;
#36 =( NAMED_UNIT ( * ) PLANE_ANGLE_UNIT ( ) SI_UNIT ( $, .RADIAN. ) );
#37 = LENGTH_MEASURE_WITH_UNIT ( LENGTH_MEASURE( 0.02539999999999999897 ), #20 );
#38 = SURFACE_STYLE_USAGE ( .BOTH. , #218 ) ;
#39 =( CONVERSION_BASED_UNIT ( 'INCH', #17 ) LENGTH_UNIT ( ) NAMED_UNIT ( #99 ) );
#40 = DIMENSIONAL_EXPONENTS ( 1.000000000000000000, 0.000000000000000000, 0.000000000000000000, 0.000000000000000000, 0.000000000000000000, 0.000000000000000000, 0.000000000000000000 ) ;
#41 = CLOSED_SHELL ( 'NONE', ( #119, #194, #152 ) ) ;
#42 = ORIENTED_EDGE ( 'NONE', *, *, #80, .F. ) ;
#43 = SHAPE_DEFINITION_REPRESENTATION ( #57, #237 ) ;
#44 = DIRECTION ( 'NONE',  ( -8.394887257642638882E-18, -1.000000000000000000, -0.000000000000000000 ) ) ;
#45 =( LENGTH_UNIT ( ) NAMED_UNIT ( * ) SI_UNIT ( $, .METRE. ) );
#46 = ORIENTED_EDGE ( 'NONE', *, *, #32, .F. ) ;
#47 = EDGE_LOOP ( 'NONE', ( #42, #110, #83 ) ) ;
#48 = COLOUR_RGB ( '',0.7921568627450980005, 0.8196078431372548767, 0.9333333333333333481 ) ;
#49 = DIRECTION ( 'NONE',  ( 8.394887257642638882E-18, 1.000000000000000000, 0.000000000000000000 ) ) ;
#50 =( GEOMETRIC_REPRESENTATION_CONTEXT ( 3 ) GLOBAL_UNCERTAINTY_ASSIGNED_CONTEXT ( ( #144 ) ) GLOBAL_UNIT_ASSIGNED_CONTEXT ( ( #178, #247, #244 ) ) REPRESENTATION_CONTEXT ( 'NONE', 'WORKASPACE' ) );
#51 = CYLINDRICAL_SURFACE ( 'NONE', #95, 0.1874999999999998890 ) ;
#52 = SURFACE_STYLE_USAGE ( .BOTH. , #72 ) ;
#53 = VECTOR ( 'NONE', #156, 39.37007874015748143 ) ;
#54 =( LENGTH_UNIT ( ) NAMED_UNIT ( * ) SI_UNIT ( $, .METRE. ) );
#55 = DIRECTION ( 'NONE',  ( 8.394887257642638882E-18, 1.000000000000000000, 0.000000000000000000 ) ) ;
#56 = AXIS2_PLACEMENT_3D ( 'NONE', #208, #109, #129 ) ;
#57 = PRODUCT_DEFINITION_SHAPE ( 'NONE', 'NONE',  #66 ) ;
#58 = DIMENSIONAL_EXPONENTS ( 1.000000000000000000, 0.000000000000000000, 0.000000000000000000, 0.000000000000000000, 0.000000000000000000, 0.000000000000000000, 0.000000000000000000 ) ;
#59 = DIRECTION ( 'NONE',  ( 1.000000000000000000, 0.000000000000000000, 0.000000000000000000 ) ) ;
#60 = DIRECTION ( 'NONE',  ( -1.483045034828085136E-16, 1.000000000000000000, -0.000000000000000000 ) ) ;
#61 =( CONVERSION_BASED_UNIT ( 'INCH', #197 ) LENGTH_UNIT ( ) NAMED_UNIT ( #260 ) );
#62 = DIRECTION ( 'NONE',  ( -1.483045034828085136E-16, 1.000000000000000000, 0.000000000000000000 ) ) ;
#63 = STYLED_ITEM ( 'NONE', ( #205 ), #240 ) ;
#64 = DIRECTION ( 'NONE',  ( -1.000000000000000000, 0.000000000000000000, 0.000000000000000000 ) ) ;
#65 = EDGE_LOOP ( 'NONE', ( #265, #105, #142 ) ) ;
#66 = PRODUCT_DEFINITION ( 'UNKNOWN', '', #216, #136 ) ;
#67 = FILL_AREA_STYLE ('',( #161 ) ) ;
#68 = DIRECTION ( 'NONE',  ( -1.483045034828085136E-16, 1.000000000000000000, -0.000000000000000000 ) ) ;
#69 = CLOSED_SHELL ( 'NONE', ( #73, #107, #229, #170 ) ) ;
#70 = AXIS2_PLACEMENT_3D ( 'NONE', #241, #176, #59 ) ;
#71 = ORIENTED_EDGE ( 'NONE', *, *, #126, .T. ) ;
#72 = SURFACE_SIDE_STYLE ('',( #251 ) ) ;
#73 = ADVANCED_FACE ( 'NONE', ( #122 ), #51, .T. ) ;
#74 = COLOUR_RGB ( '',1.000000000000000000, 0.000000000000000000, 0.000000000000000000 ) ;
#75 = AXIS2_PLACEMENT_3D ( 'NONE', #203, #23, #206 ) ;
#76 =( GEOMETRIC_REPRESENTATION_CONTEXT ( 3 ) GLOBAL_UNCERTAINTY_ASSIGNED_CONTEXT ( ( #232 ) ) GLOBAL_UNIT_ASSIGNED_CONTEXT ( ( #39, #141, #264 ) ) REPRESENTATION_CONTEXT ( 'NONE', 'WORKASPACE' ) );
#77 = LENGTH_MEASURE_WITH_UNIT ( LENGTH_MEASURE( 0.02539999999999999897 ), #174 );
#78 = ORIENTED_EDGE ( 'NONE', *, *, #158, .T. ) ;
#79 = UNCERTAINTY_MEASURE_WITH_UNIT (LENGTH_MEASURE( 1.000000000000000082E-05 ), #243, 'distance_accuracy_value', 'NONE');
#80 = EDGE_CURVE ( 'NONE', #239, #182, #163, .T. ) ;
#81 = CIRCLE ( 'NONE', #90, 0.1874999999999999722 ) ;
#82 = SURFACE_SIDE_STYLE ('',( #225 ) ) ;
#83 = ORIENTED_EDGE ( 'NONE', *, *, #4, .T. ) ;
#84 = ORIENTED_EDGE ( 'NONE', *, *, #113, .F. ) ;
#85 =( NAMED_UNIT ( * ) PLANE_ANGLE_UNIT ( ) SI_UNIT ( $, .RADIAN. ) );
#86 = PLANE ( 'NONE',  #33 ) ;
#87 = DIRECTION ( 'NONE',  ( -0.7071067811865487940, 0.7071067811865462405, 0.000000000000000000 ) ) ;
#88 = CARTESIAN_POINT ( 'NONE',  ( -0.1874999999999994449, 0.1874999999999992506, 0.000000000000000000 ) ) ;
#89 =( NAMED_UNIT ( * ) PLANE_ANGLE_UNIT ( ) SI_UNIT ( $, .RADIAN. ) );
#90 = AXIS2_PLACEMENT_3D ( 'NONE', #211, #44, #226 ) ;
#91 = EDGE_CURVE ( 'NONE', #252, #25, #146, .T. ) ;
#92 = SURFACE_STYLE_FILL_AREA ( #12 ) ;
#93 = VECTOR ( 'NONE', #87, 39.37007874015748143 ) ;
#94 = FACE_OUTER_BOUND ( 'NONE', #65, .T. ) ;
#95 = AXIS2_PLACEMENT_3D ( 'NONE', #245, #21, #168 ) ;
#96 = MECHANICAL_DESIGN_GEOMETRIC_PRESENTATION_REPRESENTATION (  '', ( #34 ), #188 ) ;
#97 = CARTESIAN_POINT ( 'NONE',  ( -0.1874999999999999445, 2.500000000000000000, 0.000000000000000000 ) ) ;
#98 = FILL_AREA_STYLE ('',( #19 ) ) ;
#99 = DIMENSIONAL_EXPONENTS ( 1.000000000000000000, 0.000000000000000000, 0.000000000000000000, 0.000000000000000000, 0.000000000000000000, 0.000000000000000000, 0.000000000000000000 ) ;
#100 = VERTEX_POINT ( 'NONE', #255 ) ;
#101 = LENGTH_MEASURE_WITH_UNIT ( LENGTH_MEASURE( 0.02539999999999999897 ), #54 );
#102 = DIMENSIONAL_EXPONENTS ( 1.000000000000000000, 0.000000000000000000, 0.000000000000000000, 0.000000000000000000, 0.000000000000000000, 0.000000000000000000, 0.000000000000000000 ) ;
#103 = ORIENTED_EDGE ( 'NONE', *, *, #113, .T. ) ;
#104 = PRESENTATION_LAYER_ASSIGNMENT (  '', '', ( #189 ) ) ;
#105 = ORIENTED_EDGE ( 'NONE', *, *, #80, .T. ) ;
#106 = FACE_OUTER_BOUND ( 'NONE', #165, .T. ) ;
#107 = ADVANCED_FACE ( 'NONE', ( #157 ), #86, .F. ) ;
#108 = ORIENTED_EDGE ( 'NONE', *, *, #258, .F. ) ;
#109 = DIRECTION ( 'NONE',  ( -1.483045034828085136E-16, 1.000000000000000000, -0.000000000000000000 ) ) ;
#110 = ORIENTED_EDGE ( 'NONE', *, *, #137, .T. ) ;
#111 =( CONVERSION_BASED_UNIT ( 'INCH', #26 ) LENGTH_UNIT ( ) NAMED_UNIT ( #102 ) );
#112 = AXIS2_PLACEMENT_3D ( 'NONE', #128, #248, #28 ) ;
#113 = EDGE_CURVE ( 'NONE', #10, #100, #171, .T. ) ;
#114 = DIMENSIONAL_EXPONENTS ( 1.000000000000000000, 0.000000000000000000, 0.000000000000000000, 0.000000000000000000, 0.000000000000000000, 0.000000000000000000, 0.000000000000000000 ) ;
#115 = MECHANICAL_DESIGN_GEOMETRIC_PRESENTATION_REPRESENTATION (  '', ( #134 ), #167 ) ;
#116 = VECTOR ( 'NONE', #127, 39.37007874015748143 ) ;
#117 = SURFACE_SIDE_STYLE ('',( #92 ) ) ;
#118 = FILL_AREA_STYLE_COLOUR ( '', #74 ) ;
#119 = ADVANCED_FACE ( 'NONE', ( #140 ), #159, .T. ) ;
#120 = PRODUCT_CONTEXT ( 'NONE', #263, 'mechanical' ) ;
#121 = ORIENTED_EDGE ( 'NONE', *, *, #258, .T. ) ;
#122 = FACE_OUTER_BOUND ( 'NONE', #186, .T. ) ;
#123 = CARTESIAN_POINT ( 'NONE',  ( 3.305073723481354012E-16, 39.37007874015748143, 0.000000000000000000 ) ) ;
#124 = UNCERTAINTY_MEASURE_WITH_UNIT (LENGTH_MEASURE( 1.000000000000000082E-05 ), #61, 'distance_accuracy_value', 'NONE');
#125 = ORIENTED_EDGE ( 'NONE', *, *, #126, .F. ) ;
#126 = EDGE_CURVE ( 'NONE', #100, #10, #133, .T. ) ;
#127 = DIRECTION ( 'NONE',  ( -1.483045034828085136E-16, 1.000000000000000000, -0.000000000000000000 ) ) ;
#128 = CARTESIAN_POINT ( 'NONE',  ( 1.574041360807988916E-18, 0.1874999999999993061, 0.000000000000000000 ) ) ;
#129 = DIRECTION ( 'NONE',  ( -1.000000000000000000, 0.000000000000000000, 0.000000000000000000 ) ) ;
#130 = ORIENTED_EDGE ( 'NONE', *, *, #4, .F. ) ;
#131 = DIRECTION ( 'NONE',  ( 8.394887257642638882E-18, 1.000000000000000000, 0.000000000000000000 ) ) ;
#132 =( NAMED_UNIT ( * ) SI_UNIT ( $, .STERADIAN. ) SOLID_ANGLE_UNIT ( ) );
#133 = CIRCLE ( 'NONE', #254, 0.1875000000000000555 ) ;
#134 = STYLED_ITEM ( 'NONE', ( #177 ), #151 ) ;
#135 = AXIS2_PLACEMENT_3D ( 'NONE', #143, #166, #210 ) ;
#136 = PRODUCT_DEFINITION_CONTEXT ( 'detailed design', #13, 'design' ) ;
#137 = EDGE_CURVE ( 'NONE', #239, #259, #261, .T. ) ;
#138 = DIRECTION ( 'NONE',  ( -1.483045034828085136E-16, 1.000000000000000000, -0.000000000000000000 ) ) ;
#139 = LINE ( 'NONE', #97, #231 ) ;
#140 = FACE_OUTER_BOUND ( 'NONE', #47, .T. ) ;
#141 =( NAMED_UNIT ( * ) PLANE_ANGLE_UNIT ( ) SI_UNIT ( $, .RADIAN. ) );
#142 = ORIENTED_EDGE ( 'NONE', *, *, #32, .T. ) ;
#143 = CARTESIAN_POINT ( 'NONE',  ( 2.817218243466271259E-16, 0.1874999999999993061, 0.000000000000000000 ) ) ;
#144 = UNCERTAINTY_MEASURE_WITH_UNIT (LENGTH_MEASURE( 1.000000000000000082E-05 ), #178, 'distance_accuracy_value', 'NONE');
#145 = SURFACE_STYLE_FILL_AREA ( #67 ) ;
#146 = CIRCLE ( 'NONE', #31, 0.1874999999999996947 ) ;
#147 = DIRECTION ( 'NONE',  ( -1.000000000000000000, -1.821231995776178437E-16, 0.000000000000000000 ) ) ;
#148 = ORIENTED_EDGE ( 'NONE', *, *, #158, .F. ) ;
#149 = AXIS2_PLACEMENT_3D ( 'NONE', #236, #234, #212 ) ;
#150 = PRESENTATION_STYLE_ASSIGNMENT (( #228 ) ) ;
#151 = MANIFOLD_SOLID_BREP ( 'Revolve - Cutting Edge', #41 ) ;
#152 = ADVANCED_FACE ( 'NONE', ( #94 ), #175, .T. ) ;
#153 =( LENGTH_UNIT ( ) NAMED_UNIT ( * ) SI_UNIT ( $, .METRE. ) );
#154 = CIRCLE ( 'NONE', #135, 0.1874999999999996947 ) ;
#155 = FILL_AREA_STYLE_COLOUR ( '', #173 ) ;
#156 = DIRECTION ( 'NONE',  ( 0.7071067811865487940, 0.7071067811865462405, 8.659560562354948882E-17 ) ) ;
#157 = FACE_OUTER_BOUND ( 'NONE', #30, .T. ) ;
#158 = EDGE_CURVE ( 'NONE', #252, #100, #11, .T. ) ;
#159 = CONICAL_SURFACE ( 'NONE', #257, 39.37007874015762354, 0.7853981633974501664 ) ;
#160 = SURFACE_STYLE_USAGE ( .BOTH. , #82 ) ;
#161 = FILL_AREA_STYLE_COLOUR ( '', #242 ) ;
#162 = DIRECTION ( 'NONE',  ( -1.000000000000000000, 8.394887257642638882E-18, 0.000000000000000000 ) ) ;
#163 = LINE ( 'NONE', #8, #93 ) ;
#164 = CARTESIAN_POINT ( 'NONE',  ( -0.1874999999999999722, 0.1874999999999993061, 0.000000000000000000 ) ) ;
#165 = EDGE_LOOP ( 'NONE', ( #46, #130 ) ) ;
#166 = DIRECTION ( 'NONE',  ( -1.483045034828085136E-16, 1.000000000000000000, -0.000000000000000000 ) ) ;
#167 =( GEOMETRIC_REPRESENTATION_CONTEXT ( 3 ) GLOBAL_UNCERTAINTY_ASSIGNED_CONTEXT ( ( #124 ) ) GLOBAL_UNIT_ASSIGNED_CONTEXT ( ( #61, #36, #246 ) ) REPRESENTATION_CONTEXT ( 'NONE', 'WORKASPACE' ) );
#168 = DIRECTION ( 'NONE',  ( -1.000000000000000000, 0.000000000000000000, 0.000000000000000000 ) ) ;
#169 = FACE_OUTER_BOUND ( 'NONE', #201, .T. ) ;
#170 = ADVANCED_FACE ( 'NONE', ( #169 ), #230, .F. ) ;
#171 = CIRCLE ( 'NONE', #75, 0.1875000000000000555 ) ;
#172 = PRESENTATION_STYLE_ASSIGNMENT (( #195 ) ) ;
#173 = COLOUR_RGB ( '',0.7921568627450980005, 0.8196078431372548767, 0.9333333333333333481 ) ;
#174 =( LENGTH_UNIT ( ) NAMED_UNIT ( * ) SI_UNIT ( $, .METRE. ) );
#175 = CONICAL_SURFACE ( 'NONE', #213, 39.37007874015762354, 0.7853981633974501664 ) ;
#176 = DIRECTION ( 'NONE',  ( 0.000000000000000000, 0.000000000000000000, 1.000000000000000000 ) ) ;
#177 = PRESENTATION_STYLE_ASSIGNMENT (( #38 ) ) ;
#178 =( CONVERSION_BASED_UNIT ( 'INCH', #37 ) LENGTH_UNIT ( ) NAMED_UNIT ( #40 ) );
#179 = EDGE_LOOP ( 'NONE', ( #148, #2, #121, #125 ) ) ;
#180 = SURFACE_SIDE_STYLE ('',( #145 ) ) ;
#181 = UNCERTAINTY_MEASURE_WITH_UNIT (LENGTH_MEASURE( 1.000000000000000082E-05 ), #111, 'distance_accuracy_value', 'NONE');
#182 = VERTEX_POINT ( 'NONE', #164 ) ;
#183 = DIRECTION ( 'NONE',  ( -1.000000000000000000, 0.000000000000000000, 0.000000000000000000 ) ) ;
#184 = CARTESIAN_POINT ( 'NONE',  ( -0.1875000000000001110, 2.500000000000000000, 0.000000000000000000 ) ) ;
#185 = FILL_AREA_STYLE_COLOUR ( '', #215 ) ;
#186 = EDGE_LOOP ( 'NONE', ( #209, #78, #84, #108 ) ) ;
#187 = CIRCLE ( 'NONE', #112, 0.1874999999999999722 ) ;
#188 =( GEOMETRIC_REPRESENTATION_CONTEXT ( 3 ) GLOBAL_UNCERTAINTY_ASSIGNED_CONTEXT ( ( #181 ) ) GLOBAL_UNIT_ASSIGNED_CONTEXT ( ( #111, #89, #132 ) ) REPRESENTATION_CONTEXT ( 'NONE', 'WORKASPACE' ) );
#189 = STYLED_ITEM ( 'NONE', ( #150 ), #119 ) ;
#190 = AXIS2_PLACEMENT_3D ( 'NONE', #3, #49, #162 ) ;
#191 = ORIENTED_EDGE ( 'NONE', *, *, #91, .F. ) ;
#192 = PRESENTATION_LAYER_ASSIGNMENT (  '', '', ( #134 ) ) ;
#193 = PRODUCT ( '83852', '83852', '', ( #120 ) ) ;
#194 = ADVANCED_FACE ( 'NONE', ( #106 ), #24, .T. ) ;
#195 = SURFACE_STYLE_USAGE ( .BOTH. , #117 ) ;
#196 = CARTESIAN_POINT ( 'NONE',  ( 0.1874999999999999722, 0.1874999999999993339, 2.296212748401286801E-17 ) ) ;
#197 = LENGTH_MEASURE_WITH_UNIT ( LENGTH_MEASURE( 0.02539999999999999897 ), #45 );
#198 = CARTESIAN_POINT ( 'NONE',  ( 0.1874999999999999722, 0.1874999999999993061, 2.296212748401287109E-17 ) ) ;
#199 = STYLED_ITEM ( 'NONE', ( #172 ), #152 ) ;
#200 = FILL_AREA_STYLE ('',( #155 ) ) ;
#201 = EDGE_LOOP ( 'NONE', ( #103, #71 ) ) ;
#202 = DIRECTION ( 'NONE',  ( -1.000000000000000000, 0.000000000000000000, 0.000000000000000000 ) ) ;
#203 = CARTESIAN_POINT ( 'NONE',  ( -6.123233995736764803E-17, 2.500000000000000000, 0.000000000000000000 ) ) ;
#204 =( LENGTH_UNIT ( ) NAMED_UNIT ( * ) SI_UNIT ( $, .METRE. ) );
#205 = PRESENTATION_STYLE_ASSIGNMENT (( #160 ) ) ;
#206 = DIRECTION ( 'NONE',  ( -1.000000000000000000, 0.000000000000000000, 0.000000000000000000 ) ) ;
#207 = EDGE_CURVE ( 'NONE', #25, #252, #154, .T. ) ;
#208 = CARTESIAN_POINT ( 'NONE',  ( -6.123233995736766036E-17, 2.500000000000000000, 0.000000000000000000 ) ) ;
#209 = ORIENTED_EDGE ( 'NONE', *, *, #207, .T. ) ;
#210 = DIRECTION ( 'NONE',  ( -1.000000000000000000, -1.821231995776178437E-16, 0.000000000000000000 ) ) ;
#211 = CARTESIAN_POINT ( 'NONE',  ( 1.574041360807988916E-18, 0.1874999999999993061, 0.000000000000000000 ) ) ;
#212 = DIRECTION ( 'NONE',  ( 1.000000000000000000, 1.483045034828085136E-16, 0.000000000000000000 ) ) ;
#213 = AXIS2_PLACEMENT_3D ( 'NONE', #123, #131, #183 ) ;
#214 = MECHANICAL_DESIGN_GEOMETRIC_PRESENTATION_REPRESENTATION (  '', ( #199 ), #27 ) ;
#215 = COLOUR_RGB ( '',1.000000000000000000, 0.000000000000000000, 0.000000000000000000 ) ;
#216 = PRODUCT_DEFINITION_FORMATION_WITH_SPECIFIED_SOURCE ( 'ANY', '', #193, .NOT_KNOWN. ) ;
#217 =( NAMED_UNIT ( * ) PLANE_ANGLE_UNIT ( ) SI_UNIT ( $, .RADIAN. ) );
#218 = SURFACE_SIDE_STYLE ('',( #1 ) ) ;
#219 =( NAMED_UNIT ( * ) SI_UNIT ( $, .STERADIAN. ) SOLID_ANGLE_UNIT ( ) );
#220 = APPLICATION_PROTOCOL_DEFINITION ( 'draft international standard', 'automotive_design', 1998, #263 ) ;
#221 = MECHANICAL_DESIGN_GEOMETRIC_PRESENTATION_REPRESENTATION (  '', ( #63 ), #50 ) ;
#222 = APPLICATION_PROTOCOL_DEFINITION ( 'draft international standard', 'automotive_design', 1998, #13 ) ;
#223 = CARTESIAN_POINT ( 'NONE',  ( 3.305073723481354012E-16, 39.37007874015748143, 0.000000000000000000 ) ) ;
#224 = UNCERTAINTY_MEASURE_WITH_UNIT (LENGTH_MEASURE( 1.000000000000000082E-05 ), #262, 'distance_accuracy_value', 'NONE');
#225 = SURFACE_STYLE_FILL_AREA ( #200 ) ;
#226 = DIRECTION ( 'NONE',  ( 1.000000000000000000, 0.000000000000000000, 0.000000000000000000 ) ) ;
#227 = CYLINDRICAL_SURFACE ( 'NONE', #56, 0.1874999999999998890 ) ;
#228 = SURFACE_STYLE_USAGE ( .BOTH. , #180 ) ;
#229 = ADVANCED_FACE ( 'NONE', ( #253 ), #227, .T. ) ;
#230 = PLANE ( 'NONE',  #149 ) ;
#231 = VECTOR ( 'NONE', #60, 39.37007874015748143 ) ;
#232 = UNCERTAINTY_MEASURE_WITH_UNIT (LENGTH_MEASURE( 1.000000000000000082E-05 ), #39, 'distance_accuracy_value', 'NONE');
#233 = CARTESIAN_POINT ( 'NONE',  ( 2.817218243466271259E-16, 0.1874999999999993061, 0.000000000000000000 ) ) ;
#234 = DIRECTION ( 'NONE',  ( 1.483045034828085136E-16, -1.000000000000000000, 0.000000000000000000 ) ) ;
#235 = ORIENTED_EDGE ( 'NONE', *, *, #207, .F. ) ;
#236 = CARTESIAN_POINT ( 'NONE',  ( 0.1874999999999999722, 2.500000000000000000, 0.000000000000000000 ) ) ;
#237 = ADVANCED_BREP_SHAPE_REPRESENTATION ( '83852', ( #151, #240, #70 ), #76 ) ;
#238 = PRESENTATION_LAYER_ASSIGNMENT (  '', '', ( #199 ) ) ;
#239 = VERTEX_POINT ( 'NONE', #29 ) ;
#240 = MANIFOLD_SOLID_BREP ( 'Revolve - Tool Body (Pointed)', #69 ) ;
#241 = CARTESIAN_POINT ( 'NONE',  ( 0.000000000000000000, 0.000000000000000000, 0.000000000000000000 ) ) ;
#242 = COLOUR_RGB ( '',1.000000000000000000, 0.000000000000000000, 0.000000000000000000 ) ;
#243 =( CONVERSION_BASED_UNIT ( 'INCH', #77 ) LENGTH_UNIT ( ) NAMED_UNIT ( #58 ) );
#244 =( NAMED_UNIT ( * ) SI_UNIT ( $, .STERADIAN. ) SOLID_ANGLE_UNIT ( ) );
#245 = CARTESIAN_POINT ( 'NONE',  ( -6.123233995736766036E-17, 2.500000000000000000, 0.000000000000000000 ) ) ;
#246 =( NAMED_UNIT ( * ) SI_UNIT ( $, .STERADIAN. ) SOLID_ANGLE_UNIT ( ) );
#247 =( NAMED_UNIT ( * ) PLANE_ANGLE_UNIT ( ) SI_UNIT ( $, .RADIAN. ) );
#248 = DIRECTION ( 'NONE',  ( -8.394887257642638882E-18, -1.000000000000000000, -0.000000000000000000 ) ) ;
#249 =( NAMED_UNIT ( * ) SI_UNIT ( $, .STERADIAN. ) SOLID_ANGLE_UNIT ( ) );
#250 = DIRECTION ( 'NONE',  ( -1.000000000000000000, -1.483045034828085136E-16, 0.000000000000000000 ) ) ;
#251 = SURFACE_STYLE_FILL_AREA ( #256 ) ;
#252 = VERTEX_POINT ( 'NONE', #196 ) ;
#253 = FACE_OUTER_BOUND ( 'NONE', #179, .T. ) ;
#254 = AXIS2_PLACEMENT_3D ( 'NONE', #16, #138, #64 ) ;
#255 = CARTESIAN_POINT ( 'NONE',  ( 0.1874999999999999722, 2.500000000000000000, 2.296212748401286801E-17 ) ) ;
#256 = FILL_AREA_STYLE ('',( #185 ) ) ;
#257 = AXIS2_PLACEMENT_3D ( 'NONE', #223, #55, #202 ) ;
#258 = EDGE_CURVE ( 'NONE', #25, #10, #139, .T. ) ;
#259 = VERTEX_POINT ( 'NONE', #198 ) ;
#260 = DIMENSIONAL_EXPONENTS ( 1.000000000000000000, 0.000000000000000000, 0.000000000000000000, 0.000000000000000000, 0.000000000000000000, 0.000000000000000000, 0.000000000000000000 ) ;
#261 = LINE ( 'NONE', #22, #53 ) ;
#262 =( CONVERSION_BASED_UNIT ( 'INCH', #101 ) LENGTH_UNIT ( ) NAMED_UNIT ( #114 ) );
#263 = APPLICATION_CONTEXT ( 'automotive_design' ) ;
#264 =( NAMED_UNIT ( * ) SI_UNIT ( $, .STERADIAN. ) SOLID_ANGLE_UNIT ( ) );
#265 = ORIENTED_EDGE ( 'NONE', *, *, #137, .F. ) ;
ENDSEC;
END-ISO-10303-21;
