ISO-10303-21;
HEADER;
FILE_DESCRIPTION (( 'STEP AP214' ),
    '1' );
FILE_NAME ('06273.STEP',
    '2023-07-05T16:01:32',
    ( '' ),
    ( '' ),
    'SwSTEP 2.0',
    'SolidWorks 2023',
    '' );
FILE_SCHEMA (( 'AUTOMOTIVE_DESIGN' ));
ENDSEC;

DATA;
#1 = VECTOR ( 'NONE', #149, 39.37007874015748143 ) ;
#2 = ADVANCED_FACE ( 'NONE', ( #6 ), #160, .T. ) ;
#3 = ORIENTED_EDGE ( 'NONE', *, *, #97, .F. ) ;
#4 = PRESENTATION_LAYER_ASSIGNMENT (  '', '', ( #115 ) ) ;
#5 = PRODUCT_CONTEXT ( 'NONE', #167, 'mechanical' ) ;
#6 = FACE_OUTER_BOUND ( 'NONE', #220, .T. ) ;
#7 = EDGE_LOOP ( 'NONE', ( #44, #77 ) ) ;
#8 =( LENGTH_UNIT ( ) NAMED_UNIT ( * ) SI_UNIT ( $, .METRE. ) );
#9 = EDGE_LOOP ( 'NONE', ( #106, #118, #199 ) ) ;
#10 = DIRECTION ( 'NONE',  ( 1.000000000000000000, 0.000000000000000000, 0.000000000000000000 ) ) ;
#11 = PRODUCT_RELATED_PRODUCT_CATEGORY ( 'part', '', ( #34 ) ) ;
#12 = DIRECTION ( 'NONE',  ( 0.000000000000000000, 1.000000000000000000, 0.000000000000000000 ) ) ;
#13 = DIRECTION ( 'NONE',  ( -1.478510563588688038E-16, 1.000000000000000000, -0.000000000000000000 ) ) ;
#14 = VECTOR ( 'NONE', #190, 39.37007874015748143 ) ;
#15 = CARTESIAN_POINT ( 'NONE',  ( 2.296212748401286801E-17, 0.3247595264191635578, -0.1874999999999999722 ) ) ;
#16 = FILL_AREA_STYLE ('',( #72 ) ) ;
#17 = EDGE_CURVE ( 'NONE', #83, #42, #258, .T. ) ;
#18 = UNCERTAINTY_MEASURE_WITH_UNIT (LENGTH_MEASURE( 1.000000000000000082E-05 ), #36, 'distance_accuracy_value', 'NONE');
#19 = EDGE_CURVE ( 'NONE', #104, #252, #244, .T. ) ;
#20 = AXIS2_PLACEMENT_3D ( 'NONE', #125, #207, #128 ) ;
#21 = EDGE_LOOP ( 'NONE', ( #98, #3 ) ) ;
#22 = CARTESIAN_POINT ( 'NONE',  ( -0.1874999999999999445, 2.500000000000000000, 0.000000000000000000 ) ) ;
#23 =( LENGTH_UNIT ( ) NAMED_UNIT ( * ) SI_UNIT ( $, .METRE. ) );
#24 = DIMENSIONAL_EXPONENTS ( 1.000000000000000000, 0.000000000000000000, 0.000000000000000000, 0.000000000000000000, 0.000000000000000000, 0.000000000000000000, 0.000000000000000000 ) ;
#25 = CYLINDRICAL_SURFACE ( 'NONE', #95, 0.1874999999999998890 ) ;
#26 = PRESENTATION_LAYER_ASSIGNMENT (  '', '', ( #170 ) ) ;
#27 = EDGE_LOOP ( 'NONE', ( #122, #162, #205, #85 ) ) ;
#28 = PRESENTATION_LAYER_ASSIGNMENT (  '', '', ( #257 ) ) ;
#29 = ADVANCED_FACE ( 'NONE', ( #54 ), #256, .F. ) ;
#30 = CARTESIAN_POINT ( 'NONE',  ( -6.123233995736764803E-17, 2.500000000000000000, 0.000000000000000000 ) ) ;
#31 = SURFACE_SIDE_STYLE ('',( #111 ) ) ;
#32 = DIRECTION ( 'NONE',  ( -1.000000000000000000, 0.000000000000000000, 0.000000000000000000 ) ) ;
#33 = DIRECTION ( 'NONE',  ( 0.000000000000000000, 0.000000000000000000, -1.000000000000000000 ) ) ;
#34 = PRODUCT ( '06273', '06273', '', ( #5 ) ) ;
#35 = PRODUCT_DEFINITION ( 'UNKNOWN', '', #76, #195 ) ;
#36 =( CONVERSION_BASED_UNIT ( 'INCH', #182 ) LENGTH_UNIT ( ) NAMED_UNIT ( #202 ) );
#37 = UNCERTAINTY_MEASURE_WITH_UNIT (LENGTH_MEASURE( 1.000000000000000082E-05 ), #105, 'distance_accuracy_value', 'NONE');
#38 = DIRECTION ( 'NONE',  ( 0.000000000000000000, 0.000000000000000000, -1.000000000000000000 ) ) ;
#39 = CLOSED_SHELL ( 'NONE', ( #61, #2, #245 ) ) ;
#40 = SURFACE_SIDE_STYLE ('',( #218 ) ) ;
#41 =( NAMED_UNIT ( * ) SI_UNIT ( $, .STERADIAN. ) SOLID_ANGLE_UNIT ( ) );
#42 = VERTEX_POINT ( 'NONE', #107 ) ;
#43 = SURFACE_SIDE_STYLE ('',( #71 ) ) ;
#44 = ORIENTED_EDGE ( 'NONE', *, *, #19, .T. ) ;
#45 = DIRECTION ( 'NONE',  ( 1.000000000000000000, 1.478510563588688038E-16, 0.000000000000000000 ) ) ;
#46 = VERTEX_POINT ( 'NONE', #15 ) ;
#47 = CARTESIAN_POINT ( 'NONE',  ( 0.1874999999999999722, 2.500000000000000000, 2.296212748401286801E-17 ) ) ;
#48 = DIRECTION ( 'NONE',  ( 0.000000000000000000, 0.000000000000000000, 1.000000000000000000 ) ) ;
#49 = FILL_AREA_STYLE ('',( #70 ) ) ;
#50 = LENGTH_MEASURE_WITH_UNIT ( LENGTH_MEASURE( 0.02539999999999999897 ), #131 );
#51 = EDGE_CURVE ( 'NONE', #46, #42, #237, .T. ) ;
#52 = AXIS2_PLACEMENT_3D ( 'NONE', #92, #12, #231 ) ;
#53 = MECHANICAL_DESIGN_GEOMETRIC_PRESENTATION_REPRESENTATION (  '', ( #259 ), #194 ) ;
#54 = FACE_OUTER_BOUND ( 'NONE', #21, .T. ) ;
#55 = COLOUR_RGB ( '',1.000000000000000000, 0.000000000000000000, 0.000000000000000000 ) ;
#56 =( GEOMETRIC_REPRESENTATION_CONTEXT ( 3 ) GLOBAL_UNCERTAINTY_ASSIGNED_CONTEXT ( ( #37 ) ) GLOBAL_UNIT_ASSIGNED_CONTEXT ( ( #105, #86, #226 ) ) REPRESENTATION_CONTEXT ( 'NONE', 'WORKASPACE' ) );
#57 = LENGTH_MEASURE_WITH_UNIT ( LENGTH_MEASURE( 0.02539999999999999897 ), #158 );
#58 = EDGE_CURVE ( 'NONE', #249, #139, #129, .T. ) ;
#59 = COLOUR_RGB ( '',0.7921568627450980005, 0.8196078431372548767, 0.9333333333333333481 ) ;
#60 = LINE ( 'NONE', #22, #234 ) ;
#61 = ADVANCED_FACE ( 'NONE', ( #87 ), #227, .T. ) ;
#62 = ORIENTED_EDGE ( 'NONE', *, *, #185, .F. ) ;
#63 = EDGE_LOOP ( 'NONE', ( #80, #228, #142, #123 ) ) ;
#64 = LENGTH_MEASURE_WITH_UNIT ( LENGTH_MEASURE( 0.02539999999999999897 ), #8 );
#65 =( CONVERSION_BASED_UNIT ( 'INCH', #64 ) LENGTH_UNIT ( ) NAMED_UNIT ( #24 ) );
#66 = DIRECTION ( 'NONE',  ( -0.000000000000000000, -1.000000000000000000, -0.000000000000000000 ) ) ;
#67 = SURFACE_STYLE_USAGE ( .BOTH. , #31 ) ;
#68 = ADVANCED_FACE ( 'NONE', ( #88 ), #255, .T. ) ;
#69 = CIRCLE ( 'NONE', #262, 0.1874999999999997502 ) ;
#70 = FILL_AREA_STYLE_COLOUR ( '', #235 ) ;
#71 = SURFACE_STYLE_FILL_AREA ( #222 ) ;
#72 = FILL_AREA_STYLE_COLOUR ( '', #174 ) ;
#73 = AXIS2_PLACEMENT_3D ( 'NONE', #172, #66, #33 ) ;
#74 = UNCERTAINTY_MEASURE_WITH_UNIT (LENGTH_MEASURE( 1.000000000000000082E-05 ), #263, 'distance_accuracy_value', 'NONE');
#75 = CARTESIAN_POINT ( 'NONE',  ( 0.000000000000000000, 0.3247595264191635578, 0.000000000000000000 ) ) ;
#76 = PRODUCT_DEFINITION_FORMATION_WITH_SPECIFIED_SOURCE ( 'ANY', '', #34, .NOT_KNOWN. ) ;
#77 = ORIENTED_EDGE ( 'NONE', *, *, #147, .T. ) ;
#78 = DIRECTION ( 'NONE',  ( -1.000000000000000000, 0.000000000000000000, 0.000000000000000000 ) ) ;
#79 =( GEOMETRIC_REPRESENTATION_CONTEXT ( 3 ) GLOBAL_UNCERTAINTY_ASSIGNED_CONTEXT ( ( #18 ) ) GLOBAL_UNIT_ASSIGNED_CONTEXT ( ( #36, #196, #153 ) ) REPRESENTATION_CONTEXT ( 'NONE', 'WORKASPACE' ) );
#80 = ORIENTED_EDGE ( 'NONE', *, *, #58, .T. ) ;
#81 = APPLICATION_PROTOCOL_DEFINITION ( 'draft international standard', 'automotive_design', 1998, #173 ) ;
#82 = AXIS2_PLACEMENT_3D ( 'NONE', #145, #126, #213 ) ;
#83 = VERTEX_POINT ( 'NONE', #189 ) ;
#84 = ORIENTED_EDGE ( 'NONE', *, *, #51, .T. ) ;
#85 = ORIENTED_EDGE ( 'NONE', *, *, #147, .F. ) ;
#86 =( NAMED_UNIT ( * ) PLANE_ANGLE_UNIT ( ) SI_UNIT ( $, .RADIAN. ) );
#87 = FACE_OUTER_BOUND ( 'NONE', #187, .T. ) ;
#88 = FACE_OUTER_BOUND ( 'NONE', #63, .T. ) ;
#89 = CIRCLE ( 'NONE', #134, 0.1874999999999999722 ) ;
#90 =( CONVERSION_BASED_UNIT ( 'INCH', #50 ) LENGTH_UNIT ( ) NAMED_UNIT ( #225 ) );
#91 = CIRCLE ( 'NONE', #216, 0.1875000000000000555 ) ;
#92 = CARTESIAN_POINT ( 'NONE',  ( 0.000000000000000000, 0.3247595264191635578, 0.000000000000000000 ) ) ;
#93 = AXIS2_PLACEMENT_3D ( 'NONE', #138, #211, #45 ) ;
#94 = SURFACE_STYLE_FILL_AREA ( #16 ) ;
#95 = AXIS2_PLACEMENT_3D ( 'NONE', #197, #151, #78 ) ;
#96 =( GEOMETRIC_REPRESENTATION_CONTEXT ( 3 ) GLOBAL_UNCERTAINTY_ASSIGNED_CONTEXT ( ( #74 ) ) GLOBAL_UNIT_ASSIGNED_CONTEXT ( ( #263, #100, #41 ) ) REPRESENTATION_CONTEXT ( 'NONE', 'WORKASPACE' ) );
#97 = EDGE_CURVE ( 'NONE', #139, #249, #69, .T. ) ;
#98 = ORIENTED_EDGE ( 'NONE', *, *, #58, .F. ) ;
#99 = CONICAL_SURFACE ( 'NONE', #254, 22.73032555864674364, 0.5235987755983000369 ) ;
#100 =( NAMED_UNIT ( * ) PLANE_ANGLE_UNIT ( ) SI_UNIT ( $, .RADIAN. ) );
#101 =( CONVERSION_BASED_UNIT ( 'INCH', #137 ) LENGTH_UNIT ( ) NAMED_UNIT ( #156 ) );
#102 = DIRECTION ( 'NONE',  ( -1.478510563588688038E-16, 1.000000000000000000, -0.000000000000000000 ) ) ;
#103 =( GEOMETRIC_REPRESENTATION_CONTEXT ( 3 ) GLOBAL_UNCERTAINTY_ASSIGNED_CONTEXT ( ( #177 ) ) GLOBAL_UNIT_ASSIGNED_CONTEXT ( ( #65, #186, #127 ) ) REPRESENTATION_CONTEXT ( 'NONE', 'WORKASPACE' ) );
#104 = VERTEX_POINT ( 'NONE', #171 ) ;
#105 =( CONVERSION_BASED_UNIT ( 'INCH', #109 ) LENGTH_UNIT ( ) NAMED_UNIT ( #250 ) );
#106 = ORIENTED_EDGE ( 'NONE', *, *, #108, .F. ) ;
#107 = CARTESIAN_POINT ( 'NONE',  ( 0.000000000000000000, 0.3247595264191635578, 0.1874999999999999722 ) ) ;
#108 = EDGE_CURVE ( 'NONE', #83, #46, #236, .T. ) ;
#109 = LENGTH_MEASURE_WITH_UNIT ( LENGTH_MEASURE( 0.02539999999999999897 ), #209 );
#110 = CARTESIAN_POINT ( 'NONE',  ( 2.603792618961250911E-16, 0.3247595264191634468, 0.000000000000000000 ) ) ;
#111 = SURFACE_STYLE_FILL_AREA ( #166 ) ;
#112 =( NAMED_UNIT ( * ) SI_UNIT ( $, .STERADIAN. ) SOLID_ANGLE_UNIT ( ) );
#113 = SURFACE_STYLE_USAGE ( .BOTH. , #154 ) ;
#114 = PRESENTATION_LAYER_ASSIGNMENT (  '', '', ( #208 ) ) ;
#115 = STYLED_ITEM ( 'NONE', ( #140 ), #245 ) ;
#116 = UNCERTAINTY_MEASURE_WITH_UNIT (LENGTH_MEASURE( 1.000000000000000082E-05 ), #101, 'distance_accuracy_value', 'NONE');
#117 = CLOSED_SHELL ( 'NONE', ( #68, #29, #224, #248 ) ) ;
#118 = ORIENTED_EDGE ( 'NONE', *, *, #17, .T. ) ;
#119 = LINE ( 'NONE', #175, #157 ) ;
#120 = PRESENTATION_STYLE_ASSIGNMENT (( #132 ) ) ;
#121 = SURFACE_STYLE_USAGE ( .BOTH. , #188 ) ;
#122 = ORIENTED_EDGE ( 'NONE', *, *, #217, .F. ) ;
#123 = ORIENTED_EDGE ( 'NONE', *, *, #124, .F. ) ;
#124 = EDGE_CURVE ( 'NONE', #249, #104, #60, .T. ) ;
#125 = CARTESIAN_POINT ( 'NONE',  ( -6.123233995736766036E-17, 2.500000000000000000, 0.000000000000000000 ) ) ;
#126 = DIRECTION ( 'NONE',  ( -1.478510563588688038E-16, 1.000000000000000000, 0.000000000000000000 ) ) ;
#127 =( NAMED_UNIT ( * ) SI_UNIT ( $, .STERADIAN. ) SOLID_ANGLE_UNIT ( ) );
#128 = DIRECTION ( 'NONE',  ( -1.000000000000000000, 0.000000000000000000, 0.000000000000000000 ) ) ;
#129 = CIRCLE ( 'NONE', #178, 0.1874999999999997502 ) ;
#130 = DIRECTION ( 'NONE',  ( -1.478510563588688038E-16, 1.000000000000000000, -0.000000000000000000 ) ) ;
#131 =( LENGTH_UNIT ( ) NAMED_UNIT ( * ) SI_UNIT ( $, .METRE. ) );
#132 = SURFACE_STYLE_USAGE ( .BOTH. , #43 ) ;
#133 = UNCERTAINTY_MEASURE_WITH_UNIT (LENGTH_MEASURE( 1.000000000000000082E-05 ), #90, 'distance_accuracy_value', 'NONE');
#134 = AXIS2_PLACEMENT_3D ( 'NONE', #75, #215, #38 ) ;
#135 = FILL_AREA_STYLE ('',( #164 ) ) ;
#136 = DIRECTION ( 'NONE',  ( -1.478510563588688038E-16, 1.000000000000000000, -0.000000000000000000 ) ) ;
#137 = LENGTH_MEASURE_WITH_UNIT ( LENGTH_MEASURE( 0.02539999999999999897 ), #23 );
#138 = CARTESIAN_POINT ( 'NONE',  ( 0.1874999999999999722, 2.500000000000000000, 0.000000000000000000 ) ) ;
#139 = VERTEX_POINT ( 'NONE', #242 ) ;
#140 = PRESENTATION_STYLE_ASSIGNMENT (( #121 ) ) ;
#141 = MANIFOLD_SOLID_BREP ( 'Revolve - Cutting Edge', #39 ) ;
#142 = ORIENTED_EDGE ( 'NONE', *, *, #19, .F. ) ;
#143 = CARTESIAN_POINT ( 'NONE',  ( 0.000000000000000000, 39.37007874015748143, 0.000000000000000000 ) ) ;
#144 = PRESENTATION_LAYER_ASSIGNMENT (  '', '', ( #259 ) ) ;
#145 = CARTESIAN_POINT ( 'NONE',  ( 2.603792618961250911E-16, 0.3247595264191635578, 0.000000000000000000 ) ) ;
#146 = MECHANICAL_DESIGN_GEOMETRIC_PRESENTATION_REPRESENTATION (  '', ( #208 ), #96 ) ;
#147 = EDGE_CURVE ( 'NONE', #252, #104, #91, .T. ) ;
#148 = DIRECTION ( 'NONE',  ( -1.000000000000000000, 0.000000000000000000, 0.000000000000000000 ) ) ;
#149 = DIRECTION ( 'NONE',  ( 6.123233995736778362E-17, 0.8660254037844380415, -0.5000000000000009992 ) ) ;
#150 =( NAMED_UNIT ( * ) PLANE_ANGLE_UNIT ( ) SI_UNIT ( $, .RADIAN. ) );
#151 = DIRECTION ( 'NONE',  ( -1.478510563588688038E-16, 1.000000000000000000, -0.000000000000000000 ) ) ;
#152 = MECHANICAL_DESIGN_GEOMETRIC_PRESENTATION_REPRESENTATION (  '', ( #257 ), #159 ) ;
#153 =( NAMED_UNIT ( * ) SI_UNIT ( $, .STERADIAN. ) SOLID_ANGLE_UNIT ( ) );
#154 = SURFACE_SIDE_STYLE ('',( #94 ) ) ;
#155 = SURFACE_STYLE_USAGE ( .BOTH. , #40 ) ;
#156 = DIMENSIONAL_EXPONENTS ( 1.000000000000000000, 0.000000000000000000, 0.000000000000000000, 0.000000000000000000, 0.000000000000000000, 0.000000000000000000, 0.000000000000000000 ) ;
#157 = VECTOR ( 'NONE', #102, 39.37007874015748143 ) ;
#158 =( LENGTH_UNIT ( ) NAMED_UNIT ( * ) SI_UNIT ( $, .METRE. ) );
#159 =( GEOMETRIC_REPRESENTATION_CONTEXT ( 3 ) GLOBAL_UNCERTAINTY_ASSIGNED_CONTEXT ( ( #116 ) ) GLOBAL_UNIT_ASSIGNED_CONTEXT ( ( #101, #201, #183 ) ) REPRESENTATION_CONTEXT ( 'NONE', 'WORKASPACE' ) );
#160 = PLANE ( 'NONE',  #52 ) ;
#161 = FACE_OUTER_BOUND ( 'NONE', #7, .T. ) ;
#162 = ORIENTED_EDGE ( 'NONE', *, *, #97, .T. ) ;
#163 = DIRECTION ( 'NONE',  ( 0.000000000000000000, 0.000000000000000000, 1.000000000000000000 ) ) ;
#164 = FILL_AREA_STYLE_COLOUR ( '', #55 ) ;
#165 = CARTESIAN_POINT ( 'NONE',  ( 0.000000000000000000, 0.000000000000000000, 0.000000000000000000 ) ) ;
#166 = FILL_AREA_STYLE ('',( #233 ) ) ;
#167 = APPLICATION_CONTEXT ( 'automotive_design' ) ;
#168 = CARTESIAN_POINT ( 'NONE',  ( -0.1874999999999994726, 0.3247595264191634468, 0.000000000000000000 ) ) ;
#169 = DIRECTION ( 'NONE',  ( -1.478510563588688038E-16, 1.000000000000000000, -0.000000000000000000 ) ) ;
#170 = STYLED_ITEM ( 'NONE', ( #120 ), #230 ) ;
#171 = CARTESIAN_POINT ( 'NONE',  ( -0.1875000000000001110, 2.500000000000000000, 0.000000000000000000 ) ) ;
#172 = CARTESIAN_POINT ( 'NONE',  ( 0.000000000000000000, 0.3247595264191635578, 0.000000000000000000 ) ) ;
#173 = APPLICATION_CONTEXT ( 'automotive_design' ) ;
#174 = COLOUR_RGB ( '',0.7921568627450980005, 0.8196078431372548767, 0.9333333333333333481 ) ;
#175 = CARTESIAN_POINT ( 'NONE',  ( 0.1874999999999998057, 2.500000000000000000, 2.296212748401285877E-17 ) ) ;
#176 = DIRECTION ( 'NONE',  ( -1.478510563588688038E-16, 1.000000000000000000, -0.000000000000000000 ) ) ;
#177 = UNCERTAINTY_MEASURE_WITH_UNIT (LENGTH_MEASURE( 1.000000000000000082E-05 ), #65, 'distance_accuracy_value', 'NONE');
#178 = AXIS2_PLACEMENT_3D ( 'NONE', #210, #130, #32 ) ;
#179 = FACE_OUTER_BOUND ( 'NONE', #9, .T. ) ;
#180 = ORIENTED_EDGE ( 'NONE', *, *, #17, .F. ) ;
#181 = MECHANICAL_DESIGN_GEOMETRIC_PRESENTATION_REPRESENTATION (  '', ( #115 ), #103 ) ;
#182 = LENGTH_MEASURE_WITH_UNIT ( LENGTH_MEASURE( 0.02539999999999999897 ), #241 );
#183 =( NAMED_UNIT ( * ) SI_UNIT ( $, .STERADIAN. ) SOLID_ANGLE_UNIT ( ) );
#184 = APPLICATION_PROTOCOL_DEFINITION ( 'draft international standard', 'automotive_design', 1998, #167 ) ;
#185 = EDGE_CURVE ( 'NONE', #42, #46, #89, .T. ) ;
#186 =( NAMED_UNIT ( * ) PLANE_ANGLE_UNIT ( ) SI_UNIT ( $, .RADIAN. ) );
#187 = EDGE_LOOP ( 'NONE', ( #180, #223, #84 ) ) ;
#188 = SURFACE_SIDE_STYLE ('',( #232 ) ) ;
#189 = CARTESIAN_POINT ( 'NONE',  ( 0.000000000000000000, 0.000000000000000000, 0.000000000000000000 ) ) ;
#190 = DIRECTION ( 'NONE',  ( 0.000000000000000000, 0.8660254037844380415, 0.5000000000000009992 ) ) ;
#191 = DIRECTION ( 'NONE',  ( 0.000000000000000000, 1.000000000000000000, 0.000000000000000000 ) ) ;
#192 = PRESENTATION_STYLE_ASSIGNMENT (( #67 ) ) ;
#193 = AXIS2_PLACEMENT_3D ( 'NONE', #165, #206, #10 ) ;
#194 =( GEOMETRIC_REPRESENTATION_CONTEXT ( 3 ) GLOBAL_UNCERTAINTY_ASSIGNED_CONTEXT ( ( #133 ) ) GLOBAL_UNIT_ASSIGNED_CONTEXT ( ( #90, #150, #112 ) ) REPRESENTATION_CONTEXT ( 'NONE', 'WORKASPACE' ) );
#195 = PRODUCT_DEFINITION_CONTEXT ( 'detailed design', #173, 'design' ) ;
#196 =( NAMED_UNIT ( * ) PLANE_ANGLE_UNIT ( ) SI_UNIT ( $, .RADIAN. ) );
#197 = CARTESIAN_POINT ( 'NONE',  ( -6.123233995736766036E-17, 2.500000000000000000, 0.000000000000000000 ) ) ;
#198 = AXIS2_PLACEMENT_3D ( 'NONE', #30, #13, #214 ) ;
#199 = ORIENTED_EDGE ( 'NONE', *, *, #185, .T. ) ;
#200 = CARTESIAN_POINT ( 'NONE',  ( -6.123233995736764803E-17, 2.500000000000000000, 0.000000000000000000 ) ) ;
#201 =( NAMED_UNIT ( * ) PLANE_ANGLE_UNIT ( ) SI_UNIT ( $, .RADIAN. ) );
#202 = DIMENSIONAL_EXPONENTS ( 1.000000000000000000, 0.000000000000000000, 0.000000000000000000, 0.000000000000000000, 0.000000000000000000, 0.000000000000000000, 0.000000000000000000 ) ;
#203 = MECHANICAL_DESIGN_GEOMETRIC_PRESENTATION_REPRESENTATION (  '', ( #170 ), #79 ) ;
#204 = SHAPE_DEFINITION_REPRESENTATION ( #260, #219 ) ;
#205 = ORIENTED_EDGE ( 'NONE', *, *, #124, .T. ) ;
#206 = DIRECTION ( 'NONE',  ( 0.000000000000000000, 0.000000000000000000, 1.000000000000000000 ) ) ;
#207 = DIRECTION ( 'NONE',  ( -1.478510563588688038E-16, 1.000000000000000000, -0.000000000000000000 ) ) ;
#208 = STYLED_ITEM ( 'NONE', ( #243 ), #141 ) ;
#209 =( LENGTH_UNIT ( ) NAMED_UNIT ( * ) SI_UNIT ( $, .METRE. ) );
#210 = CARTESIAN_POINT ( 'NONE',  ( 2.603792618961250911E-16, 0.3247595264191634468, 0.000000000000000000 ) ) ;
#211 = DIRECTION ( 'NONE',  ( 1.478510563588688038E-16, -1.000000000000000000, 0.000000000000000000 ) ) ;
#212 = CARTESIAN_POINT ( 'NONE',  ( 0.000000000000000000, 0.000000000000000000, 0.000000000000000000 ) ) ;
#213 = DIRECTION ( 'NONE',  ( -1.000000000000000000, -1.478510563588688038E-16, 0.000000000000000000 ) ) ;
#214 = DIRECTION ( 'NONE',  ( -1.000000000000000000, 0.000000000000000000, 0.000000000000000000 ) ) ;
#215 = DIRECTION ( 'NONE',  ( -0.000000000000000000, -1.000000000000000000, -0.000000000000000000 ) ) ;
#216 = AXIS2_PLACEMENT_3D ( 'NONE', #200, #136, #265 ) ;
#217 = EDGE_CURVE ( 'NONE', #139, #252, #119, .T. ) ;
#218 = SURFACE_STYLE_FILL_AREA ( #135 ) ;
#219 = ADVANCED_BREP_SHAPE_REPRESENTATION ( '06273', ( #141, #230, #193 ), #56 ) ;
#220 = EDGE_LOOP ( 'NONE', ( #62, #229 ) ) ;
#221 = DIMENSIONAL_EXPONENTS ( 1.000000000000000000, 0.000000000000000000, 0.000000000000000000, 0.000000000000000000, 0.000000000000000000, 0.000000000000000000, 0.000000000000000000 ) ;
#222 = FILL_AREA_STYLE ('',( #247 ) ) ;
#223 = ORIENTED_EDGE ( 'NONE', *, *, #108, .T. ) ;
#224 = ADVANCED_FACE ( 'NONE', ( #264 ), #25, .T. ) ;
#225 = DIMENSIONAL_EXPONENTS ( 1.000000000000000000, 0.000000000000000000, 0.000000000000000000, 0.000000000000000000, 0.000000000000000000, 0.000000000000000000, 0.000000000000000000 ) ;
#226 =( NAMED_UNIT ( * ) SI_UNIT ( $, .STERADIAN. ) SOLID_ANGLE_UNIT ( ) );
#227 = CONICAL_SURFACE ( 'NONE', #240, 22.73032555864674364, 0.5235987755983000369 ) ;
#228 = ORIENTED_EDGE ( 'NONE', *, *, #217, .T. ) ;
#229 = ORIENTED_EDGE ( 'NONE', *, *, #51, .F. ) ;
#230 = MANIFOLD_SOLID_BREP ( 'Revolve - Tool Body (Pointed)', #117 ) ;
#231 = DIRECTION ( 'NONE',  ( 0.000000000000000000, -0.000000000000000000, 1.000000000000000000 ) ) ;
#232 = SURFACE_STYLE_FILL_AREA ( #49 ) ;
#233 = FILL_AREA_STYLE_COLOUR ( '', #239 ) ;
#234 = VECTOR ( 'NONE', #176, 39.37007874015748143 ) ;
#235 = COLOUR_RGB ( '',1.000000000000000000, 0.000000000000000000, 0.000000000000000000 ) ;
#236 = LINE ( 'NONE', #212, #1 ) ;
#237 = CIRCLE ( 'NONE', #73, 0.1874999999999999722 ) ;
#238 = CARTESIAN_POINT ( 'NONE',  ( 0.000000000000000000, 0.000000000000000000, 0.000000000000000000 ) ) ;
#239 = COLOUR_RGB ( '',1.000000000000000000, 0.000000000000000000, 0.000000000000000000 ) ;
#240 = AXIS2_PLACEMENT_3D ( 'NONE', #261, #191, #48 ) ;
#241 =( LENGTH_UNIT ( ) NAMED_UNIT ( * ) SI_UNIT ( $, .METRE. ) );
#242 = CARTESIAN_POINT ( 'NONE',  ( 0.1874999999999999722, 0.3247595264191634468, 2.296212748401286801E-17 ) ) ;
#243 = PRESENTATION_STYLE_ASSIGNMENT (( #113 ) ) ;
#244 = CIRCLE ( 'NONE', #198, 0.1875000000000000555 ) ;
#245 = ADVANCED_FACE ( 'NONE', ( #179 ), #99, .T. ) ;
#246 = PRESENTATION_STYLE_ASSIGNMENT (( #155 ) ) ;
#247 = FILL_AREA_STYLE_COLOUR ( '', #59 ) ;
#248 = ADVANCED_FACE ( 'NONE', ( #161 ), #251, .F. ) ;
#249 = VERTEX_POINT ( 'NONE', #168 ) ;
#250 = DIMENSIONAL_EXPONENTS ( 1.000000000000000000, 0.000000000000000000, 0.000000000000000000, 0.000000000000000000, 0.000000000000000000, 0.000000000000000000, 0.000000000000000000 ) ;
#251 = PLANE ( 'NONE',  #93 ) ;
#252 = VERTEX_POINT ( 'NONE', #47 ) ;
#253 = DIRECTION ( 'NONE',  ( 0.000000000000000000, 1.000000000000000000, 0.000000000000000000 ) ) ;
#254 = AXIS2_PLACEMENT_3D ( 'NONE', #143, #253, #163 ) ;
#255 = CYLINDRICAL_SURFACE ( 'NONE', #20, 0.1874999999999998890 ) ;
#256 = PLANE ( 'NONE',  #82 ) ;
#257 = STYLED_ITEM ( 'NONE', ( #246 ), #2 ) ;
#258 = LINE ( 'NONE', #238, #14 ) ;
#259 = STYLED_ITEM ( 'NONE', ( #192 ), #61 ) ;
#260 = PRODUCT_DEFINITION_SHAPE ( 'NONE', 'NONE',  #35 ) ;
#261 = CARTESIAN_POINT ( 'NONE',  ( 0.000000000000000000, 39.37007874015748143, 0.000000000000000000 ) ) ;
#262 = AXIS2_PLACEMENT_3D ( 'NONE', #110, #169, #148 ) ;
#263 =( CONVERSION_BASED_UNIT ( 'INCH', #57 ) LENGTH_UNIT ( ) NAMED_UNIT ( #221 ) );
#264 = FACE_OUTER_BOUND ( 'NONE', #27, .T. ) ;
#265 = DIRECTION ( 'NONE',  ( -1.000000000000000000, 0.000000000000000000, 0.000000000000000000 ) ) ;
ENDSEC;
END-ISO-10303-21;
