ISO-10303-21;
HEADER;
FILE_DESCRIPTION (( 'STEP AP214' ),
    '1' );
FILE_NAME ('Micro_BEMM-040-4X.STEP',
    '2021-09-03T13:25:39',
    ( '' ),
    ( '' ),
    'SwSTEP 2.0',
    'SolidWorks 2020',
    '' );
FILE_SCHEMA (( 'AUTOMOTIVE_DESIGN' ));
ENDSEC;

DATA;
#1 = ORIENTED_EDGE ( 'NONE', *, *, #137, .F. ) ;
#2 = EDGE_CURVE ( 'NONE', #316, #207, #200, .T. ) ;
#3 = ORIENTED_EDGE ( 'NONE', *, *, #2, .F. ) ;
#4 = ORIENTED_EDGE ( 'NONE', *, *, #80, .T. ) ;
#5 = EDGE_CURVE ( 'NONE', #316, #6, #216, .T. ) ;
#6 = VERTEX_POINT ( 'NONE', #14 ) ;
#7 = AXIS2_PLACEMENT_3D ( 'NONE', #168, #288, #120 ) ;
#8 = ORIENTED_EDGE ( 'NONE', *, *, #12, .T. ) ;
#9 = DIRECTION ( 'NONE',  ( 1.224646799147353207E-16, 0.0000000000000000000, 1.000000000000000000 ) ) ;
#10 = DIRECTION ( 'NONE',  ( 1.000000000000000000, 0.0000000000000000000, 0.0000000000000000000 ) ) ;
#11 = SURFACE_STYLE_USAGE ( .BOTH. , #309 ) ;
#12 = EDGE_CURVE ( 'NONE', #16, #161, #158, .T. ) ;
#13 = CARTESIAN_POINT ( 'NONE',  ( 0.07874000000000008770, 9.642868896486269294E-18, 0.7091075567304767624 ) ) ;
#14 = CARTESIAN_POINT ( 'NONE',  ( -0.07874000000000000443, 0.0000000000000000000, 1.953504000000000129 ) ) ;
#15 = PLANE ( 'NONE',  #105 ) ;
#16 = VERTEX_POINT ( 'NONE', #65 ) ;
#17 = PRODUCT_DEFINITION_SHAPE ( 'NONE', 'NONE',  #259 ) ;
#18 = DIRECTION ( 'NONE',  ( 1.000000000000000000, 0.0000000000000000000, -0.0000000000000000000 ) ) ;
#19 = CARTESIAN_POINT ( 'NONE',  ( 0.07874000000000000443, 9.642868896486258509E-18, 1.968503999999999809 ) ) ;
#20 = ADVANCED_FACE ( 'NONE', ( #285 ), #39, .T. ) ;
#21 = CARTESIAN_POINT ( 'NONE',  ( 0.0000000000000000000, 0.0000000000000000000, 0.0000000000000000000 ) ) ;
#22 = AXIS2_PLACEMENT_3D ( 'NONE', #175, #145, #325 ) ;
#23 = ORIENTED_EDGE ( 'NONE', *, *, #113, .T. ) ;
#24 = LENGTH_MEASURE_WITH_UNIT ( LENGTH_MEASURE( 0.02539999999999999897 ), #293 );
#25 = CARTESIAN_POINT ( 'NONE',  ( 1.444983904138465630E-17, 0.0000000000000000000, 0.0000000000000000000 ) ) ;
#26 =( NAMED_UNIT ( * ) SI_UNIT ( $, .STERADIAN. ) SOLID_ANGLE_UNIT ( ) );
#27 = CIRCLE ( 'NONE', #237, 0.07866125999999999674 ) ;
#28 = PRODUCT_CONTEXT ( 'NONE', #54, 'mechanical' ) ;
#29 = ORIENTED_EDGE ( 'NONE', *, *, #2, .T. ) ;
#30 = MECHANICAL_DESIGN_GEOMETRIC_PRESENTATION_REPRESENTATION (  '', ( #228 ), #91 ) ;
#31 = ORIENTED_EDGE ( 'NONE', *, *, #5, .F. ) ;
#32 = LENGTH_MEASURE_WITH_UNIT ( LENGTH_MEASURE( 0.02539999999999999897 ), #186 );
#33 = ORIENTED_EDGE ( 'NONE', *, *, #269, .T. ) ;
#34 = VECTOR ( 'NONE', #46, 39.37007874015748143 ) ;
#35 =( NAMED_UNIT ( * ) PLANE_ANGLE_UNIT ( ) SI_UNIT ( $, .RADIAN. ) );
#36 = DIRECTION ( 'NONE',  ( 0.0000000000000000000, 0.0000000000000000000, 1.000000000000000000 ) ) ;
#37 =( NAMED_UNIT ( * ) SI_UNIT ( $, .STERADIAN. ) SOLID_ANGLE_UNIT ( ) );
#38 = ADVANCED_BREP_SHAPE_REPRESENTATION ( 'Micro_BEMM-040-4X', ( #178, #60 ), #130 ) ;
#39 = SPHERICAL_SURFACE ( 'NONE', #296, 0.07866125999999999674 ) ;
#40 = DIRECTION ( 'NONE',  ( 1.000000000000000000, 0.0000000000000000000, 0.0000000000000000000 ) ) ;
#41 = CARTESIAN_POINT ( 'NONE',  ( -0.07873999999999992117, 0.0000000000000000000, 0.7091075567304767624 ) ) ;
#42 = AXIS2_PLACEMENT_3D ( 'NONE', #96, #9, #314 ) ;
#43 = DIRECTION ( 'NONE',  ( 0.0000000000000000000, 0.0000000000000000000, -1.000000000000000000 ) ) ;
#44 = FACE_OUTER_BOUND ( 'NONE', #258, .T. ) ;
#45 = ADVANCED_FACE ( 'NONE', ( #291 ), #148, .T. ) ;
#46 = DIRECTION ( 'NONE',  ( -1.224646799147353207E-16, -0.0000000000000000000, -1.000000000000000000 ) ) ;
#47 = DIRECTION ( 'NONE',  ( -1.224646799147353207E-16, -0.0000000000000000000, -1.000000000000000000 ) ) ;
#48 = CARTESIAN_POINT ( 'NONE',  ( 8.684062996011784961E-17, 0.0000000000000000000, 0.7091075567304767624 ) ) ;
#49 = VECTOR ( 'NONE', #139, 39.37007874015748143 ) ;
#50 = DIRECTION ( 'NONE',  ( -0.0000000000000000000, -0.0000000000000000000, -1.000000000000000000 ) ) ;
#51 = EDGE_CURVE ( 'NONE', #6, #58, #294, .T. ) ;
#52 = CARTESIAN_POINT ( 'NONE',  ( 9.633226027589770864E-18, 0.0000000000000000000, 0.07866125999999999674 ) ) ;
#53 = LINE ( 'NONE', #153, #85 ) ;
#54 = APPLICATION_CONTEXT ( 'automotive_design' ) ;
#55 = CIRCLE ( 'NONE', #22, 0.07866125999999999674 ) ;
#56 = EDGE_CURVE ( 'NONE', #108, #164, #162, .T. ) ;
#57 = ADVANCED_FACE ( 'NONE', ( #95 ), #290, .T. ) ;
#58 = VERTEX_POINT ( 'NONE', #241 ) ;
#59 = AXIS2_PLACEMENT_3D ( 'NONE', #74, #124, #97 ) ;
#60 = AXIS2_PLACEMENT_3D ( 'NONE', #305, #36, #256 ) ;
#61 = EDGE_LOOP ( 'NONE', ( #209, #134, #243, #31 ) ) ;
#62 =( NAMED_UNIT ( * ) SI_UNIT ( $, .STERADIAN. ) SOLID_ANGLE_UNIT ( ) );
#63 = ORIENTED_EDGE ( 'NONE', *, *, #281, .T. ) ;
#64 =( GEOMETRIC_REPRESENTATION_CONTEXT ( 3 ) GLOBAL_UNCERTAINTY_ASSIGNED_CONTEXT ( ( #193 ) ) GLOBAL_UNIT_ASSIGNED_CONTEXT ( ( #184, #66, #62 ) ) REPRESENTATION_CONTEXT ( 'NONE', 'WORKASPACE' ) );
#65 = CARTESIAN_POINT ( 'NONE',  ( 0.07866126000000001062, 9.633226027589770864E-18, 0.07866125999999996898 ) ) ;
#66 =( NAMED_UNIT ( * ) PLANE_ANGLE_UNIT ( ) SI_UNIT ( $, .RADIAN. ) );
#67 = DIRECTION ( 'NONE',  ( 0.0000000000000000000, 0.0000000000000000000, 1.000000000000000000 ) ) ;
#68 = DIRECTION ( 'NONE',  ( -1.000000000000000000, 1.224646799147352961E-16, 0.0000000000000000000 ) ) ;
#69 = CARTESIAN_POINT ( 'NONE',  ( 0.06374000000000018540, 8.724383797125754882E-18, 1.968503999999999809 ) ) ;
#70 = PRODUCT_DEFINITION_CONTEXT ( 'detailed design', #322, 'design' ) ;
#71 = DIRECTION ( 'NONE',  ( -1.000000000000000000, 0.0000000000000000000, 0.0000000000000000000 ) ) ;
#72 = DIRECTION ( 'NONE',  ( -1.224646799147353207E-16, -0.0000000000000000000, -1.000000000000000000 ) ) ;
#73 = DIRECTION ( 'NONE',  ( -0.0000000000000000000, -0.0000000000000000000, -1.000000000000000000 ) ) ;
#74 = CARTESIAN_POINT ( 'NONE',  ( 8.684062996011784961E-17, 0.0000000000000000000, 0.7091075567304767624 ) ) ;
#75 = CARTESIAN_POINT ( 'NONE',  ( 0.07866126000000008001, 0.0000000000000000000, 0.7086609999999999854 ) ) ;
#76 = DIRECTION ( 'NONE',  ( 0.0000000000000000000, 0.0000000000000000000, -1.000000000000000000 ) ) ;
#77 = EDGE_CURVE ( 'NONE', #282, #16, #117, .T. ) ;
#78 =( CONVERSION_BASED_UNIT ( 'INCH', #24 ) LENGTH_UNIT ( ) NAMED_UNIT ( #83 ) );
#79 = AXIS2_PLACEMENT_3D ( 'NONE', #100, #194, #261 ) ;
#80 = EDGE_CURVE ( 'NONE', #58, #164, #213, .T. ) ;
#81 = DIMENSIONAL_EXPONENTS ( 1.000000000000000000, 0.0000000000000000000, 0.0000000000000000000, 0.0000000000000000000, 0.0000000000000000000, 0.0000000000000000000, 0.0000000000000000000 ) ;
#82 = ORIENTED_EDGE ( 'NONE', *, *, #159, .F. ) ;
#83 = DIMENSIONAL_EXPONENTS ( 1.000000000000000000, 0.0000000000000000000, 0.0000000000000000000, 0.0000000000000000000, 0.0000000000000000000, 0.0000000000000000000, 0.0000000000000000000 ) ;
#84 = VERTEX_POINT ( 'NONE', #240 ) ;
#85 = VECTOR ( 'NONE', #129, 39.37007874015747433 ) ;
#86 = EDGE_LOOP ( 'NONE', ( #157, #3, #252, #1 ) ) ;
#87 = SURFACE_STYLE_FILL_AREA ( #173 ) ;
#88 = PRESENTATION_STYLE_ASSIGNMENT (( #94 ) ) ;
#89 = DIRECTION ( 'NONE',  ( -0.7071067811865502373, 0.0000000000000000000, -0.7071067811865446862 ) ) ;
#90 = PRESENTATION_STYLE_ASSIGNMENT (( #11 ) ) ;
#91 =( GEOMETRIC_REPRESENTATION_CONTEXT ( 3 ) GLOBAL_UNCERTAINTY_ASSIGNED_CONTEXT ( ( #204 ) ) GLOBAL_UNIT_ASSIGNED_CONTEXT ( ( #284, #35, #37 ) ) REPRESENTATION_CONTEXT ( 'NONE', 'WORKASPACE' ) );
#92 = LENGTH_MEASURE_WITH_UNIT ( LENGTH_MEASURE( 0.02539999999999999897 ), #192 );
#93 = ORIENTED_EDGE ( 'NONE', *, *, #251, .T. ) ;
#94 = SURFACE_STYLE_USAGE ( .BOTH. , #310 ) ;
#95 = FACE_OUTER_BOUND ( 'NONE', #183, .T. ) ;
#96 = CARTESIAN_POINT ( 'NONE',  ( 8.678594253305624695E-17, 0.0000000000000000000, 0.7086609999999999854 ) ) ;
#97 = DIRECTION ( 'NONE',  ( 1.000000000000000000, 0.0000000000000000000, 0.0000000000000000000 ) ) ;
#98 = VECTOR ( 'NONE', #270, 39.37007874015748143 ) ;
#99 = CARTESIAN_POINT ( 'NONE',  ( -0.07866125999999996898, 0.0000000000000000000, 0.07866126000000001062 ) ) ;
#100 = CARTESIAN_POINT ( 'NONE',  ( 8.678594253305624695E-17, 0.0000000000000000000, 0.7086609999999999854 ) ) ;
#101 = DIRECTION ( 'NONE',  ( -1.000000000000000000, 0.0000000000000000000, 2.170579261049422102E-16 ) ) ;
#102 = CARTESIAN_POINT ( 'NONE',  ( 0.0000000000000000000, 0.0000000000000000000, 1.953504000000000129 ) ) ;
#103 = EDGE_CURVE ( 'NONE', #302, #161, #27, .T. ) ;
#104 = EDGE_CURVE ( 'NONE', #282, #84, #268, .T. ) ;
#105 = AXIS2_PLACEMENT_3D ( 'NONE', #312, #67, #18 ) ;
#106 = DIRECTION ( 'NONE',  ( -1.000000000000000000, 0.0000000000000000000, 0.0000000000000000000 ) ) ;
#107 = AXIS2_PLACEMENT_3D ( 'NONE', #260, #318, #10 ) ;
#108 = VERTEX_POINT ( 'NONE', #41 ) ;
#109 = ORIENTED_EDGE ( 'NONE', *, *, #77, .F. ) ;
#110 = ORIENTED_EDGE ( 'NONE', *, *, #234, .T. ) ;
#111 = CIRCLE ( 'NONE', #232, 0.07866125999999999674 ) ;
#112 = ORIENTED_EDGE ( 'NONE', *, *, #250, .T. ) ;
#113 = EDGE_CURVE ( 'NONE', #302, #16, #188, .T. ) ;
#114 = CARTESIAN_POINT ( 'NONE',  ( 0.06374000000000018540, 7.805898697765251255E-18, 1.968503999999999809 ) ) ;
#115 = ORIENTED_EDGE ( 'NONE', *, *, #116, .F. ) ;
#116 = EDGE_CURVE ( 'NONE', #84, #282, #55, .T. ) ;
#117 = LINE ( 'NONE', #171, #34 ) ;
#118 = CONICAL_SURFACE ( 'NONE', #138, 0.06374000000000018540, 0.7853981633974522758 ) ;
#119 = FILL_AREA_STYLE_COLOUR ( '', #257 ) ;
#120 = DIRECTION ( 'NONE',  ( -1.000000000000000000, 0.0000000000000000000, 2.170579261049422102E-16 ) ) ;
#121 = CARTESIAN_POINT ( 'NONE',  ( 0.0000000000000000000, 0.0000000000000000000, 0.0000000000000000000 ) ) ;
#122 = CARTESIAN_POINT ( 'NONE',  ( 9.633226027589770864E-18, 0.0000000000000000000, 0.07866125999999999674 ) ) ;
#123 = FACE_OUTER_BOUND ( 'NONE', #255, .T. ) ;
#124 = DIRECTION ( 'NONE',  ( -1.224646799147353207E-16, -0.0000000000000000000, -1.000000000000000000 ) ) ;
#125 = AXIS2_PLACEMENT_3D ( 'NONE', #235, #287, #315 ) ;
#126 = FACE_OUTER_BOUND ( 'NONE', #86, .T. ) ;
#127 = CARTESIAN_POINT ( 'NONE',  ( 0.07866126000000008001, 0.0000000000000000000, 0.7086609999999999854 ) ) ;
#128 = FACE_OUTER_BOUND ( 'NONE', #185, .T. ) ;
#129 = DIRECTION ( 'NONE',  ( -0.1736481776669311639, 2.126576849575783008E-17, 0.9848077530122080203 ) ) ;
#130 =( GEOMETRIC_REPRESENTATION_CONTEXT ( 3 ) GLOBAL_UNCERTAINTY_ASSIGNED_CONTEXT ( ( #227 ) ) GLOBAL_UNIT_ASSIGNED_CONTEXT ( ( #78, #247, #26 ) ) REPRESENTATION_CONTEXT ( 'NONE', 'WORKASPACE' ) );
#131 = APPLICATION_PROTOCOL_DEFINITION ( 'draft international standard', 'automotive_design', 1998, #54 ) ;
#132 = AXIS2_PLACEMENT_3D ( 'NONE', #102, #272, #40 ) ;
#133 = ORIENTED_EDGE ( 'NONE', *, *, #12, .F. ) ;
#134 = ORIENTED_EDGE ( 'NONE', *, *, #174, .T. ) ;
#135 = ORIENTED_EDGE ( 'NONE', *, *, #103, .T. ) ;
#136 = ORIENTED_EDGE ( 'NONE', *, *, #51, .T. ) ;
#137 = EDGE_CURVE ( 'NONE', #58, #6, #277, .T. ) ;
#138 = AXIS2_PLACEMENT_3D ( 'NONE', #176, #76, #106 ) ;
#139 = DIRECTION ( 'NONE',  ( -0.0000000000000000000, -0.0000000000000000000, -1.000000000000000000 ) ) ;
#140 = EDGE_LOOP ( 'NONE', ( #276, #135, #133 ) ) ;
#141 = ORIENTED_EDGE ( 'NONE', *, *, #137, .T. ) ;
#142 = DIRECTION ( 'NONE',  ( 0.0000000000000000000, 1.000000000000000000, 0.0000000000000000000 ) ) ;
#143 = AXIS2_PLACEMENT_3D ( 'NONE', #48, #201, #222 ) ;
#144 = FACE_OUTER_BOUND ( 'NONE', #215, .T. ) ;
#145 = DIRECTION ( 'NONE',  ( -1.224646799147353207E-16, -0.0000000000000000000, -1.000000000000000000 ) ) ;
#146 = CLOSED_SHELL ( 'NONE', ( #306, #217, #57, #155, #274, #45, #191, #226, #197, #263, #20 ) ) ;
#147 = CARTESIAN_POINT ( 'NONE',  ( -0.07874000000000000443, 0.0000000000000000000, 1.968503999999999809 ) ) ;
#148 = CYLINDRICAL_SURFACE ( 'NONE', #202, 0.07874000000000000443 ) ;
#149 = DIRECTION ( 'NONE',  ( 0.0000000000000000000, 0.0000000000000000000, 1.000000000000000000 ) ) ;
#150 = CARTESIAN_POINT ( 'NONE',  ( 0.0000000000000000000, 0.0000000000000000000, 1.968503999999999809 ) ) ;
#151 = AXIS2_PLACEMENT_3D ( 'NONE', #163, #317, #218 ) ;
#152 = DIRECTION ( 'NONE',  ( -1.000000000000000000, 0.0000000000000000000, 0.0000000000000000000 ) ) ;
#153 = CARTESIAN_POINT ( 'NONE',  ( -0.07866125999999989959, 9.633226027589770864E-18, 0.7086609999999999854 ) ) ;
#154 = ORIENTED_EDGE ( 'NONE', *, *, #104, .F. ) ;
#155 = ADVANCED_FACE ( 'NONE', ( #189 ), #283, .T. ) ;
#156 = VECTOR ( 'NONE', #242, 39.37007874015748143 ) ;
#157 = ORIENTED_EDGE ( 'NONE', *, *, #174, .F. ) ;
#158 = CIRCLE ( 'NONE', #7, 0.07866125999999999674 ) ;
#159 = EDGE_CURVE ( 'NONE', #6, #108, #286, .T. ) ;
#160 = ORIENTED_EDGE ( 'NONE', *, *, #159, .T. ) ;
#161 = VERTEX_POINT ( 'NONE', #99 ) ;
#162 = CIRCLE ( 'NONE', #59, 0.07874000000000000443 ) ;
#163 = CARTESIAN_POINT ( 'NONE',  ( 0.0000000000000000000, 0.0000000000000000000, 1.968503999999999809 ) ) ;
#164 = VERTEX_POINT ( 'NONE', #13 ) ;
#165 = APPLICATION_PROTOCOL_DEFINITION ( 'draft international standard', 'automotive_design', 1998, #322 ) ;
#166 = EDGE_LOOP ( 'NONE', ( #279, #141, #160, #300 ) ) ;
#167 = LINE ( 'NONE', #114, #205 ) ;
#168 = CARTESIAN_POINT ( 'NONE',  ( 9.633226027589770864E-18, 0.0000000000000000000, 0.07866125999999999674 ) ) ;
#169 = PRODUCT ( 'Micro_BEMM-040-4X', 'Micro_BEMM-040-4X', '', ( #28 ) ) ;
#170 = DIRECTION ( 'NONE',  ( -1.000000000000000000, 0.0000000000000000000, 1.224646799147352961E-16 ) ) ;
#171 = CARTESIAN_POINT ( 'NONE',  ( 0.07866125999999999674, 9.633226027589770864E-18, -9.633226027589770864E-18 ) ) ;
#172 = VECTOR ( 'NONE', #89, 39.37007874015748854 ) ;
#173 = FILL_AREA_STYLE ('',( #298 ) ) ;
#174 = EDGE_CURVE ( 'NONE', #207, #58, #167, .T. ) ;
#175 = CARTESIAN_POINT ( 'NONE',  ( 8.678594253305624695E-17, 0.0000000000000000000, 0.7086609999999999854 ) ) ;
#176 = CARTESIAN_POINT ( 'NONE',  ( 0.0000000000000000000, 0.0000000000000000000, 1.968503999999999809 ) ) ;
#177 = CYLINDRICAL_SURFACE ( 'NONE', #225, 0.07866125999999999674 ) ;
#178 = MANIFOLD_SOLID_BREP ( 'Fillet1', #146 ) ;
#179 = PRESENTATION_LAYER_ASSIGNMENT (  '', '', ( #275 ) ) ;
#180 = DIMENSIONAL_EXPONENTS ( 1.000000000000000000, 0.0000000000000000000, 0.0000000000000000000, 0.0000000000000000000, 0.0000000000000000000, 0.0000000000000000000, 0.0000000000000000000 ) ;
#181 = ORIENTED_EDGE ( 'NONE', *, *, #116, .T. ) ;
#182 = AXIS2_PLACEMENT_3D ( 'NONE', #52, #321, #245 ) ;
#183 = EDGE_LOOP ( 'NONE', ( #115, #233, #231, #304 ) ) ;
#184 =( CONVERSION_BASED_UNIT ( 'INCH', #32 ) LENGTH_UNIT ( ) NAMED_UNIT ( #81 ) );
#185 = EDGE_LOOP ( 'NONE', ( #109, #254, #112, #63 ) ) ;
#186 =( LENGTH_UNIT ( ) NAMED_UNIT ( * ) SI_UNIT ( $, .METRE. ) );
#187 = ORIENTED_EDGE ( 'NONE', *, *, #250, .F. ) ;
#188 = CIRCLE ( 'NONE', #220, 0.07866125999999999674 ) ;
#189 = FACE_OUTER_BOUND ( 'NONE', #61, .T. ) ;
#190 = DIRECTION ( 'NONE',  ( 0.0000000000000000000, 0.0000000000000000000, 1.000000000000000000 ) ) ;
#191 = ADVANCED_FACE ( 'NONE', ( #44 ), #15, .T. ) ;
#192 =( LENGTH_UNIT ( ) NAMED_UNIT ( * ) SI_UNIT ( $, .METRE. ) );
#193 = UNCERTAINTY_MEASURE_WITH_UNIT (LENGTH_MEASURE( 1.000000000000000082E-05 ), #184, 'distance_accuracy_value', 'NONE');
#194 = DIRECTION ( 'NONE',  ( -1.224646799147353207E-16, -0.0000000000000000000, -1.000000000000000000 ) ) ;
#195 = DIRECTION ( 'NONE',  ( -0.0000000000000000000, -0.0000000000000000000, -1.000000000000000000 ) ) ;
#196 = CONICAL_SURFACE ( 'NONE', #42, 0.07866125999999999674, 0.1745329251994338637 ) ;
#197 = ADVANCED_FACE ( 'NONE', ( #144 ), #196, .T. ) ;
#198 = SURFACE_STYLE_FILL_AREA ( #212 ) ;
#199 = EDGE_LOOP ( 'NONE', ( #229, #23, #278 ) ) ;
#200 = CIRCLE ( 'NONE', #307, 0.06374000000000018540 ) ;
#201 = DIRECTION ( 'NONE',  ( -1.224646799147353207E-16, -0.0000000000000000000, -1.000000000000000000 ) ) ;
#202 = AXIS2_PLACEMENT_3D ( 'NONE', #150, #73, #71 ) ;
#203 = DIRECTION ( 'NONE',  ( -1.000000000000000000, 0.0000000000000000000, 1.224646799147352961E-16 ) ) ;
#204 = UNCERTAINTY_MEASURE_WITH_UNIT (LENGTH_MEASURE( 1.000000000000000082E-05 ), #284, 'distance_accuracy_value', 'NONE');
#205 = VECTOR ( 'NONE', #210, 39.37007874015748854 ) ;
#206 = PRODUCT_RELATED_PRODUCT_CATEGORY ( 'part', '', ( #169 ) ) ;
#207 = VERTEX_POINT ( 'NONE', #69 ) ;
#208 = AXIS2_PLACEMENT_3D ( 'NONE', #121, #72, #170 ) ;
#209 = ORIENTED_EDGE ( 'NONE', *, *, #251, .F. ) ;
#210 = DIRECTION ( 'NONE',  ( 0.7071067811865502373, 8.659560562354966138E-17, -0.7071067811865446862 ) ) ;
#211 = CARTESIAN_POINT ( 'NONE',  ( 0.0000000000000000000, 0.0000000000000000000, 1.968503999999999809 ) ) ;
#212 = FILL_AREA_STYLE ('',( #119 ) ) ;
#213 = LINE ( 'NONE', #19, #299 ) ;
#214 = AXIS2_PLACEMENT_3D ( 'NONE', #267, #149, #295 ) ;
#215 = EDGE_LOOP ( 'NONE', ( #308, #154, #110, #33 ) ) ;
#216 = LINE ( 'NONE', #311, #172 ) ;
#217 = ADVANCED_FACE ( 'NONE', ( #123 ), #239, .T. ) ;
#218 = DIRECTION ( 'NONE',  ( -1.000000000000000000, 0.0000000000000000000, 0.0000000000000000000 ) ) ;
#219 = CARTESIAN_POINT ( 'NONE',  ( 9.633226027589770864E-18, 0.0000000000000000000, 0.07866125999999999674 ) ) ;
#220 = AXIS2_PLACEMENT_3D ( 'NONE', #264, #236, #43 ) ;
#221 = MECHANICAL_DESIGN_GEOMETRIC_PRESENTATION_REPRESENTATION (  '', ( #275 ), #64 ) ;
#222 = DIRECTION ( 'NONE',  ( 1.000000000000000000, 0.0000000000000000000, 0.0000000000000000000 ) ) ;
#223 = CARTESIAN_POINT ( 'NONE',  ( 9.633226027589770864E-18, 0.0000000000000000000, 0.07866125999999999674 ) ) ;
#224 = CARTESIAN_POINT ( 'NONE',  ( -0.06374000000000018540, 0.0000000000000000000, 1.968503999999999809 ) ) ;
#225 = AXIS2_PLACEMENT_3D ( 'NONE', #21, #47, #203 ) ;
#226 = ADVANCED_FACE ( 'NONE', ( #126 ), #118, .T. ) ;
#227 = UNCERTAINTY_MEASURE_WITH_UNIT (LENGTH_MEASURE( 1.000000000000000082E-05 ), #78, 'distance_accuracy_value', 'NONE');
#228 = STYLED_ITEM ( 'NONE', ( #88 ), #178 ) ;
#229 = ORIENTED_EDGE ( 'NONE', *, *, #103, .F. ) ;
#230 = ORIENTED_EDGE ( 'NONE', *, *, #56, .F. ) ;
#231 = ORIENTED_EDGE ( 'NONE', *, *, #56, .T. ) ;
#232 = AXIS2_PLACEMENT_3D ( 'NONE', #223, #249, #101 ) ;
#233 = ORIENTED_EDGE ( 'NONE', *, *, #319, .T. ) ;
#234 = EDGE_CURVE ( 'NONE', #282, #164, #273, .T. ) ;
#235 = CARTESIAN_POINT ( 'NONE',  ( 0.0000000000000000000, 0.0000000000000000000, 1.953504000000000129 ) ) ;
#236 = DIRECTION ( 'NONE',  ( 0.0000000000000000000, -1.000000000000000000, 0.0000000000000000000 ) ) ;
#237 = AXIS2_PLACEMENT_3D ( 'NONE', #219, #313, #68 ) ;
#238 = PRODUCT_DEFINITION_FORMATION_WITH_SPECIFIED_SOURCE ( 'ANY', '', #169, .NOT_KNOWN. ) ;
#239 = CYLINDRICAL_SURFACE ( 'NONE', #208, 0.07866125999999999674 ) ;
#240 = CARTESIAN_POINT ( 'NONE',  ( -0.07866125999999989959, 9.638047462038014686E-18, 0.7086609999999999854 ) ) ;
#241 = CARTESIAN_POINT ( 'NONE',  ( 0.07874000000000000443, 9.642868896486258509E-18, 1.953504000000000129 ) ) ;
#242 = DIRECTION ( 'NONE',  ( -1.224646799147353207E-16, -0.0000000000000000000, -1.000000000000000000 ) ) ;
#243 = ORIENTED_EDGE ( 'NONE', *, *, #51, .F. ) ;
#244 = CIRCLE ( 'NONE', #214, 0.06374000000000018540 ) ;
#245 = DIRECTION ( 'NONE',  ( 1.000000000000000000, 0.0000000000000000000, 0.0000000000000000000 ) ) ;
#246 = FACE_OUTER_BOUND ( 'NONE', #140, .T. ) ;
#247 =( NAMED_UNIT ( * ) PLANE_ANGLE_UNIT ( ) SI_UNIT ( $, .RADIAN. ) );
#248 = PRESENTATION_LAYER_ASSIGNMENT (  '', '', ( #228 ) ) ;
#249 = DIRECTION ( 'NONE',  ( 1.224646799147353207E-16, 0.0000000000000000000, 1.000000000000000000 ) ) ;
#250 = EDGE_CURVE ( 'NONE', #84, #161, #297, .T. ) ;
#251 = EDGE_CURVE ( 'NONE', #207, #316, #244, .T. ) ;
#252 = ORIENTED_EDGE ( 'NONE', *, *, #5, .T. ) ;
#253 = CIRCLE ( 'NONE', #143, 0.07874000000000000443 ) ;
#254 = ORIENTED_EDGE ( 'NONE', *, *, #104, .T. ) ;
#255 = EDGE_LOOP ( 'NONE', ( #181, #289, #8, #187 ) ) ;
#256 = DIRECTION ( 'NONE',  ( 1.000000000000000000, 0.0000000000000000000, 0.0000000000000000000 ) ) ;
#257 = COLOUR_RGB ( '',0.7921568627450980005, 0.8196078431372548767, 0.9333333333333333481 ) ;
#258 = EDGE_LOOP ( 'NONE', ( #29, #93 ) ) ;
#259 = PRODUCT_DEFINITION ( 'UNKNOWN', '', #238, #70 ) ;
#260 = CARTESIAN_POINT ( 'NONE',  ( 8.678594253305624695E-17, 0.0000000000000000000, 0.7086609999999999854 ) ) ;
#261 = DIRECTION ( 'NONE',  ( -1.000000000000000000, 0.0000000000000000000, 0.0000000000000000000 ) ) ;
#262 = DIRECTION ( 'NONE',  ( 1.000000000000000000, 0.0000000000000000000, 0.0000000000000000000 ) ) ;
#263 = ADVANCED_FACE ( 'NONE', ( #128 ), #177, .T. ) ;
#264 = CARTESIAN_POINT ( 'NONE',  ( 9.633226027589770864E-18, 0.0000000000000000000, 0.07866125999999999674 ) ) ;
#265 = CARTESIAN_POINT ( 'NONE',  ( -0.07866125999999999674, 0.0000000000000000000, 9.633226027589770864E-18 ) ) ;
#266 = DIRECTION ( 'NONE',  ( 1.000000000000000000, 0.0000000000000000000, 0.0000000000000000000 ) ) ;
#267 = CARTESIAN_POINT ( 'NONE',  ( 0.0000000000000000000, 0.0000000000000000000, 1.968503999999999809 ) ) ;
#268 = CIRCLE ( 'NONE', #79, 0.07866125999999999674 ) ;
#269 = EDGE_CURVE ( 'NONE', #164, #108, #253, .T. ) ;
#270 = DIRECTION ( 'NONE',  ( 0.1736481776669313581, 0.0000000000000000000, 0.9848077530122077983 ) ) ;
#271 = SPHERICAL_SURFACE ( 'NONE', #182, 0.07866125999999999674 ) ;
#272 = DIRECTION ( 'NONE',  ( 0.0000000000000000000, 0.0000000000000000000, -1.000000000000000000 ) ) ;
#273 = LINE ( 'NONE', #127, #98 ) ;
#274 = ADVANCED_FACE ( 'NONE', ( #320 ), #292, .T. ) ;
#275 = STYLED_ITEM ( 'NONE', ( #90 ), #38 ) ;
#276 = ORIENTED_EDGE ( 'NONE', *, *, #113, .F. ) ;
#277 = CIRCLE ( 'NONE', #132, 0.07874000000000000443 ) ;
#278 = ORIENTED_EDGE ( 'NONE', *, *, #281, .F. ) ;
#279 = ORIENTED_EDGE ( 'NONE', *, *, #80, .F. ) ;
#280 = SHAPE_DEFINITION_REPRESENTATION ( #17, #38 ) ;
#281 = EDGE_CURVE ( 'NONE', #161, #16, #111, .T. ) ;
#282 = VERTEX_POINT ( 'NONE', #75 ) ;
#283 = CONICAL_SURFACE ( 'NONE', #151, 0.06374000000000018540, 0.7853981633974522758 ) ;
#284 =( CONVERSION_BASED_UNIT ( 'INCH', #92 ) LENGTH_UNIT ( ) NAMED_UNIT ( #180 ) );
#285 = FACE_OUTER_BOUND ( 'NONE', #199, .T. ) ;
#286 = LINE ( 'NONE', #147, #49 ) ;
#287 = DIRECTION ( 'NONE',  ( 0.0000000000000000000, 0.0000000000000000000, -1.000000000000000000 ) ) ;
#288 = DIRECTION ( 'NONE',  ( 1.224646799147353207E-16, 0.0000000000000000000, 1.000000000000000000 ) ) ;
#289 = ORIENTED_EDGE ( 'NONE', *, *, #77, .T. ) ;
#290 = CONICAL_SURFACE ( 'NONE', #107, 0.07866125999999999674, 0.1745329251994338637 ) ;
#291 = FACE_OUTER_BOUND ( 'NONE', #166, .T. ) ;
#292 = CYLINDRICAL_SURFACE ( 'NONE', #324, 0.07874000000000000443 ) ;
#293 =( LENGTH_UNIT ( ) NAMED_UNIT ( * ) SI_UNIT ( $, .METRE. ) );
#294 = CIRCLE ( 'NONE', #125, 0.07874000000000000443 ) ;
#295 = DIRECTION ( 'NONE',  ( 1.000000000000000000, 0.0000000000000000000, 0.0000000000000000000 ) ) ;
#296 = AXIS2_PLACEMENT_3D ( 'NONE', #122, #142, #262 ) ;
#297 = LINE ( 'NONE', #265, #156 ) ;
#298 = FILL_AREA_STYLE_COLOUR ( '', #303 ) ;
#299 = VECTOR ( 'NONE', #195, 39.37007874015748143 ) ;
#300 = ORIENTED_EDGE ( 'NONE', *, *, #269, .F. ) ;
#301 = EDGE_LOOP ( 'NONE', ( #136, #4, #230, #82 ) ) ;
#302 = VERTEX_POINT ( 'NONE', #25 ) ;
#303 = COLOUR_RGB ( '',0.7921568627450980005, 0.8196078431372548767, 0.9333333333333333481 ) ;
#304 = ORIENTED_EDGE ( 'NONE', *, *, #234, .F. ) ;
#305 = CARTESIAN_POINT ( 'NONE',  ( 0.0000000000000000000, 0.0000000000000000000, 0.0000000000000000000 ) ) ;
#306 = ADVANCED_FACE ( 'NONE', ( #246 ), #271, .T. ) ;
#307 = AXIS2_PLACEMENT_3D ( 'NONE', #211, #190, #266 ) ;
#308 = ORIENTED_EDGE ( 'NONE', *, *, #319, .F. ) ;
#309 = SURFACE_SIDE_STYLE ('',( #87 ) ) ;
#310 = SURFACE_SIDE_STYLE ('',( #198 ) ) ;
#311 = CARTESIAN_POINT ( 'NONE',  ( -0.06374000000000018540, 0.0000000000000000000, 1.968503999999999809 ) ) ;
#312 = CARTESIAN_POINT ( 'NONE',  ( 0.0000000000000000000, 0.0000000000000000000, 1.968503999999999809 ) ) ;
#313 = DIRECTION ( 'NONE',  ( 1.224646799147353207E-16, 1.000000000000000000, -0.0000000000000000000 ) ) ;
#314 = DIRECTION ( 'NONE',  ( 1.000000000000000000, 0.0000000000000000000, 0.0000000000000000000 ) ) ;
#315 = DIRECTION ( 'NONE',  ( 1.000000000000000000, 0.0000000000000000000, 0.0000000000000000000 ) ) ;
#316 = VERTEX_POINT ( 'NONE', #224 ) ;
#317 = DIRECTION ( 'NONE',  ( 0.0000000000000000000, 0.0000000000000000000, -1.000000000000000000 ) ) ;
#318 = DIRECTION ( 'NONE',  ( 1.224646799147353207E-16, 0.0000000000000000000, 1.000000000000000000 ) ) ;
#319 = EDGE_CURVE ( 'NONE', #84, #108, #53, .T. ) ;
#320 = FACE_OUTER_BOUND ( 'NONE', #301, .T. ) ;
#321 = DIRECTION ( 'NONE',  ( 0.0000000000000000000, 1.000000000000000000, 0.0000000000000000000 ) ) ;
#322 = APPLICATION_CONTEXT ( 'automotive_design' ) ;
#323 = CARTESIAN_POINT ( 'NONE',  ( 0.0000000000000000000, 0.0000000000000000000, 1.968503999999999809 ) ) ;
#324 = AXIS2_PLACEMENT_3D ( 'NONE', #323, #50, #152 ) ;
#325 = DIRECTION ( 'NONE',  ( -1.000000000000000000, 0.0000000000000000000, 0.0000000000000000000 ) ) ;
ENDSEC;
END-ISO-10303-21;
