ISO-10303-21;
HEADER;
FILE_DESCRIPTION (( 'STEP AP214' ),
    '1' );
FILE_NAME ('Micro_GEC-125-3-020.STEP',
    '2021-09-03T17:07:30',
    ( '' ),
    ( '' ),
    'SwSTEP 2.0',
    'SolidWorks 2020',
    '' );
FILE_SCHEMA (( 'AUTOMOTIVE_DESIGN' ));
ENDSEC;

DATA;
#1 = PRODUCT ( 'Micro_GEC-125-3-020', 'Micro_GEC-125-3-020', '', ( #67 ) ) ;
#2 = VERTEX_POINT ( 'NONE', #101 ) ;
#3 = CIRCLE ( 'NONE', #331, 0.06243750000000001382 ) ;
#4 = CIRCLE ( 'NONE', #116, 0.04243750000000000994 ) ;
#5 =( LENGTH_UNIT ( ) NAMED_UNIT ( * ) SI_UNIT ( $, .METRE. ) );
#6 = EDGE_CURVE ( 'NONE', #351, #106, #254, .T. ) ;
#7 = CARTESIAN_POINT ( 'NONE',  ( 0.04750000000000064587, 6.735557395310483192E-18, 1.500000000000000222 ) ) ;
#8 = AXIS2_PLACEMENT_3D ( 'NONE', #53, #124, #133 ) ;
#9 = AXIS2_PLACEMENT_3D ( 'NONE', #277, #325, #248 ) ;
#10 = CARTESIAN_POINT ( 'NONE',  ( -0.04243750000000000994, 5.197094853881581761E-18, 0.02000000000000000042 ) ) ;
#11 = CARTESIAN_POINT ( 'NONE',  ( 0.0000000000000000000, 0.0000000000000000000, 0.0000000000000000000 ) ) ;
#12 = CIRCLE ( 'NONE', #226, 0.02000000000000000042 ) ;
#13 = DIRECTION ( 'NONE',  ( 0.0000000000000000000, 0.0000000000000000000, 1.000000000000000000 ) ) ;
#14 = CARTESIAN_POINT ( 'NONE',  ( 0.0000000000000000000, 0.0000000000000000000, 1.500000000000000222 ) ) ;
#15 = LINE ( 'NONE', #119, #26 ) ;
#16 = PRODUCT_DEFINITION_FORMATION_WITH_SPECIFIED_SOURCE ( 'ANY', '', #1, .NOT_KNOWN. ) ;
#17 = DIRECTION ( 'NONE',  ( 0.1736481776669312749, 0.0000000000000000000, 0.9848077530122077983 ) ) ;
#18 = ORIENTED_EDGE ( 'NONE', *, *, #71, .F. ) ;
#19 = EDGE_LOOP ( 'NONE', ( #179, #103, #102, #183 ) ) ;
#20 = DIRECTION ( 'NONE',  ( 1.000000000000000000, 0.0000000000000000000, 0.0000000000000000000 ) ) ;
#21 = DIRECTION ( 'NONE',  ( -1.000000000000000000, 0.0000000000000000000, 0.0000000000000000000 ) ) ;
#22 = FACE_OUTER_BOUND ( 'NONE', #326, .T. ) ;
#23 = CARTESIAN_POINT ( 'NONE',  ( 0.0000000000000000000, 0.0000000000000000000, 1.485000000000000764 ) ) ;
#24 = ORIENTED_EDGE ( 'NONE', *, *, #112, .T. ) ;
#25 = EDGE_CURVE ( 'NONE', #106, #324, #75, .T. ) ;
#26 = VECTOR ( 'NONE', #344, 39.37007874015748854 ) ;
#27 = DIRECTION ( 'NONE',  ( -1.224646799147353700E-16, -0.0000000000000000000, -1.000000000000000000 ) ) ;
#28 = CARTESIAN_POINT ( 'NONE',  ( -0.06243749999999995137, 7.650215473423624771E-18, 0.5000000000000000000 ) ) ;
#29 = FACE_OUTER_BOUND ( 'NONE', #296, .T. ) ;
#30 = CIRCLE ( 'NONE', #152, 0.04243750000000000994 ) ;
#31 = EDGE_CURVE ( 'NONE', #349, #250, #3, .T. ) ;
#32 = CYLINDRICAL_SURFACE ( 'NONE', #9, 0.06243750000000001382 ) ;
#33 = AXIS2_PLACEMENT_3D ( 'NONE', #63, #204, #281 ) ;
#34 = EDGE_CURVE ( 'NONE', #106, #250, #188, .T. ) ;
#35 = ADVANCED_FACE ( 'NONE', ( #22 ), #39, .T. ) ;
#36 = SURFACE_STYLE_FILL_AREA ( #259 ) ;
#37 = AXIS2_PLACEMENT_3D ( 'NONE', #273, #27, #131 ) ;
#38 = TOROIDAL_SURFACE ( 'NONE', #312, 0.04243750000000000994, 0.02000000000000000042 ) ;
#39 = CYLINDRICAL_SURFACE ( 'NONE', #295, 0.06250000000000002776 ) ;
#40 = ADVANCED_FACE ( 'NONE', ( #95 ), #197, .T. ) ;
#41 = DIRECTION ( 'NONE',  ( 1.000000000000000000, 0.0000000000000000000, 0.0000000000000000000 ) ) ;
#42 = FACE_OUTER_BOUND ( 'NONE', #347, .T. ) ;
#43 = ADVANCED_FACE ( 'NONE', ( #286 ), #149, .T. ) ;
#44 = EDGE_LOOP ( 'NONE', ( #265, #138 ) ) ;
#45 = DIRECTION ( 'NONE',  ( 0.0000000000000000000, 0.0000000000000000000, -1.000000000000000000 ) ) ;
#46 = AXIS2_PLACEMENT_3D ( 'NONE', #14, #118, #339 ) ;
#47 = CIRCLE ( 'NONE', #195, 0.06250000000000002776 ) ;
#48 = ORIENTED_EDGE ( 'NONE', *, *, #144, .T. ) ;
#49 = PLANE ( 'NONE',  #232 ) ;
#50 = ORIENTED_EDGE ( 'NONE', *, *, #113, .T. ) ;
#51 = DIRECTION ( 'NONE',  ( -1.224646799147353700E-16, -0.0000000000000000000, -1.000000000000000000 ) ) ;
#52 = EDGE_LOOP ( 'NONE', ( #271, #154, #298, #130 ) ) ;
#53 = CARTESIAN_POINT ( 'NONE',  ( 6.123233995736768501E-17, 0.0000000000000000000, 0.5000000000000000000 ) ) ;
#54 = VERTEX_POINT ( 'NONE', #299 ) ;
#55 = CONICAL_SURFACE ( 'NONE', #301, 0.06243750000000001382, 0.1745329251994337805 ) ;
#56 = DIRECTION ( 'NONE',  ( 0.0000000000000000000, 0.0000000000000000000, 1.000000000000000000 ) ) ;
#57 = DIRECTION ( 'NONE',  ( -1.000000000000000000, 0.0000000000000000000, 0.0000000000000000000 ) ) ;
#58 = CLOSED_SHELL ( 'NONE', ( #40, #350, #140, #107, #35, #202, #43, #327, #338, #335, #225, #329 ) ) ;
#59 = PRODUCT_DEFINITION ( 'UNKNOWN', '', #16, #180 ) ;
#60 = UNCERTAINTY_MEASURE_WITH_UNIT (LENGTH_MEASURE( 1.000000000000000082E-05 ), #283, 'distance_accuracy_value', 'NONE');
#61 = CIRCLE ( 'NONE', #305, 0.04750000000000064587 ) ;
#62 = SURFACE_STYLE_FILL_AREA ( #304 ) ;
#63 = CARTESIAN_POINT ( 'NONE',  ( 0.0000000000000000000, 0.0000000000000000000, 1.500000000000000222 ) ) ;
#64 = EDGE_CURVE ( 'NONE', #318, #324, #160, .T. ) ;
#65 = CONICAL_SURFACE ( 'NONE', #245, 0.04750000000000064587, 0.7853981633974466137 ) ;
#66 = CARTESIAN_POINT ( 'NONE',  ( 0.0000000000000000000, 0.0000000000000000000, 1.500000000000000222 ) ) ;
#67 = PRODUCT_CONTEXT ( 'NONE', #187, 'mechanical' ) ;
#68 = CARTESIAN_POINT ( 'NONE',  ( 6.123233995736768501E-17, 0.0000000000000000000, 0.5000000000000000000 ) ) ;
#69 = DIRECTION ( 'NONE',  ( 0.0000000000000000000, 0.0000000000000000000, -1.000000000000000000 ) ) ;
#70 = DIMENSIONAL_EXPONENTS ( 1.000000000000000000, 0.0000000000000000000, 0.0000000000000000000, 0.0000000000000000000, 0.0000000000000000000, 0.0000000000000000000, 0.0000000000000000000 ) ;
#71 = EDGE_CURVE ( 'NONE', #106, #351, #114, .T. ) ;
#72 = STYLED_ITEM ( 'NONE', ( #109 ), #258 ) ;
#73 = DIRECTION ( 'NONE',  ( -1.000000000000000000, 0.0000000000000000000, 0.0000000000000000000 ) ) ;
#74 = DIRECTION ( 'NONE',  ( 0.0000000000000000000, 0.0000000000000000000, 1.000000000000000000 ) ) ;
#75 = LINE ( 'NONE', #321, #336 ) ;
#76 = ORIENTED_EDGE ( 'NONE', *, *, #256, .T. ) ;
#77 = EDGE_LOOP ( 'NONE', ( #127, #18, #211, #209 ) ) ;
#78 = LINE ( 'NONE', #234, #346 ) ;
#79 = ORIENTED_EDGE ( 'NONE', *, *, #170, .T. ) ;
#80 = AXIS2_PLACEMENT_3D ( 'NONE', #68, #253, #175 ) ;
#81 = EDGE_LOOP ( 'NONE', ( #293, #48, #163, #217 ) ) ;
#82 = DIRECTION ( 'NONE',  ( 0.0000000000000000000, 0.0000000000000000000, 1.000000000000000000 ) ) ;
#83 = ORIENTED_EDGE ( 'NONE', *, *, #172, .T. ) ;
#84 = CARTESIAN_POINT ( 'NONE',  ( 2.449293598294707539E-18, 0.0000000000000000000, 0.02000000000000000042 ) ) ;
#85 = AXIS2_PLACEMENT_3D ( 'NONE', #235, #214, #261 ) ;
#86 = CARTESIAN_POINT ( 'NONE',  ( 6.123233995736768501E-17, 0.0000000000000000000, 0.5000000000000000000 ) ) ;
#87 =( GEOMETRIC_REPRESENTATION_CONTEXT ( 3 ) GLOBAL_UNCERTAINTY_ASSIGNED_CONTEXT ( ( #60 ) ) GLOBAL_UNIT_ASSIGNED_CONTEXT ( ( #283, #334, #115 ) ) REPRESENTATION_CONTEXT ( 'NONE', 'WORKASPACE' ) );
#88 = DIRECTION ( 'NONE',  ( 1.000000000000000000, 0.0000000000000000000, 0.0000000000000000000 ) ) ;
#89 = DIRECTION ( 'NONE',  ( 0.0000000000000000000, 0.0000000000000000000, -1.000000000000000000 ) ) ;
#90 = CIRCLE ( 'NONE', #206, 0.02000000000000000042 ) ;
#91 = EDGE_CURVE ( 'NONE', #54, #250, #90, .T. ) ;
#92 = PRODUCT_DEFINITION_SHAPE ( 'NONE', 'NONE',  #59 ) ;
#93 = DIRECTION ( 'NONE',  ( 1.000000000000000000, 0.0000000000000000000, 0.0000000000000000000 ) ) ;
#94 = AXIS2_PLACEMENT_3D ( 'NONE', #181, #45, #21 ) ;
#95 = FACE_OUTER_BOUND ( 'NONE', #342, .T. ) ;
#96 = DIRECTION ( 'NONE',  ( -0.1736481776669310528, 2.126576849575781776E-17, 0.9848077530122080203 ) ) ;
#97 = CIRCLE ( 'NONE', #33, 0.04750000000000064587 ) ;
#98 = CARTESIAN_POINT ( 'NONE',  ( -0.06250000000000002776, 0.0000000000000000000, 1.485000000000000764 ) ) ;
#99 = ORIENTED_EDGE ( 'NONE', *, *, #34, .T. ) ;
#100 = CARTESIAN_POINT ( 'NONE',  ( -0.06243749999999995137, 7.646388452176288915E-18, 0.5000000000000000000 ) ) ;
#101 = CARTESIAN_POINT ( 'NONE',  ( -0.04243750000000000994, 6.421741653028935338E-18, 0.0000000000000000000 ) ) ;
#102 = ORIENTED_EDGE ( 'NONE', *, *, #303, .T. ) ;
#103 = ORIENTED_EDGE ( 'NONE', *, *, #71, .T. ) ;
#104 = ORIENTED_EDGE ( 'NONE', *, *, #64, .F. ) ;
#105 = FACE_OUTER_BOUND ( 'NONE', #186, .T. ) ;
#106 = VERTEX_POINT ( 'NONE', #263 ) ;
#107 = ADVANCED_FACE ( 'NONE', ( #105 ), #246, .T. ) ;
#108 =( NAMED_UNIT ( * ) SI_UNIT ( $, .STERADIAN. ) SOLID_ANGLE_UNIT ( ) );
#109 = PRESENTATION_STYLE_ASSIGNMENT (( #169 ) ) ;
#110 =( GEOMETRIC_REPRESENTATION_CONTEXT ( 3 ) GLOBAL_UNCERTAINTY_ASSIGNED_CONTEXT ( ( #227 ) ) GLOBAL_UNIT_ASSIGNED_CONTEXT ( ( #210, #190, #262 ) ) REPRESENTATION_CONTEXT ( 'NONE', 'WORKASPACE' ) );
#111 = DIRECTION ( 'NONE',  ( 0.0000000000000000000, 0.0000000000000000000, 1.000000000000000000 ) ) ;
#112 = EDGE_CURVE ( 'NONE', #316, #318, #291, .T. ) ;
#113 = EDGE_CURVE ( 'NONE', #220, #316, #264, .T. ) ;
#114 = CIRCLE ( 'NONE', #8, 0.06243750000000001382 ) ;
#115 =( NAMED_UNIT ( * ) SI_UNIT ( $, .STERADIAN. ) SOLID_ANGLE_UNIT ( ) );
#116 = AXIS2_PLACEMENT_3D ( 'NONE', #322, #289, #150 ) ;
#117 = ORIENTED_EDGE ( 'NONE', *, *, #112, .F. ) ;
#118 = DIRECTION ( 'NONE',  ( 0.0000000000000000000, 0.0000000000000000000, 1.000000000000000000 ) ) ;
#119 = CARTESIAN_POINT ( 'NONE',  ( 0.04750000000000064587, 5.817072295950006528E-18, 1.500000000000000222 ) ) ;
#120 = AXIS2_PLACEMENT_3D ( 'NONE', #11, #111, #93 ) ;
#121 = DIRECTION ( 'NONE',  ( 0.0000000000000000000, 0.0000000000000000000, 1.000000000000000000 ) ) ;
#122 = CARTESIAN_POINT ( 'NONE',  ( 0.06250000000000008327, 7.654042494670966789E-18, 0.5003544551137261154 ) ) ;
#123 = ORIENTED_EDGE ( 'NONE', *, *, #170, .F. ) ;
#124 = DIRECTION ( 'NONE',  ( -1.224646799147353700E-16, -0.0000000000000000000, -1.000000000000000000 ) ) ;
#125 = VERTEX_POINT ( 'NONE', #205 ) ;
#126 = DIRECTION ( 'NONE',  ( -0.0000000000000000000, -0.0000000000000000000, -1.000000000000000000 ) ) ;
#127 = ORIENTED_EDGE ( 'NONE', *, *, #144, .F. ) ;
#128 = CARTESIAN_POINT ( 'NONE',  ( -0.06250000000000002776, 0.0000000000000000000, 1.500000000000000222 ) ) ;
#129 = CARTESIAN_POINT ( 'NONE',  ( 6.127574818941429733E-17, 0.0000000000000000000, 0.5003544551137261154 ) ) ;
#130 = ORIENTED_EDGE ( 'NONE', *, *, #31, .F. ) ;
#131 = DIRECTION ( 'NONE',  ( 1.000000000000000000, 0.0000000000000000000, 0.0000000000000000000 ) ) ;
#132 = ORIENTED_EDGE ( 'NONE', *, *, #199, .T. ) ;
#133 = DIRECTION ( 'NONE',  ( -1.000000000000000000, 0.0000000000000000000, 0.0000000000000000000 ) ) ;
#134 = EDGE_LOOP ( 'NONE', ( #123, #50, #24, #222 ) ) ;
#135 = EDGE_CURVE ( 'NONE', #343, #125, #97, .T. ) ;
#136 = VECTOR ( 'NONE', #177, 39.37007874015748854 ) ;
#137 = EDGE_CURVE ( 'NONE', #125, #343, #61, .T. ) ;
#138 = ORIENTED_EDGE ( 'NONE', *, *, #135, .T. ) ;
#139 =( NAMED_UNIT ( * ) PLANE_ANGLE_UNIT ( ) SI_UNIT ( $, .RADIAN. ) );
#140 = ADVANCED_FACE ( 'NONE', ( #310 ), #168, .T. ) ;
#141 = MANIFOLD_SOLID_BREP ( 'Fillet1', #58 ) ;
#142 = AXIS2_PLACEMENT_3D ( 'NONE', #162, #278, #332 ) ;
#143 = DIRECTION ( 'NONE',  ( 0.0000000000000000000, 0.0000000000000000000, 1.000000000000000000 ) ) ;
#144 = EDGE_CURVE ( 'NONE', #351, #318, #313, .T. ) ;
#145 =( LENGTH_UNIT ( ) NAMED_UNIT ( * ) SI_UNIT ( $, .METRE. ) );
#146 = DIMENSIONAL_EXPONENTS ( 1.000000000000000000, 0.0000000000000000000, 0.0000000000000000000, 0.0000000000000000000, 0.0000000000000000000, 0.0000000000000000000, 0.0000000000000000000 ) ;
#147 = ORIENTED_EDGE ( 'NONE', *, *, #91, .F. ) ;
#148 = ORIENTED_EDGE ( 'NONE', *, *, #249, .T. ) ;
#149 = PLANE ( 'NONE',  #46 ) ;
#150 = DIRECTION ( 'NONE',  ( 1.000000000000000000, 0.0000000000000000000, 0.0000000000000000000 ) ) ;
#151 = DIRECTION ( 'NONE',  ( -0.0000000000000000000, -0.0000000000000000000, -1.000000000000000000 ) ) ;
#152 = AXIS2_PLACEMENT_3D ( 'NONE', #212, #323, #208 ) ;
#153 = ORIENTED_EDGE ( 'NONE', *, *, #135, .F. ) ;
#154 = ORIENTED_EDGE ( 'NONE', *, *, #166, .F. ) ;
#155 = ORIENTED_EDGE ( 'NONE', *, *, #172, .F. ) ;
#156 = DIMENSIONAL_EXPONENTS ( 1.000000000000000000, 0.0000000000000000000, 0.0000000000000000000, 0.0000000000000000000, 0.0000000000000000000, 0.0000000000000000000, 0.0000000000000000000 ) ;
#157 = ORIENTED_EDGE ( 'NONE', *, *, #249, .F. ) ;
#158 = CARTESIAN_POINT ( 'NONE',  ( 0.0000000000000000000, 0.0000000000000000000, 1.500000000000000222 ) ) ;
#159 = LINE ( 'NONE', #178, #228 ) ;
#160 = CIRCLE ( 'NONE', #37, 0.06250000000000002776 ) ;
#161 = COLOUR_RGB ( '',0.7921568627450980005, 0.8196078431372548767, 0.9333333333333333481 ) ;
#162 = CARTESIAN_POINT ( 'NONE',  ( 0.0000000000000000000, 0.0000000000000000000, 0.0000000000000000000 ) ) ;
#163 = ORIENTED_EDGE ( 'NONE', *, *, #64, .T. ) ;
#164 = EDGE_CURVE ( 'NONE', #2, #349, #12, .T. ) ;
#165 = DIRECTION ( 'NONE',  ( 1.000000000000000000, 0.0000000000000000000, 0.0000000000000000000 ) ) ;
#166 = EDGE_CURVE ( 'NONE', #54, #2, #30, .T. ) ;
#167 = LENGTH_MEASURE_WITH_UNIT ( LENGTH_MEASURE( 0.02539999999999999897 ), #5 );
#168 = CONICAL_SURFACE ( 'NONE', #80, 0.06243750000000001382, 0.1745329251994337805 ) ;
#169 = SURFACE_STYLE_USAGE ( .BOTH. , #306 ) ;
#170 = EDGE_CURVE ( 'NONE', #220, #324, #159, .T. ) ;
#171 = MECHANICAL_DESIGN_GEOMETRIC_PRESENTATION_REPRESENTATION (  '', ( #203 ), #110 ) ;
#172 = EDGE_CURVE ( 'NONE', #316, #220, #292, .T. ) ;
#173 = SHAPE_DEFINITION_REPRESENTATION ( #92, #258 ) ;
#174 = LENGTH_MEASURE_WITH_UNIT ( LENGTH_MEASURE( 0.02539999999999999897 ), #145 );
#175 = DIRECTION ( 'NONE',  ( 1.000000000000000000, 0.0000000000000000000, 0.0000000000000000000 ) ) ;
#176 =( GEOMETRIC_REPRESENTATION_CONTEXT ( 3 ) GLOBAL_UNCERTAINTY_ASSIGNED_CONTEXT ( ( #272 ) ) GLOBAL_UNIT_ASSIGNED_CONTEXT ( ( #300, #139, #108 ) ) REPRESENTATION_CONTEXT ( 'NONE', 'WORKASPACE' ) );
#177 = DIRECTION ( 'NONE',  ( -0.7071067811865462405, 0.0000000000000000000, -0.7071067811865486830 ) ) ;
#178 = CARTESIAN_POINT ( 'NONE',  ( 0.06250000000000002776, 7.654042494670959086E-18, 1.500000000000000222 ) ) ;
#179 = ORIENTED_EDGE ( 'NONE', *, *, #34, .F. ) ;
#180 = PRODUCT_DEFINITION_CONTEXT ( 'detailed design', #239, 'design' ) ;
#181 = CARTESIAN_POINT ( 'NONE',  ( 0.0000000000000000000, 0.0000000000000000000, 1.500000000000000222 ) ) ;
#182 = EDGE_CURVE ( 'NONE', #2, #54, #4, .T. ) ;
#183 = ORIENTED_EDGE ( 'NONE', *, *, #31, .T. ) ;
#184 = CARTESIAN_POINT ( 'NONE',  ( -0.06249999999999996531, 0.0000000000000000000, 0.5003544551137261154 ) ) ;
#185 = AXIS2_PLACEMENT_3D ( 'NONE', #284, #69, #308 ) ;
#186 = EDGE_LOOP ( 'NONE', ( #153, #76, #155, #157 ) ) ;
#187 = APPLICATION_CONTEXT ( 'automotive_design' ) ;
#188 = LINE ( 'NONE', #314, #223 ) ;
#189 = EDGE_CURVE ( 'NONE', #324, #318, #47, .T. ) ;
#190 =( NAMED_UNIT ( * ) PLANE_ANGLE_UNIT ( ) SI_UNIT ( $, .RADIAN. ) );
#191 = DIRECTION ( 'NONE',  ( 0.0000000000000000000, -1.000000000000000000, 0.0000000000000000000 ) ) ;
#192 = DIRECTION ( 'NONE',  ( -0.0000000000000000000, -0.0000000000000000000, -1.000000000000000000 ) ) ;
#193 = CYLINDRICAL_SURFACE ( 'NONE', #216, 0.06250000000000002776 ) ;
#194 = EDGE_LOOP ( 'NONE', ( #267, #244, #148, #290 ) ) ;
#195 = AXIS2_PLACEMENT_3D ( 'NONE', #129, #51, #20 ) ;
#196 = FACE_OUTER_BOUND ( 'NONE', #19, .T. ) ;
#197 = TOROIDAL_SURFACE ( 'NONE', #279, 0.04243750000000000994, 0.02000000000000000042 ) ;
#198 = APPLICATION_PROTOCOL_DEFINITION ( 'draft international standard', 'automotive_design', 1998, #187 ) ;
#199 = EDGE_CURVE ( 'NONE', #250, #349, #333, .T. ) ;
#200 = PRODUCT_RELATED_PRODUCT_CATEGORY ( 'part', '', ( #1 ) ) ;
#201 = FILL_AREA_STYLE_COLOUR ( '', #280 ) ;
#202 = ADVANCED_FACE ( 'NONE', ( #297 ), #193, .T. ) ;
#203 = STYLED_ITEM ( 'NONE', ( #311 ), #141 ) ;
#204 = DIRECTION ( 'NONE',  ( 0.0000000000000000000, 0.0000000000000000000, 1.000000000000000000 ) ) ;
#205 = CARTESIAN_POINT ( 'NONE',  ( -0.04750000000000064587, 0.0000000000000000000, 1.500000000000000222 ) ) ;
#206 = AXIS2_PLACEMENT_3D ( 'NONE', #319, #191, #243 ) ;
#207 = VECTOR ( 'NONE', #96, 39.37007874015748854 ) ;
#208 = DIRECTION ( 'NONE',  ( 1.000000000000000000, 0.0000000000000000000, 0.0000000000000000000 ) ) ;
#209 = ORIENTED_EDGE ( 'NONE', *, *, #189, .T. ) ;
#210 =( CONVERSION_BASED_UNIT ( 'INCH', #294 ) LENGTH_UNIT ( ) NAMED_UNIT ( #156 ) );
#211 = ORIENTED_EDGE ( 'NONE', *, *, #25, .T. ) ;
#212 = CARTESIAN_POINT ( 'NONE',  ( 2.449293598294707539E-18, 0.0000000000000000000, 0.0000000000000000000 ) ) ;
#213 = ORIENTED_EDGE ( 'NONE', *, *, #182, .F. ) ;
#214 = DIRECTION ( 'NONE',  ( -1.224646799147353700E-16, -0.0000000000000000000, -1.000000000000000000 ) ) ;
#215 = DIRECTION ( 'NONE',  ( 1.000000000000000000, 0.0000000000000000000, 0.0000000000000000000 ) ) ;
#216 = AXIS2_PLACEMENT_3D ( 'NONE', #158, #126, #237 ) ;
#217 = ORIENTED_EDGE ( 'NONE', *, *, #25, .F. ) ;
#218 = CARTESIAN_POINT ( 'NONE',  ( 0.0000000000000000000, 0.0000000000000000000, 1.500000000000000222 ) ) ;
#219 = DIRECTION ( 'NONE',  ( 0.0000000000000000000, 0.0000000000000000000, -1.000000000000000000 ) ) ;
#220 = VERTEX_POINT ( 'NONE', #270 ) ;
#221 = CARTESIAN_POINT ( 'NONE',  ( -0.06243749999999999994, 0.0000000000000000000, 0.02000000000000000042 ) ) ;
#222 = ORIENTED_EDGE ( 'NONE', *, *, #189, .F. ) ;
#223 = VECTOR ( 'NONE', #269, 39.37007874015748143 ) ;
#224 = CARTESIAN_POINT ( 'NONE',  ( 2.449293598294707539E-18, 0.0000000000000000000, 0.02000000000000000042 ) ) ;
#225 = ADVANCED_FACE ( 'NONE', ( #42 ), #49, .F. ) ;
#226 = AXIS2_PLACEMENT_3D ( 'NONE', #10, #348, #268 ) ;
#227 = UNCERTAINTY_MEASURE_WITH_UNIT (LENGTH_MEASURE( 1.000000000000000082E-05 ), #210, 'distance_accuracy_value', 'NONE');
#228 = VECTOR ( 'NONE', #151, 39.37007874015748143 ) ;
#229 = SURFACE_STYLE_USAGE ( .BOTH. , #255 ) ;
#230 =( LENGTH_UNIT ( ) NAMED_UNIT ( * ) SI_UNIT ( $, .METRE. ) );
#231 = DIRECTION ( 'NONE',  ( 1.000000000000000000, 0.0000000000000000000, 0.0000000000000000000 ) ) ;
#232 = AXIS2_PLACEMENT_3D ( 'NONE', #337, #74, #317 ) ;
#233 = ORIENTED_EDGE ( 'NONE', *, *, #182, .T. ) ;
#234 = CARTESIAN_POINT ( 'NONE',  ( -0.06243750000000001382, 0.0000000000000000000, 7.646388452176291997E-18 ) ) ;
#235 = CARTESIAN_POINT ( 'NONE',  ( 6.123233995736768501E-17, 0.0000000000000000000, 0.5000000000000000000 ) ) ;
#236 = FACE_OUTER_BOUND ( 'NONE', #194, .T. ) ;
#237 = DIRECTION ( 'NONE',  ( -1.000000000000000000, 0.0000000000000000000, 0.0000000000000000000 ) ) ;
#238 = ORIENTED_EDGE ( 'NONE', *, *, #164, .T. ) ;
#239 = APPLICATION_CONTEXT ( 'automotive_design' ) ;
#240 = ORIENTED_EDGE ( 'NONE', *, *, #6, .T. ) ;
#241 = LINE ( 'NONE', #266, #136 ) ;
#242 = FACE_OUTER_BOUND ( 'NONE', #52, .T. ) ;
#243 = DIRECTION ( 'NONE',  ( 0.0000000000000000000, 0.0000000000000000000, -1.000000000000000000 ) ) ;
#244 = ORIENTED_EDGE ( 'NONE', *, *, #137, .F. ) ;
#245 = AXIS2_PLACEMENT_3D ( 'NONE', #341, #89, #57 ) ;
#246 = CONICAL_SURFACE ( 'NONE', #94, 0.04750000000000064587, 0.7853981633974466137 ) ;
#247 = DIRECTION ( 'NONE',  ( 1.224646799147353700E-16, 0.0000000000000000000, 1.000000000000000000 ) ) ;
#248 = DIRECTION ( 'NONE',  ( -1.000000000000000000, 0.0000000000000000000, 1.224646799147353700E-16 ) ) ;
#249 = EDGE_CURVE ( 'NONE', #125, #316, #241, .T. ) ;
#250 = VERTEX_POINT ( 'NONE', #287 ) ;
#251 = VECTOR ( 'NONE', #285, 39.37007874015748143 ) ;
#252 = MECHANICAL_DESIGN_GEOMETRIC_PRESENTATION_REPRESENTATION (  '', ( #72 ), #87 ) ;
#253 = DIRECTION ( 'NONE',  ( 1.224646799147353700E-16, 0.0000000000000000000, 1.000000000000000000 ) ) ;
#254 = CIRCLE ( 'NONE', #85, 0.06243750000000001382 ) ;
#255 = SURFACE_SIDE_STYLE ('',( #36 ) ) ;
#256 = EDGE_CURVE ( 'NONE', #343, #220, #15, .T. ) ;
#257 = AXIS2_PLACEMENT_3D ( 'NONE', #23, #219, #215 ) ;
#258 = ADVANCED_BREP_SHAPE_REPRESENTATION ( 'Micro_GEC-125-3-020', ( #141, #120 ), #176 ) ;
#259 = FILL_AREA_STYLE ('',( #201 ) ) ;
#260 = CARTESIAN_POINT ( 'NONE',  ( 2.449293598294707539E-18, 0.0000000000000000000, 0.02000000000000000042 ) ) ;
#261 = DIRECTION ( 'NONE',  ( -1.000000000000000000, 0.0000000000000000000, 0.0000000000000000000 ) ) ;
#262 =( NAMED_UNIT ( * ) SI_UNIT ( $, .STERADIAN. ) SOLID_ANGLE_UNIT ( ) );
#263 = CARTESIAN_POINT ( 'NONE',  ( 0.06243750000000006933, 0.0000000000000000000, 0.5000000000000000000 ) ) ;
#264 = CIRCLE ( 'NONE', #185, 0.06250000000000002776 ) ;
#265 = ORIENTED_EDGE ( 'NONE', *, *, #137, .T. ) ;
#266 = CARTESIAN_POINT ( 'NONE',  ( -0.04750000000000064587, 0.0000000000000000000, 1.500000000000000222 ) ) ;
#267 = ORIENTED_EDGE ( 'NONE', *, *, #256, .F. ) ;
#268 = DIRECTION ( 'NONE',  ( -1.000000000000000000, 1.224646799147353454E-16, 0.0000000000000000000 ) ) ;
#269 = DIRECTION ( 'NONE',  ( -1.224646799147353700E-16, -0.0000000000000000000, -1.000000000000000000 ) ) ;
#270 = CARTESIAN_POINT ( 'NONE',  ( 0.06250000000000002776, 7.654042494670959086E-18, 1.485000000000000764 ) ) ;
#271 = ORIENTED_EDGE ( 'NONE', *, *, #164, .F. ) ;
#272 = UNCERTAINTY_MEASURE_WITH_UNIT (LENGTH_MEASURE( 1.000000000000000082E-05 ), #300, 'distance_accuracy_value', 'NONE');
#273 = CARTESIAN_POINT ( 'NONE',  ( 6.127574818941429733E-17, 0.0000000000000000000, 0.5003544551137261154 ) ) ;
#274 = DIRECTION ( 'NONE',  ( 1.000000000000000000, 0.0000000000000000000, 0.0000000000000000000 ) ) ;
#275 = PRESENTATION_LAYER_ASSIGNMENT (  '', '', ( #72 ) ) ;
#276 = ORIENTED_EDGE ( 'NONE', *, *, #303, .F. ) ;
#277 = CARTESIAN_POINT ( 'NONE',  ( 0.0000000000000000000, 0.0000000000000000000, 0.0000000000000000000 ) ) ;
#278 = DIRECTION ( 'NONE',  ( -1.224646799147353700E-16, -0.0000000000000000000, -1.000000000000000000 ) ) ;
#279 = AXIS2_PLACEMENT_3D ( 'NONE', #260, #13, #41 ) ;
#280 = COLOUR_RGB ( '',0.7921568627450980005, 0.8196078431372548767, 0.9333333333333333481 ) ;
#281 = DIRECTION ( 'NONE',  ( 1.000000000000000000, 0.0000000000000000000, 0.0000000000000000000 ) ) ;
#282 = PRESENTATION_LAYER_ASSIGNMENT (  '', '', ( #203 ) ) ;
#283 =( CONVERSION_BASED_UNIT ( 'INCH', #174 ) LENGTH_UNIT ( ) NAMED_UNIT ( #70 ) );
#284 = CARTESIAN_POINT ( 'NONE',  ( 0.0000000000000000000, 0.0000000000000000000, 1.485000000000000764 ) ) ;
#285 = DIRECTION ( 'NONE',  ( -0.0000000000000000000, -0.0000000000000000000, -1.000000000000000000 ) ) ;
#286 = FACE_OUTER_BOUND ( 'NONE', #44, .T. ) ;
#287 = CARTESIAN_POINT ( 'NONE',  ( 0.06243750000000001382, 7.646388452176288915E-18, 0.02000000000000000042 ) ) ;
#288 = CARTESIAN_POINT ( 'NONE',  ( 2.449293598294707539E-18, 0.0000000000000000000, 0.02000000000000000042 ) ) ;
#289 = DIRECTION ( 'NONE',  ( -0.0000000000000000000, -0.0000000000000000000, -1.000000000000000000 ) ) ;
#290 = ORIENTED_EDGE ( 'NONE', *, *, #113, .F. ) ;
#291 = LINE ( 'NONE', #128, #251 ) ;
#292 = CIRCLE ( 'NONE', #257, 0.06250000000000002776 ) ;
#293 = ORIENTED_EDGE ( 'NONE', *, *, #6, .F. ) ;
#294 = LENGTH_MEASURE_WITH_UNIT ( LENGTH_MEASURE( 0.02539999999999999897 ), #230 );
#295 = AXIS2_PLACEMENT_3D ( 'NONE', #218, #192, #73 ) ;
#296 = EDGE_LOOP ( 'NONE', ( #240, #99, #132, #276 ) ) ;
#297 = FACE_OUTER_BOUND ( 'NONE', #134, .T. ) ;
#298 = ORIENTED_EDGE ( 'NONE', *, *, #91, .T. ) ;
#299 = CARTESIAN_POINT ( 'NONE',  ( 0.04243750000000000994, 0.0000000000000000000, 0.0000000000000000000 ) ) ;
#300 =( CONVERSION_BASED_UNIT ( 'INCH', #167 ) LENGTH_UNIT ( ) NAMED_UNIT ( #146 ) );
#301 = AXIS2_PLACEMENT_3D ( 'NONE', #86, #247, #88 ) ;
#302 = FACE_OUTER_BOUND ( 'NONE', #77, .T. ) ;
#303 = EDGE_CURVE ( 'NONE', #351, #349, #78, .T. ) ;
#304 = FILL_AREA_STYLE ('',( #330 ) ) ;
#305 = AXIS2_PLACEMENT_3D ( 'NONE', #66, #143, #309 ) ;
#306 = SURFACE_SIDE_STYLE ('',( #62 ) ) ;
#307 = APPLICATION_PROTOCOL_DEFINITION ( 'draft international standard', 'automotive_design', 1998, #239 ) ;
#308 = DIRECTION ( 'NONE',  ( 1.000000000000000000, 0.0000000000000000000, 0.0000000000000000000 ) ) ;
#309 = DIRECTION ( 'NONE',  ( 1.000000000000000000, 0.0000000000000000000, 0.0000000000000000000 ) ) ;
#310 = FACE_OUTER_BOUND ( 'NONE', #81, .T. ) ;
#311 = PRESENTATION_STYLE_ASSIGNMENT (( #229 ) ) ;
#312 = AXIS2_PLACEMENT_3D ( 'NONE', #224, #56, #165 ) ;
#313 = LINE ( 'NONE', #100, #207 ) ;
#314 = CARTESIAN_POINT ( 'NONE',  ( 0.06243750000000001382, 7.646388452176288915E-18, -7.646388452176291997E-18 ) ) ;
#315 = ORIENTED_EDGE ( 'NONE', *, *, #166, .T. ) ;
#316 = VERTEX_POINT ( 'NONE', #98 ) ;
#317 = DIRECTION ( 'NONE',  ( 1.000000000000000000, 0.0000000000000000000, -0.0000000000000000000 ) ) ;
#318 = VERTEX_POINT ( 'NONE', #184 ) ;
#319 = CARTESIAN_POINT ( 'NONE',  ( 0.04243750000000000994, 0.0000000000000000000, 0.02000000000000000042 ) ) ;
#320 = AXIS2_PLACEMENT_3D ( 'NONE', #84, #82, #274 ) ;
#321 = CARTESIAN_POINT ( 'NONE',  ( 0.06243750000000006933, 0.0000000000000000000, 0.5000000000000000000 ) ) ;
#322 = CARTESIAN_POINT ( 'NONE',  ( 2.449293598294707539E-18, 0.0000000000000000000, 0.0000000000000000000 ) ) ;
#323 = DIRECTION ( 'NONE',  ( -0.0000000000000000000, -0.0000000000000000000, -1.000000000000000000 ) ) ;
#324 = VERTEX_POINT ( 'NONE', #122 ) ;
#325 = DIRECTION ( 'NONE',  ( -1.224646799147353700E-16, -0.0000000000000000000, -1.000000000000000000 ) ) ;
#326 = EDGE_LOOP ( 'NONE', ( #83, #79, #104, #117 ) ) ;
#327 = ADVANCED_FACE ( 'NONE', ( #236 ), #65, .T. ) ;
#328 = CYLINDRICAL_SURFACE ( 'NONE', #142, 0.06243750000000001382 ) ;
#329 = ADVANCED_FACE ( 'NONE', ( #242 ), #38, .T. ) ;
#330 = FILL_AREA_STYLE_COLOUR ( '', #161 ) ;
#331 = AXIS2_PLACEMENT_3D ( 'NONE', #288, #121, #231 ) ;
#332 = DIRECTION ( 'NONE',  ( -1.000000000000000000, 0.0000000000000000000, 1.224646799147353700E-16 ) ) ;
#333 = CIRCLE ( 'NONE', #320, 0.06243750000000001382 ) ;
#334 =( NAMED_UNIT ( * ) PLANE_ANGLE_UNIT ( ) SI_UNIT ( $, .RADIAN. ) );
#335 = ADVANCED_FACE ( 'NONE', ( #196 ), #328, .T. ) ;
#336 = VECTOR ( 'NONE', #17, 39.37007874015748143 ) ;
#337 = CARTESIAN_POINT ( 'NONE',  ( 0.0000000000000000000, 0.0000000000000000000, 0.0000000000000000000 ) ) ;
#338 = ADVANCED_FACE ( 'NONE', ( #302 ), #55, .T. ) ;
#339 = DIRECTION ( 'NONE',  ( 1.000000000000000000, 0.0000000000000000000, -0.0000000000000000000 ) ) ;
#340 = DIRECTION ( 'NONE',  ( -1.224646799147353700E-16, -0.0000000000000000000, -1.000000000000000000 ) ) ;
#341 = CARTESIAN_POINT ( 'NONE',  ( 0.0000000000000000000, 0.0000000000000000000, 1.500000000000000222 ) ) ;
#342 = EDGE_LOOP ( 'NONE', ( #213, #238, #345, #147 ) ) ;
#343 = VERTEX_POINT ( 'NONE', #7 ) ;
#344 = DIRECTION ( 'NONE',  ( 0.7071067811865462405, 8.659560562354916834E-17, -0.7071067811865486830 ) ) ;
#345 = ORIENTED_EDGE ( 'NONE', *, *, #199, .F. ) ;
#346 = VECTOR ( 'NONE', #340, 39.37007874015748143 ) ;
#347 = EDGE_LOOP ( 'NONE', ( #315, #233 ) ) ;
#348 = DIRECTION ( 'NONE',  ( 1.224646799147353207E-16, 1.000000000000000000, -0.0000000000000000000 ) ) ;
#349 = VERTEX_POINT ( 'NONE', #221 ) ;
#350 = ADVANCED_FACE ( 'NONE', ( #29 ), #32, .T. ) ;
#351 = VERTEX_POINT ( 'NONE', #28 ) ;
ENDSEC;
END-ISO-10303-21;
