ISO-10303-21;
HEADER;
FILE_DESCRIPTION (( 'STEP AP214' ),
    '1' );
FILE_NAME ('30647W.STEP',
    '2023-06-22T18:53:43',
    ( '' ),
    ( '' ),
    'SwSTEP 2.0',
    'SolidWorks 2023',
    '' );
FILE_SCHEMA (( 'AUTOMOTIVE_DESIGN' ));
ENDSEC;

DATA;
#1 = MECHANICAL_DESIGN_GEOMETRIC_PRESENTATION_REPRESENTATION (  '', ( #159 ), #164 ) ;
#2 =( CONVERSION_BASED_UNIT ( 'INCH', #175 ) LENGTH_UNIT ( ) NAMED_UNIT ( #210 ) );
#3 = CARTESIAN_POINT ( 'NONE',  ( -1.224646799147352714E-16, 4.000000000000000000, 0.000000000000000000 ) ) ;
#4 = SURFACE_STYLE_FILL_AREA ( #27 ) ;
#5 = DIRECTION ( 'NONE',  ( -4.453261087808555212E-17, 1.000000000000000000, -0.000000000000000000 ) ) ;
#6 = SURFACE_SIDE_STYLE ('',( #172 ) ) ;
#7 = SHAPE_DEFINITION_REPRESENTATION ( #98, #77 ) ;
#8 =( LENGTH_UNIT ( ) NAMED_UNIT ( * ) SI_UNIT ( $, .METRE. ) );
#9 =( LENGTH_UNIT ( ) NAMED_UNIT ( * ) SI_UNIT ( $, .METRE. ) );
#10 = LENGTH_MEASURE_WITH_UNIT ( LENGTH_MEASURE( 0.02539999999999999897 ), #267 );
#11 = CARTESIAN_POINT ( 'NONE',  ( 4.592425496802575451E-17, 0.000000000000000000, 0.3750000000000000555 ) ) ;
#12 = CARTESIAN_POINT ( 'NONE',  ( 0.000000000000000000, 1.250000000000000000, 0.000000000000000000 ) ) ;
#13 = UNCERTAINTY_MEASURE_WITH_UNIT (LENGTH_MEASURE( 1.000000000000000082E-05 ), #190, 'distance_accuracy_value', 'NONE');
#14 = PRESENTATION_LAYER_ASSIGNMENT (  '', '', ( #106 ) ) ;
#15 = DIRECTION ( 'NONE',  ( -0.000000000000000000, -1.000000000000000000, -0.000000000000000000 ) ) ;
#16 = SURFACE_SIDE_STYLE ('',( #71 ) ) ;
#17 =( CONVERSION_BASED_UNIT ( 'INCH', #31 ) LENGTH_UNIT ( ) NAMED_UNIT ( #20 ) );
#18 = AXIS2_PLACEMENT_3D ( 'NONE', #246, #130, #114 ) ;
#19 = VERTEX_POINT ( 'NONE', #290 ) ;
#20 = DIMENSIONAL_EXPONENTS ( 1.000000000000000000, 0.000000000000000000, 0.000000000000000000, 0.000000000000000000, 0.000000000000000000, 0.000000000000000000, 0.000000000000000000 ) ;
#21 = ORIENTED_EDGE ( 'NONE', *, *, #146, .T. ) ;
#22 = ORIENTED_EDGE ( 'NONE', *, *, #63, .T. ) ;
#23 = COLOUR_RGB ( '',1.000000000000000000, 0.000000000000000000, 0.000000000000000000 ) ;
#24 = PRODUCT_DEFINITION_FORMATION_WITH_SPECIFIED_SOURCE ( 'ANY', '', #230, .NOT_KNOWN. ) ;
#25 = ADVANCED_FACE ( 'NONE', ( #29 ), #280, .T. ) ;
#26 = AXIS2_PLACEMENT_3D ( 'NONE', #3, #179, #60 ) ;
#27 = FILL_AREA_STYLE ('',( #275 ) ) ;
#28 = CARTESIAN_POINT ( 'NONE',  ( 0.000000000000000000, 1.250000000000000000, 0.000000000000000000 ) ) ;
#29 = FACE_OUTER_BOUND ( 'NONE', #207, .T. ) ;
#30 = COLOUR_RGB ( '',0.7921568627450980005, 0.8196078431372548767, 0.9333333333333333481 ) ;
#31 = LENGTH_MEASURE_WITH_UNIT ( LENGTH_MEASURE( 0.02539999999999999897 ), #142 );
#32 = DIRECTION ( 'NONE',  ( -1.000000000000000000, -4.453261087808555212E-17, 0.000000000000000000 ) ) ;
#33 = FACE_OUTER_BOUND ( 'NONE', #258, .T. ) ;
#34 = EDGE_CURVE ( 'NONE', #191, #304, #202, .T. ) ;
#35 = DIRECTION ( 'NONE',  ( -4.453261087808555212E-17, 1.000000000000000000, -0.000000000000000000 ) ) ;
#36 = SURFACE_STYLE_USAGE ( .BOTH. , #6 ) ;
#37 = VECTOR ( 'NONE', #65, 39.37007874015748143 ) ;
#38 = SURFACE_STYLE_USAGE ( .BOTH. , #16 ) ;
#39 = DIRECTION ( 'NONE',  ( -4.453261087808555212E-17, 1.000000000000000000, -0.000000000000000000 ) ) ;
#40 = ORIENTED_EDGE ( 'NONE', *, *, #34, .F. ) ;
#41 = AXIS2_PLACEMENT_3D ( 'NONE', #194, #131, #83 ) ;
#42 = PRODUCT_DEFINITION ( 'UNKNOWN', '', #24, #227 ) ;
#43 = DIMENSIONAL_EXPONENTS ( 1.000000000000000000, 0.000000000000000000, 0.000000000000000000, 0.000000000000000000, 0.000000000000000000, 0.000000000000000000, 0.000000000000000000 ) ;
#44 = ORIENTED_EDGE ( 'NONE', *, *, #182, .F. ) ;
#45 =( NAMED_UNIT ( * ) SI_UNIT ( $, .STERADIAN. ) SOLID_ANGLE_UNIT ( ) );
#46 =( NAMED_UNIT ( * ) PLANE_ANGLE_UNIT ( ) SI_UNIT ( $, .RADIAN. ) );
#47 = ORIENTED_EDGE ( 'NONE', *, *, #74, .F. ) ;
#48 = DIMENSIONAL_EXPONENTS ( 1.000000000000000000, 0.000000000000000000, 0.000000000000000000, 0.000000000000000000, 0.000000000000000000, 0.000000000000000000, 0.000000000000000000 ) ;
#49 = AXIS2_PLACEMENT_3D ( 'NONE', #51, #180, #276 ) ;
#50 =( NAMED_UNIT ( * ) PLANE_ANGLE_UNIT ( ) SI_UNIT ( $, .RADIAN. ) );
#51 = CARTESIAN_POINT ( 'NONE',  ( -1.224646799147352714E-16, 4.000000000000000000, 0.000000000000000000 ) ) ;
#52 =( NAMED_UNIT ( * ) SI_UNIT ( $, .STERADIAN. ) SOLID_ANGLE_UNIT ( ) );
#53 = APPLICATION_CONTEXT ( 'automotive_design' ) ;
#54 =( GEOMETRIC_REPRESENTATION_CONTEXT ( 3 ) GLOBAL_UNCERTAINTY_ASSIGNED_CONTEXT ( ( #170 ) ) GLOBAL_UNIT_ASSIGNED_CONTEXT ( ( #2, #257, #122 ) ) REPRESENTATION_CONTEXT ( 'NONE', 'WORKASPACE' ) );
#55 = ADVANCED_FACE ( 'NONE', ( #169 ), #187, .T. ) ;
#56 = PLANE ( 'NONE',  #18 ) ;
#57 =( NAMED_UNIT ( * ) PLANE_ANGLE_UNIT ( ) SI_UNIT ( $, .RADIAN. ) );
#58 = PRESENTATION_LAYER_ASSIGNMENT (  '', '', ( #87 ) ) ;
#59 =( GEOMETRIC_REPRESENTATION_CONTEXT ( 3 ) GLOBAL_UNCERTAINTY_ASSIGNED_CONTEXT ( ( #79 ) ) GLOBAL_UNIT_ASSIGNED_CONTEXT ( ( #80, #57, #245 ) ) REPRESENTATION_CONTEXT ( 'NONE', 'WORKASPACE' ) );
#60 = DIRECTION ( 'NONE',  ( -1.000000000000000000, 0.000000000000000000, 0.000000000000000000 ) ) ;
#61 = FILL_AREA_STYLE_COLOUR ( '', #30 ) ;
#62 = DIRECTION ( 'NONE',  ( 0.000000000000000000, 0.000000000000000000, -1.000000000000000000 ) ) ;
#63 = EDGE_CURVE ( 'NONE', #206, #73, #171, .T. ) ;
#64 = CARTESIAN_POINT ( 'NONE',  ( 0.3750000000000000555, 4.000000000000000000, 0.000000000000000000 ) ) ;
#65 = DIRECTION ( 'NONE',  ( -0.000000000000000000, -1.000000000000000000, -0.000000000000000000 ) ) ;
#66 = DIRECTION ( 'NONE',  ( 4.453261087808555212E-17, -1.000000000000000000, 0.000000000000000000 ) ) ;
#67 = ADVANCED_FACE ( 'NONE', ( #200 ), #119, .F. ) ;
#68 = AXIS2_PLACEMENT_3D ( 'NONE', #139, #197, #253 ) ;
#69 = SURFACE_SIDE_STYLE ('',( #94 ) ) ;
#70 = PRODUCT_RELATED_PRODUCT_CATEGORY ( 'part', '', ( #230 ) ) ;
#71 = SURFACE_STYLE_FILL_AREA ( #85 ) ;
#72 = ORIENTED_EDGE ( 'NONE', *, *, #100, .F. ) ;
#73 = VERTEX_POINT ( 'NONE', #221 ) ;
#74 = EDGE_CURVE ( 'NONE', #19, #165, #178, .T. ) ;
#75 = DIRECTION ( 'NONE',  ( 0.000000000000000000, 0.000000000000000000, -1.000000000000000000 ) ) ;
#76 = ORIENTED_EDGE ( 'NONE', *, *, #34, .T. ) ;
#77 = ADVANCED_BREP_SHAPE_REPRESENTATION ( '30647W', ( #108, #305, #97 ), #117 ) ;
#78 = AXIS2_PLACEMENT_3D ( 'NONE', #64, #66, #141 ) ;
#79 = UNCERTAINTY_MEASURE_WITH_UNIT (LENGTH_MEASURE( 1.000000000000000082E-05 ), #80, 'distance_accuracy_value', 'NONE');
#80 =( CONVERSION_BASED_UNIT ( 'INCH', #10 ) LENGTH_UNIT ( ) NAMED_UNIT ( #168 ) );
#81 = STYLED_ITEM ( 'NONE', ( #152 ), #219 ) ;
#82 = UNCERTAINTY_MEASURE_WITH_UNIT (LENGTH_MEASURE( 1.000000000000000082E-05 ), #185, 'distance_accuracy_value', 'NONE');
#83 = DIRECTION ( 'NONE',  ( 0.000000000000000000, 0.000000000000000000, -1.000000000000000000 ) ) ;
#84 = EDGE_CURVE ( 'NONE', #19, #206, #156, .T. ) ;
#85 = FILL_AREA_STYLE ('',( #61 ) ) ;
#86 = CYLINDRICAL_SURFACE ( 'NONE', #225, 0.3750000000000001110 ) ;
#87 = STYLED_ITEM ( 'NONE', ( #120 ), #25 ) ;
#88 = MECHANICAL_DESIGN_GEOMETRIC_PRESENTATION_REPRESENTATION (  '', ( #121 ), #226 ) ;
#89 =( NAMED_UNIT ( * ) PLANE_ANGLE_UNIT ( ) SI_UNIT ( $, .RADIAN. ) );
#90 = CARTESIAN_POINT ( 'NONE',  ( 0.3750000000000000555, 1.250000000000000000, 4.592425496802576684E-17 ) ) ;
#91 = UNCERTAINTY_MEASURE_WITH_UNIT (LENGTH_MEASURE( 1.000000000000000082E-05 ), #282, 'distance_accuracy_value', 'NONE');
#92 = CARTESIAN_POINT ( 'NONE',  ( 0.000000000000000000, 0.000000000000000000, 0.000000000000000000 ) ) ;
#93 = FILL_AREA_STYLE_COLOUR ( '', #278 ) ;
#94 = SURFACE_STYLE_FILL_AREA ( #231 ) ;
#95 =( LENGTH_UNIT ( ) NAMED_UNIT ( * ) SI_UNIT ( $, .METRE. ) );
#96 = AXIS2_PLACEMENT_3D ( 'NONE', #136, #15, #272 ) ;
#97 = AXIS2_PLACEMENT_3D ( 'NONE', #196, #251, #112 ) ;
#98 = PRODUCT_DEFINITION_SHAPE ( 'NONE', 'NONE',  #42 ) ;
#99 = ORIENTED_EDGE ( 'NONE', *, *, #84, .T. ) ;
#100 = EDGE_CURVE ( 'NONE', #209, #147, #115, .T. ) ;
#101 = CIRCLE ( 'NONE', #208, 0.3750000000000000555 ) ;
#102 = ORIENTED_EDGE ( 'NONE', *, *, #104, .F. ) ;
#103 = CIRCLE ( 'NONE', #241, 0.3750000000000000555 ) ;
#104 = EDGE_CURVE ( 'NONE', #147, #304, #292, .T. ) ;
#105 =( NAMED_UNIT ( * ) SI_UNIT ( $, .STERADIAN. ) SOLID_ANGLE_UNIT ( ) );
#106 = STYLED_ITEM ( 'NONE', ( #129 ), #132 ) ;
#107 = DIMENSIONAL_EXPONENTS ( 1.000000000000000000, 0.000000000000000000, 0.000000000000000000, 0.000000000000000000, 0.000000000000000000, 0.000000000000000000, 0.000000000000000000 ) ;
#108 = MANIFOLD_SOLID_BREP ( 'Revolve - Cutting Edge', #153 ) ;
#109 = PLANE ( 'NONE',  #110 ) ;
#110 = AXIS2_PLACEMENT_3D ( 'NONE', #285, #113, #193 ) ;
#111 = FILL_AREA_STYLE ('',( #277 ) ) ;
#112 = DIRECTION ( 'NONE',  ( 1.000000000000000000, 0.000000000000000000, 0.000000000000000000 ) ) ;
#113 = DIRECTION ( 'NONE',  ( 0.000000000000000000, 1.000000000000000000, 0.000000000000000000 ) ) ;
#114 = DIRECTION ( 'NONE',  ( 0.000000000000000000, 0.000000000000000000, -1.000000000000000000 ) ) ;
#115 = LINE ( 'NONE', #250, #260 ) ;
#116 = CARTESIAN_POINT ( 'NONE',  ( -0.3750000000000000555, 1.250000000000000000, 0.000000000000000000 ) ) ;
#117 =( GEOMETRIC_REPRESENTATION_CONTEXT ( 3 ) GLOBAL_UNCERTAINTY_ASSIGNED_CONTEXT ( ( #91 ) ) GLOBAL_UNIT_ASSIGNED_CONTEXT ( ( #282, #238, #45 ) ) REPRESENTATION_CONTEXT ( 'NONE', 'WORKASPACE' ) );
#118 = SURFACE_STYLE_FILL_AREA ( #143 ) ;
#119 = PLANE ( 'NONE',  #279 ) ;
#120 = PRESENTATION_STYLE_ASSIGNMENT (( #217 ) ) ;
#121 = STYLED_ITEM ( 'NONE', ( #255 ), #305 ) ;
#122 =( NAMED_UNIT ( * ) SI_UNIT ( $, .STERADIAN. ) SOLID_ANGLE_UNIT ( ) );
#123 = EDGE_LOOP ( 'NONE', ( #44, #47 ) ) ;
#124 = EDGE_LOOP ( 'NONE', ( #236, #22 ) ) ;
#125 = ORIENTED_EDGE ( 'NONE', *, *, #264, .F. ) ;
#126 = EDGE_CURVE ( 'NONE', #304, #147, #192, .T. ) ;
#127 = ORIENTED_EDGE ( 'NONE', *, *, #126, .F. ) ;
#128 = ADVANCED_FACE ( 'NONE', ( #135 ), #56, .T. ) ;
#129 = PRESENTATION_STYLE_ASSIGNMENT (( #268 ) ) ;
#130 = DIRECTION ( 'NONE',  ( 0.000000000000000000, -1.000000000000000000, -0.000000000000000000 ) ) ;
#131 = DIRECTION ( 'NONE',  ( -0.000000000000000000, -1.000000000000000000, -0.000000000000000000 ) ) ;
#132 = ADVANCED_FACE ( 'NONE', ( #134 ), #109, .T. ) ;
#133 = AXIS2_PLACEMENT_3D ( 'NONE', #12, #215, #137 ) ;
#134 = FACE_OUTER_BOUND ( 'NONE', #123, .T. ) ;
#135 = FACE_OUTER_BOUND ( 'NONE', #124, .T. ) ;
#136 = CARTESIAN_POINT ( 'NONE',  ( 0.000000000000000000, 0.000000000000000000, 0.000000000000000000 ) ) ;
#137 = DIRECTION ( 'NONE',  ( -1.000000000000000000, 0.000000000000000000, 0.000000000000000000 ) ) ;
#138 = UNCERTAINTY_MEASURE_WITH_UNIT (LENGTH_MEASURE( 1.000000000000000082E-05 ), #17, 'distance_accuracy_value', 'NONE');
#139 = CARTESIAN_POINT ( 'NONE',  ( 0.000000000000000000, 1.250000000000000000, 0.000000000000000000 ) ) ;
#140 = CIRCLE ( 'NONE', #133, 0.3750000000000000555 ) ;
#141 = DIRECTION ( 'NONE',  ( 1.000000000000000000, 4.453261087808555212E-17, 0.000000000000000000 ) ) ;
#142 =( LENGTH_UNIT ( ) NAMED_UNIT ( * ) SI_UNIT ( $, .METRE. ) );
#143 = FILL_AREA_STYLE ('',( #93 ) ) ;
#144 = EDGE_LOOP ( 'NONE', ( #261, #309 ) ) ;
#145 = ORIENTED_EDGE ( 'NONE', *, *, #308, .F. ) ;
#146 = EDGE_CURVE ( 'NONE', #191, #209, #140, .T. ) ;
#147 = VERTEX_POINT ( 'NONE', #249 ) ;
#148 = MECHANICAL_DESIGN_GEOMETRIC_PRESENTATION_REPRESENTATION (  '', ( #106 ), #54 ) ;
#149 = UNCERTAINTY_MEASURE_WITH_UNIT (LENGTH_MEASURE( 1.000000000000000082E-05 ), #203, 'distance_accuracy_value', 'NONE');
#150 = ADVANCED_FACE ( 'NONE', ( #33 ), #86, .T. ) ;
#151 =( GEOMETRIC_REPRESENTATION_CONTEXT ( 3 ) GLOBAL_UNCERTAINTY_ASSIGNED_CONTEXT ( ( #13 ) ) GLOBAL_UNIT_ASSIGNED_CONTEXT ( ( #190, #242, #243 ) ) REPRESENTATION_CONTEXT ( 'NONE', 'WORKASPACE' ) );
#152 = PRESENTATION_STYLE_ASSIGNMENT (( #36 ) ) ;
#153 = CLOSED_SHELL ( 'NONE', ( #25, #132, #219, #128 ) ) ;
#154 = PLANE ( 'NONE',  #78 ) ;
#155 = CARTESIAN_POINT ( 'NONE',  ( 3.718412684285594657E-34, 1.250000000000000000, 0.000000000000000000 ) ) ;
#156 = LINE ( 'NONE', #11, #37 ) ;
#157 = SURFACE_STYLE_USAGE ( .BOTH. , #69 ) ;
#158 = DIRECTION ( 'NONE',  ( -0.000000000000000000, -1.000000000000000000, -0.000000000000000000 ) ) ;
#159 = STYLED_ITEM ( 'NONE', ( #301 ), #108 ) ;
#160 = LINE ( 'NONE', #183, #234 ) ;
#161 = LENGTH_MEASURE_WITH_UNIT ( LENGTH_MEASURE( 0.02539999999999999897 ), #299 );
#162 = EDGE_LOOP ( 'NONE', ( #303, #281, #189, #283 ) ) ;
#163 = COLOUR_RGB ( '',1.000000000000000000, 0.000000000000000000, 0.000000000000000000 ) ;
#164 =( GEOMETRIC_REPRESENTATION_CONTEXT ( 3 ) GLOBAL_UNCERTAINTY_ASSIGNED_CONTEXT ( ( #82 ) ) GLOBAL_UNIT_ASSIGNED_CONTEXT ( ( #185, #50, #52 ) ) REPRESENTATION_CONTEXT ( 'NONE', 'WORKASPACE' ) );
#165 = VERTEX_POINT ( 'NONE', #291 ) ;
#166 = EDGE_LOOP ( 'NONE', ( #284, #125 ) ) ;
#167 = AXIS2_PLACEMENT_3D ( 'NONE', #269, #5, #237 ) ;
#168 = DIMENSIONAL_EXPONENTS ( 1.000000000000000000, 0.000000000000000000, 0.000000000000000000, 0.000000000000000000, 0.000000000000000000, 0.000000000000000000, 0.000000000000000000 ) ;
#169 = FACE_OUTER_BOUND ( 'NONE', #247, .T. ) ;
#170 = UNCERTAINTY_MEASURE_WITH_UNIT (LENGTH_MEASURE( 1.000000000000000082E-05 ), #2, 'distance_accuracy_value', 'NONE');
#171 = CIRCLE ( 'NONE', #96, 0.3750000000000000555 ) ;
#172 = SURFACE_STYLE_FILL_AREA ( #111 ) ;
#173 = FILL_AREA_STYLE_COLOUR ( '', #163 ) ;
#174 = SURFACE_SIDE_STYLE ('',( #4 ) ) ;
#175 = LENGTH_MEASURE_WITH_UNIT ( LENGTH_MEASURE( 0.02539999999999999897 ), #9 );
#176 = DIRECTION ( 'NONE',  ( -4.453261087808555212E-17, 1.000000000000000000, -0.000000000000000000 ) ) ;
#177 = MECHANICAL_DESIGN_GEOMETRIC_PRESENTATION_REPRESENTATION (  '', ( #87 ), #184 ) ;
#178 = CIRCLE ( 'NONE', #68, 0.3750000000000000555 ) ;
#179 = DIRECTION ( 'NONE',  ( -4.453261087808555212E-17, 1.000000000000000000, -0.000000000000000000 ) ) ;
#180 = DIRECTION ( 'NONE',  ( -4.453261087808555212E-17, 1.000000000000000000, -0.000000000000000000 ) ) ;
#181 = FACE_OUTER_BOUND ( 'NONE', #162, .T. ) ;
#182 = EDGE_CURVE ( 'NONE', #165, #19, #101, .T. ) ;
#183 = CARTESIAN_POINT ( 'NONE',  ( 0.000000000000000000, 0.000000000000000000, -0.3750000000000000555 ) ) ;
#184 =( GEOMETRIC_REPRESENTATION_CONTEXT ( 3 ) GLOBAL_UNCERTAINTY_ASSIGNED_CONTEXT ( ( #138 ) ) GLOBAL_UNIT_ASSIGNED_CONTEXT ( ( #17, #89, #271 ) ) REPRESENTATION_CONTEXT ( 'NONE', 'WORKASPACE' ) );
#185 =( CONVERSION_BASED_UNIT ( 'INCH', #233 ) LENGTH_UNIT ( ) NAMED_UNIT ( #43 ) );
#186 = ORIENTED_EDGE ( 'NONE', *, *, #100, .T. ) ;
#187 = CYLINDRICAL_SURFACE ( 'NONE', #49, 0.3750000000000001110 ) ;
#188 = LENGTH_MEASURE_WITH_UNIT ( LENGTH_MEASURE( 0.02539999999999999897 ), #211 );
#189 = ORIENTED_EDGE ( 'NONE', *, *, #294, .T. ) ;
#190 =( CONVERSION_BASED_UNIT ( 'INCH', #201 ) LENGTH_UNIT ( ) NAMED_UNIT ( #48 ) );
#191 = VERTEX_POINT ( 'NONE', #116 ) ;
#192 = CIRCLE ( 'NONE', #26, 0.3750000000000001665 ) ;
#193 = DIRECTION ( 'NONE',  ( 0.000000000000000000, -0.000000000000000000, 1.000000000000000000 ) ) ;
#194 = CARTESIAN_POINT ( 'NONE',  ( 0.000000000000000000, 0.000000000000000000, 0.000000000000000000 ) ) ;
#195 = DIRECTION ( 'NONE',  ( -4.453261087808555212E-17, 1.000000000000000000, 0.000000000000000000 ) ) ;
#196 = CARTESIAN_POINT ( 'NONE',  ( 0.000000000000000000, 0.000000000000000000, 0.000000000000000000 ) ) ;
#197 = DIRECTION ( 'NONE',  ( -0.000000000000000000, -1.000000000000000000, -0.000000000000000000 ) ) ;
#198 = AXIS2_PLACEMENT_3D ( 'NONE', #298, #35, #224 ) ;
#199 = CARTESIAN_POINT ( 'NONE',  ( 4.592425496802575451E-17, 0.000000000000000000, 0.3750000000000000555 ) ) ;
#200 = FACE_OUTER_BOUND ( 'NONE', #166, .T. ) ;
#201 = LENGTH_MEASURE_WITH_UNIT ( LENGTH_MEASURE( 0.02539999999999999897 ), #8 );
#202 = LINE ( 'NONE', #300, #212 ) ;
#203 =( CONVERSION_BASED_UNIT ( 'INCH', #161 ) LENGTH_UNIT ( ) NAMED_UNIT ( #288 ) );
#204 = PRESENTATION_LAYER_ASSIGNMENT (  '', '', ( #81 ) ) ;
#205 = DIRECTION ( 'NONE',  ( -0.000000000000000000, -1.000000000000000000, -0.000000000000000000 ) ) ;
#206 = VERTEX_POINT ( 'NONE', #199 ) ;
#207 = EDGE_LOOP ( 'NONE', ( #239, #99, #145, #262 ) ) ;
#208 = AXIS2_PLACEMENT_3D ( 'NONE', #28, #273, #62 ) ;
#209 = VERTEX_POINT ( 'NONE', #90 ) ;
#210 = DIMENSIONAL_EXPONENTS ( 1.000000000000000000, 0.000000000000000000, 0.000000000000000000, 0.000000000000000000, 0.000000000000000000, 0.000000000000000000, 0.000000000000000000 ) ;
#211 =( LENGTH_UNIT ( ) NAMED_UNIT ( * ) SI_UNIT ( $, .METRE. ) );
#212 = VECTOR ( 'NONE', #39, 39.37007874015748143 ) ;
#213 = CYLINDRICAL_SURFACE ( 'NONE', #41, 0.3750000000000000555 ) ;
#214 = MECHANICAL_DESIGN_GEOMETRIC_PRESENTATION_REPRESENTATION (  '', ( #81 ), #59 ) ;
#215 = DIRECTION ( 'NONE',  ( -4.453261087808555212E-17, 1.000000000000000000, -0.000000000000000000 ) ) ;
#216 = SURFACE_STYLE_USAGE ( .BOTH. , #274 ) ;
#217 = SURFACE_STYLE_USAGE ( .BOTH. , #232 ) ;
#218 = DIRECTION ( 'NONE',  ( -1.000000000000000000, 0.000000000000000000, 0.000000000000000000 ) ) ;
#219 = ADVANCED_FACE ( 'NONE', ( #181 ), #213, .T. ) ;
#220 = FILL_AREA_STYLE ('',( #173 ) ) ;
#221 = CARTESIAN_POINT ( 'NONE',  ( 0.000000000000000000, 0.000000000000000000, -0.3750000000000000555 ) ) ;
#222 = DIRECTION ( 'NONE',  ( -4.453261087808555212E-17, 1.000000000000000000, -0.000000000000000000 ) ) ;
#223 = CARTESIAN_POINT ( 'NONE',  ( -0.3750000000000002776, 4.000000000000000000, 0.000000000000000000 ) ) ;
#224 = DIRECTION ( 'NONE',  ( -1.000000000000000000, 0.000000000000000000, 0.000000000000000000 ) ) ;
#225 = AXIS2_PLACEMENT_3D ( 'NONE', #295, #222, #218 ) ;
#226 =( GEOMETRIC_REPRESENTATION_CONTEXT ( 3 ) GLOBAL_UNCERTAINTY_ASSIGNED_CONTEXT ( ( #149 ) ) GLOBAL_UNIT_ASSIGNED_CONTEXT ( ( #203, #46, #105 ) ) REPRESENTATION_CONTEXT ( 'NONE', 'WORKASPACE' ) );
#227 = PRODUCT_DEFINITION_CONTEXT ( 'detailed design', #53, 'design' ) ;
#228 = APPLICATION_PROTOCOL_DEFINITION ( 'draft international standard', 'automotive_design', 1998, #244 ) ;
#229 = FILL_AREA_STYLE_COLOUR ( '', #248 ) ;
#230 = PRODUCT ( '30647W', '30647W', '', ( #254 ) ) ;
#231 = FILL_AREA_STYLE ('',( #229 ) ) ;
#232 = SURFACE_SIDE_STYLE ('',( #118 ) ) ;
#233 = LENGTH_MEASURE_WITH_UNIT ( LENGTH_MEASURE( 0.02539999999999999897 ), #95 );
#234 = VECTOR ( 'NONE', #205, 39.37007874015748143 ) ;
#235 = DIRECTION ( 'NONE',  ( -0.000000000000000000, -1.000000000000000000, -0.000000000000000000 ) ) ;
#236 = ORIENTED_EDGE ( 'NONE', *, *, #308, .T. ) ;
#237 = DIRECTION ( 'NONE',  ( -1.000000000000000000, 0.000000000000000000, 0.000000000000000000 ) ) ;
#238 =( NAMED_UNIT ( * ) PLANE_ANGLE_UNIT ( ) SI_UNIT ( $, .RADIAN. ) );
#239 = ORIENTED_EDGE ( 'NONE', *, *, #182, .T. ) ;
#240 = PRESENTATION_LAYER_ASSIGNMENT (  '', '', ( #159 ) ) ;
#241 = AXIS2_PLACEMENT_3D ( 'NONE', #287, #235, #75 ) ;
#242 =( NAMED_UNIT ( * ) PLANE_ANGLE_UNIT ( ) SI_UNIT ( $, .RADIAN. ) );
#243 =( NAMED_UNIT ( * ) SI_UNIT ( $, .STERADIAN. ) SOLID_ANGLE_UNIT ( ) );
#244 = APPLICATION_CONTEXT ( 'automotive_design' ) ;
#245 =( NAMED_UNIT ( * ) SI_UNIT ( $, .STERADIAN. ) SOLID_ANGLE_UNIT ( ) );
#246 = CARTESIAN_POINT ( 'NONE',  ( 0.000000000000000000, 0.000000000000000000, 0.000000000000000000 ) ) ;
#247 = EDGE_LOOP ( 'NONE', ( #21, #186, #127, #40 ) ) ;
#248 = COLOUR_RGB ( '',0.7921568627450980005, 0.8196078431372548767, 0.9333333333333333481 ) ;
#249 = CARTESIAN_POINT ( 'NONE',  ( 0.3750000000000000555, 4.000000000000000000, 4.592425496802576684E-17 ) ) ;
#250 = CARTESIAN_POINT ( 'NONE',  ( 0.3749999999999999445, 4.000000000000000000, 4.592425496802576068E-17 ) ) ;
#251 = DIRECTION ( 'NONE',  ( 0.000000000000000000, 0.000000000000000000, 1.000000000000000000 ) ) ;
#252 = FACE_OUTER_BOUND ( 'NONE', #144, .T. ) ;
#253 = DIRECTION ( 'NONE',  ( 0.000000000000000000, 0.000000000000000000, -1.000000000000000000 ) ) ;
#254 = PRODUCT_CONTEXT ( 'NONE', #244, 'mechanical' ) ;
#255 = PRESENTATION_STYLE_ASSIGNMENT (( #157 ) ) ;
#256 = DIRECTION ( 'NONE',  ( 0.000000000000000000, 0.000000000000000000, -1.000000000000000000 ) ) ;
#257 =( NAMED_UNIT ( * ) PLANE_ANGLE_UNIT ( ) SI_UNIT ( $, .RADIAN. ) );
#258 = EDGE_LOOP ( 'NONE', ( #72, #306, #76, #102 ) ) ;
#259 = AXIS2_PLACEMENT_3D ( 'NONE', #92, #158, #256 ) ;
#260 = VECTOR ( 'NONE', #176, 39.37007874015748143 ) ;
#261 = ORIENTED_EDGE ( 'NONE', *, *, #126, .T. ) ;
#262 = ORIENTED_EDGE ( 'NONE', *, *, #294, .F. ) ;
#263 = STYLED_ITEM ( 'NONE', ( #266 ), #128 ) ;
#264 = EDGE_CURVE ( 'NONE', #209, #191, #302, .T. ) ;
#265 = COLOUR_RGB ( '',1.000000000000000000, 0.000000000000000000, 0.000000000000000000 ) ;
#266 = PRESENTATION_STYLE_ASSIGNMENT (( #216 ) ) ;
#267 =( LENGTH_UNIT ( ) NAMED_UNIT ( * ) SI_UNIT ( $, .METRE. ) );
#268 = SURFACE_STYLE_USAGE ( .BOTH. , #174 ) ;
#269 = CARTESIAN_POINT ( 'NONE',  ( 0.000000000000000000, 1.250000000000000000, 0.000000000000000000 ) ) ;
#270 = PRESENTATION_LAYER_ASSIGNMENT (  '', '', ( #121 ) ) ;
#271 =( NAMED_UNIT ( * ) SI_UNIT ( $, .STERADIAN. ) SOLID_ANGLE_UNIT ( ) );
#272 = DIRECTION ( 'NONE',  ( 0.000000000000000000, 0.000000000000000000, -1.000000000000000000 ) ) ;
#273 = DIRECTION ( 'NONE',  ( -0.000000000000000000, -1.000000000000000000, -0.000000000000000000 ) ) ;
#274 = SURFACE_SIDE_STYLE ('',( #293 ) ) ;
#275 = FILL_AREA_STYLE_COLOUR ( '', #23 ) ;
#276 = DIRECTION ( 'NONE',  ( -1.000000000000000000, 0.000000000000000000, 0.000000000000000000 ) ) ;
#277 = FILL_AREA_STYLE_COLOUR ( '', #265 ) ;
#278 = COLOUR_RGB ( '',1.000000000000000000, 0.000000000000000000, 0.000000000000000000 ) ;
#279 = AXIS2_PLACEMENT_3D ( 'NONE', #155, #195, #32 ) ;
#280 = CYLINDRICAL_SURFACE ( 'NONE', #259, 0.3750000000000000555 ) ;
#281 = ORIENTED_EDGE ( 'NONE', *, *, #74, .T. ) ;
#282 =( CONVERSION_BASED_UNIT ( 'INCH', #188 ) LENGTH_UNIT ( ) NAMED_UNIT ( #107 ) );
#283 = ORIENTED_EDGE ( 'NONE', *, *, #63, .F. ) ;
#284 = ORIENTED_EDGE ( 'NONE', *, *, #146, .F. ) ;
#285 = CARTESIAN_POINT ( 'NONE',  ( 0.000000000000000000, 1.250000000000000000, 0.000000000000000000 ) ) ;
#286 = MECHANICAL_DESIGN_GEOMETRIC_PRESENTATION_REPRESENTATION (  '', ( #263 ), #151 ) ;
#287 = CARTESIAN_POINT ( 'NONE',  ( 0.000000000000000000, 0.000000000000000000, 0.000000000000000000 ) ) ;
#288 = DIMENSIONAL_EXPONENTS ( 1.000000000000000000, 0.000000000000000000, 0.000000000000000000, 0.000000000000000000, 0.000000000000000000, 0.000000000000000000, 0.000000000000000000 ) ;
#289 = ADVANCED_FACE ( 'NONE', ( #252 ), #154, .F. ) ;
#290 = CARTESIAN_POINT ( 'NONE',  ( 4.592425496802575451E-17, 1.250000000000000000, 0.3750000000000000555 ) ) ;
#291 = CARTESIAN_POINT ( 'NONE',  ( 0.000000000000000000, 1.250000000000000000, -0.3750000000000000555 ) ) ;
#292 = CIRCLE ( 'NONE', #198, 0.3750000000000001665 ) ;
#293 = SURFACE_STYLE_FILL_AREA ( #220 ) ;
#294 = EDGE_CURVE ( 'NONE', #165, #73, #160, .T. ) ;
#295 = CARTESIAN_POINT ( 'NONE',  ( -1.224646799147352714E-16, 4.000000000000000000, 0.000000000000000000 ) ) ;
#296 = APPLICATION_PROTOCOL_DEFINITION ( 'draft international standard', 'automotive_design', 1998, #53 ) ;
#297 = PRESENTATION_LAYER_ASSIGNMENT (  '', '', ( #263 ) ) ;
#298 = CARTESIAN_POINT ( 'NONE',  ( -1.224646799147352714E-16, 4.000000000000000000, 0.000000000000000000 ) ) ;
#299 =( LENGTH_UNIT ( ) NAMED_UNIT ( * ) SI_UNIT ( $, .METRE. ) );
#300 = CARTESIAN_POINT ( 'NONE',  ( -0.3750000000000002220, 4.000000000000000000, 0.000000000000000000 ) ) ;
#301 = PRESENTATION_STYLE_ASSIGNMENT (( #38 ) ) ;
#302 = CIRCLE ( 'NONE', #167, 0.3750000000000000555 ) ;
#303 = ORIENTED_EDGE ( 'NONE', *, *, #84, .F. ) ;
#304 = VERTEX_POINT ( 'NONE', #223 ) ;
#305 = MANIFOLD_SOLID_BREP ( 'Revolve - Tool Body (Straight Shanked)', #307 ) ;
#306 = ORIENTED_EDGE ( 'NONE', *, *, #264, .T. ) ;
#307 = CLOSED_SHELL ( 'NONE', ( #55, #67, #150, #289 ) ) ;
#308 = EDGE_CURVE ( 'NONE', #73, #206, #103, .T. ) ;
#309 = ORIENTED_EDGE ( 'NONE', *, *, #104, .T. ) ;
ENDSEC;
END-ISO-10303-21;
