ISO-10303-21;
HEADER;
FILE_DESCRIPTION (( 'STEP AP214' ),
    '1' );
FILE_NAME ('Micro_AMRM-010-2X.STEP',
    '2021-09-01T17:12:14',
    ( '' ),
    ( '' ),
    'SwSTEP 2.0',
    'SolidWorks 2020',
    '' );
FILE_SCHEMA (( 'AUTOMOTIVE_DESIGN' ));
ENDSEC;

DATA;
#1 = CARTESIAN_POINT ( 'NONE',  ( 0.0000000000000000000, 0.0000000000000000000, 1.968503999999999809 ) ) ;
#2 = CARTESIAN_POINT ( 'NONE',  ( 0.07874000000000001831, 9.642868896486260050E-18, 1.968503999999999809 ) ) ;
#3 = DIRECTION ( 'NONE',  ( 0.7071067811865507924, 8.659560562354973534E-17, -0.7071067811865443531 ) ) ;
#4 = DIMENSIONAL_EXPONENTS ( 1.000000000000000000, 0.0000000000000000000, 0.0000000000000000000, 0.0000000000000000000, 0.0000000000000000000, 0.0000000000000000000, 0.0000000000000000000 ) ;
#5 = DIRECTION ( 'NONE',  ( -1.224646799147353207E-16, -0.0000000000000000000, -1.000000000000000000 ) ) ;
#6 = STYLED_ITEM ( 'NONE', ( #202 ), #64 ) ;
#7 = ORIENTED_EDGE ( 'NONE', *, *, #20, .T. ) ;
#8 = APPLICATION_PROTOCOL_DEFINITION ( 'draft international standard', 'automotive_design', 1998, #114 ) ;
#9 = EDGE_LOOP ( 'NONE', ( #57, #61 ) ) ;
#10 = ORIENTED_EDGE ( 'NONE', *, *, #245, .F. ) ;
#11 = AXIS2_PLACEMENT_3D ( 'NONE', #276, #273, #189 ) ;
#12 = DIRECTION ( 'NONE',  ( 1.000000000000000000, 0.0000000000000000000, 0.0000000000000000000 ) ) ;
#13 = ORIENTED_EDGE ( 'NONE', *, *, #30, .T. ) ;
#14 = LINE ( 'NONE', #102, #248 ) ;
#15 = PRESENTATION_LAYER_ASSIGNMENT (  '', '', ( #6 ) ) ;
#16 = DIRECTION ( 'NONE',  ( -1.224646799147353207E-16, -0.0000000000000000000, -1.000000000000000000 ) ) ;
#17 = EDGE_CURVE ( 'NONE', #81, #87, #215, .T. ) ;
#18 = DIRECTION ( 'NONE',  ( 1.000000000000000000, 0.0000000000000000000, 0.0000000000000000000 ) ) ;
#19 = DIRECTION ( 'NONE',  ( 1.224646799147353207E-16, 0.0000000000000000000, 1.000000000000000000 ) ) ;
#20 = EDGE_CURVE ( 'NONE', #87, #81, #98, .T. ) ;
#21 = FACE_OUTER_BOUND ( 'NONE', #175, .T. ) ;
#22 = CIRCLE ( 'NONE', #264, 0.01966531500000000265 ) ;
#23 = AXIS2_PLACEMENT_3D ( 'NONE', #63, #268, #42 ) ;
#24 = DIRECTION ( 'NONE',  ( -0.0000000000000000000, -0.0000000000000000000, -1.000000000000000000 ) ) ;
#25 = DIRECTION ( 'NONE',  ( -1.000000000000000000, 0.0000000000000000000, 0.0000000000000000000 ) ) ;
#26 = CARTESIAN_POINT ( 'NONE',  ( -0.01966531500000000265, 0.0000000000000000000, 4.816613013794886973E-18 ) ) ;
#27 = CIRCLE ( 'NONE', #104, 0.01966531500000000265 ) ;
#28 = CARTESIAN_POINT ( 'NONE',  ( -0.06374000000000018540, 0.0000000000000000000, 1.968503999999999809 ) ) ;
#29 = LINE ( 'NONE', #279, #196 ) ;
#30 = EDGE_CURVE ( 'NONE', #281, #136, #66, .T. ) ;
#31 = EDGE_CURVE ( 'NONE', #108, #170, #27, .T. ) ;
#32 = DIMENSIONAL_EXPONENTS ( 1.000000000000000000, 0.0000000000000000000, 0.0000000000000000000, 0.0000000000000000000, 0.0000000000000000000, 0.0000000000000000000, 0.0000000000000000000 ) ;
#33 = ORIENTED_EDGE ( 'NONE', *, *, #190, .F. ) ;
#34 = SURFACE_STYLE_USAGE ( .BOTH. , #192 ) ;
#35 = ORIENTED_EDGE ( 'NONE', *, *, #141, .T. ) ;
#36 = ORIENTED_EDGE ( 'NONE', *, *, #17, .T. ) ;
#37 = CIRCLE ( 'NONE', #115, 0.07874000000000001831 ) ;
#38 = ORIENTED_EDGE ( 'NONE', *, *, #144, .T. ) ;
#39 = VERTEX_POINT ( 'NONE', #267 ) ;
#40 = DIRECTION ( 'NONE',  ( -1.224646799147353207E-16, -0.0000000000000000000, -1.000000000000000000 ) ) ;
#41 = FILL_AREA_STYLE_COLOUR ( '', #188 ) ;
#42 = DIRECTION ( 'NONE',  ( 1.000000000000000000, 0.0000000000000000000, 0.0000000000000000000 ) ) ;
#43 = CARTESIAN_POINT ( 'NONE',  ( 0.0000000000000000000, 0.0000000000000000000, 1.968503999999999809 ) ) ;
#44 =( NAMED_UNIT ( * ) SI_UNIT ( $, .STERADIAN. ) SOLID_ANGLE_UNIT ( ) );
#45 = AXIS2_PLACEMENT_3D ( 'NONE', #43, #140, #271 ) ;
#46 = UNCERTAINTY_MEASURE_WITH_UNIT (LENGTH_MEASURE( 1.000000000000000082E-05 ), #206, 'distance_accuracy_value', 'NONE');
#47 = DIRECTION ( 'NONE',  ( 1.000000000000000000, 0.0000000000000000000, 0.0000000000000000000 ) ) ;
#48 = DIRECTION ( 'NONE',  ( -0.1736481776669311916, 2.126576849575783316E-17, 0.9848077530122080203 ) ) ;
#49 = CARTESIAN_POINT ( 'NONE',  ( 0.0000000000000000000, 0.0000000000000000000, 1.968503999999999809 ) ) ;
#50 =( GEOMETRIC_REPRESENTATION_CONTEXT ( 3 ) GLOBAL_UNCERTAINTY_ASSIGNED_CONTEXT ( ( #142 ) ) GLOBAL_UNIT_ASSIGNED_CONTEXT ( ( #223, #219, #86 ) ) REPRESENTATION_CONTEXT ( 'NONE', 'WORKASPACE' ) );
#51 = CARTESIAN_POINT ( 'NONE',  ( 0.06374000000000018540, 8.724383797125754882E-18, 1.968503999999999809 ) ) ;
#52 = EDGE_CURVE ( 'NONE', #136, #281, #54, .T. ) ;
#53 = ORIENTED_EDGE ( 'NONE', *, *, #20, .F. ) ;
#54 = CIRCLE ( 'NONE', #168, 0.01966531500000000265 ) ;
#55 = DIRECTION ( 'NONE',  ( 0.0000000000000000000, 0.0000000000000000000, 1.000000000000000000 ) ) ;
#56 = CARTESIAN_POINT ( 'NONE',  ( 5.549354549769428585E-17, 0.0000000000000000000, 0.4531391870401412780 ) ) ;
#57 = ORIENTED_EDGE ( 'NONE', *, *, #245, .T. ) ;
#58 =( CONVERSION_BASED_UNIT ( 'INCH', #78 ) LENGTH_UNIT ( ) NAMED_UNIT ( #4 ) );
#59 = ORIENTED_EDGE ( 'NONE', *, *, #263, .T. ) ;
#60 = AXIS2_PLACEMENT_3D ( 'NONE', #107, #172, #260 ) ;
#61 = ORIENTED_EDGE ( 'NONE', *, *, #88, .T. ) ;
#62 = PRODUCT_RELATED_PRODUCT_CATEGORY ( 'part', '', ( #228 ) ) ;
#63 = CARTESIAN_POINT ( 'NONE',  ( 1.446430334472939084E-17, 0.0000000000000000000, 0.1181100000000000066 ) ) ;
#64 = MANIFOLD_SOLID_BREP ( 'Cut-Revolve1', #69 ) ;
#65 = DIRECTION ( 'NONE',  ( -1.000000000000000000, 0.0000000000000000000, 1.224646799147353207E-16 ) ) ;
#66 = CIRCLE ( 'NONE', #143, 0.01966531500000000265 ) ;
#67 = CARTESIAN_POINT ( 'NONE',  ( 1.446430334472939084E-17, 0.0000000000000000000, 0.1181100000000000066 ) ) ;
#68 = CARTESIAN_POINT ( 'NONE',  ( 0.01966531500000001306, 0.0000000000000000000, 0.1181100000000000066 ) ) ;
#69 = CLOSED_SHELL ( 'NONE', ( #89, #123, #100, #210, #235, #169, #173, #111, #272, #213 ) ) ;
#70 = DIRECTION ( 'NONE',  ( -0.0000000000000000000, -0.0000000000000000000, -1.000000000000000000 ) ) ;
#71 = AXIS2_PLACEMENT_3D ( 'NONE', #1, #24, #167 ) ;
#72 = CYLINDRICAL_SURFACE ( 'NONE', #283, 0.07874000000000001831 ) ;
#73 = FACE_OUTER_BOUND ( 'NONE', #9, .T. ) ;
#74 = CARTESIAN_POINT ( 'NONE',  ( 0.0000000000000000000, 0.0000000000000000000, 1.968503999999999809 ) ) ;
#75 = AXIS2_PLACEMENT_3D ( 'NONE', #266, #225, #92 ) ;
#76 = AXIS2_PLACEMENT_3D ( 'NONE', #110, #55, #12 ) ;
#77 = PLANE ( 'NONE',  #163 ) ;
#78 = LENGTH_MEASURE_WITH_UNIT ( LENGTH_MEASURE( 0.02539999999999999897 ), #126 );
#79 = ORIENTED_EDGE ( 'NONE', *, *, #31, .T. ) ;
#80 = PRESENTATION_STYLE_ASSIGNMENT (( #34 ) ) ;
#81 = VERTEX_POINT ( 'NONE', #291 ) ;
#82 = CONICAL_SURFACE ( 'NONE', #251, 0.01966531500000000265, 0.1745329251994338915 ) ;
#83 = EDGE_CURVE ( 'NONE', #240, #87, #158, .T. ) ;
#84 = SHAPE_DEFINITION_REPRESENTATION ( #292, #275 ) ;
#85 = ORIENTED_EDGE ( 'NONE', *, *, #52, .T. ) ;
#86 =( NAMED_UNIT ( * ) SI_UNIT ( $, .STERADIAN. ) SOLID_ANGLE_UNIT ( ) );
#87 = VERTEX_POINT ( 'NONE', #207 ) ;
#88 = EDGE_CURVE ( 'NONE', #218, #156, #259, .T. ) ;
#89 = ADVANCED_FACE ( 'NONE', ( #294 ), #270, .T. ) ;
#90 = CIRCLE ( 'NONE', #149, 0.06374000000000018540 ) ;
#91 = FILL_AREA_STYLE ('',( #41 ) ) ;
#92 = DIRECTION ( 'NONE',  ( -1.000000000000000000, 0.0000000000000000000, 1.224646799147353207E-16 ) ) ;
#93 = VECTOR ( 'NONE', #3, 39.37007874015748143 ) ;
#94 = DIRECTION ( 'NONE',  ( 0.0000000000000000000, 0.0000000000000000000, 1.000000000000000000 ) ) ;
#95 = SURFACE_STYLE_FILL_AREA ( #91 ) ;
#96 = DIRECTION ( 'NONE',  ( 0.1736481776669313859, 0.0000000000000000000, 0.9848077530122077983 ) ) ;
#97 = FACE_OUTER_BOUND ( 'NONE', #288, .T. ) ;
#98 = CIRCLE ( 'NONE', #151, 0.07874000000000001831 ) ;
#99 = CARTESIAN_POINT ( 'NONE',  ( 0.0000000000000000000, 0.0000000000000000000, 0.0000000000000000000 ) ) ;
#100 = ADVANCED_FACE ( 'NONE', ( #180 ), #155, .T. ) ;
#101 = APPLICATION_CONTEXT ( 'automotive_design' ) ;
#102 = CARTESIAN_POINT ( 'NONE',  ( 0.01966531500000001306, 0.0000000000000000000, 0.1181100000000000066 ) ) ;
#103 = CARTESIAN_POINT ( 'NONE',  ( -0.07874000000000001831, 0.0000000000000000000, 1.953504000000000129 ) ) ;
#104 = AXIS2_PLACEMENT_3D ( 'NONE', #179, #16, #65 ) ;
#105 = FILL_AREA_STYLE ('',( #221 ) ) ;
#106 = EDGE_LOOP ( 'NONE', ( #130, #10, #282, #129 ) ) ;
#107 = CARTESIAN_POINT ( 'NONE',  ( 5.549354549769428585E-17, 0.0000000000000000000, 0.4531391870401412780 ) ) ;
#108 = VERTEX_POINT ( 'NONE', #230 ) ;
#109 = ORIENTED_EDGE ( 'NONE', *, *, #144, .F. ) ;
#110 = CARTESIAN_POINT ( 'NONE',  ( 0.0000000000000000000, 0.0000000000000000000, 0.0000000000000000000 ) ) ;
#111 = ADVANCED_FACE ( 'NONE', ( #21 ), #255, .T. ) ;
#112 = EDGE_LOOP ( 'NONE', ( #201, #244, #220, #193 ) ) ;
#113 = CARTESIAN_POINT ( 'NONE',  ( 0.0000000000000000000, 0.0000000000000000000, 1.953504000000000129 ) ) ;
#114 = APPLICATION_CONTEXT ( 'automotive_design' ) ;
#115 = AXIS2_PLACEMENT_3D ( 'NONE', #113, #116, #297 ) ;
#116 = DIRECTION ( 'NONE',  ( 0.0000000000000000000, 0.0000000000000000000, -1.000000000000000000 ) ) ;
#117 = DIRECTION ( 'NONE',  ( -1.000000000000000000, 0.0000000000000000000, 1.224646799147353207E-16 ) ) ;
#118 = PRODUCT_DEFINITION ( 'UNKNOWN', '', #198, #119 ) ;
#119 = PRODUCT_DEFINITION_CONTEXT ( 'detailed design', #114, 'design' ) ;
#120 = FACE_OUTER_BOUND ( 'NONE', #258, .T. ) ;
#121 = CARTESIAN_POINT ( 'NONE',  ( 0.01966531500000000265, 2.408306506897443486E-18, -2.408306506897443486E-18 ) ) ;
#122 = VECTOR ( 'NONE', #70, 39.37007874015748143 ) ;
#123 = ADVANCED_FACE ( 'NONE', ( #139 ), #82, .T. ) ;
#124 = DIRECTION ( 'NONE',  ( 1.000000000000000000, 0.0000000000000000000, 0.0000000000000000000 ) ) ;
#125 = PLANE ( 'NONE',  #231 ) ;
#126 =( LENGTH_UNIT ( ) NAMED_UNIT ( * ) SI_UNIT ( $, .METRE. ) );
#127 = MECHANICAL_DESIGN_GEOMETRIC_PRESENTATION_REPRESENTATION (  '', ( #6 ), #274 ) ;
#128 =( NAMED_UNIT ( * ) PLANE_ANGLE_UNIT ( ) SI_UNIT ( $, .RADIAN. ) );
#129 = ORIENTED_EDGE ( 'NONE', *, *, #134, .F. ) ;
#130 = ORIENTED_EDGE ( 'NONE', *, *, #293, .F. ) ;
#131 = ORIENTED_EDGE ( 'NONE', *, *, #190, .T. ) ;
#132 = COLOUR_RGB ( '',0.7921568627450980005, 0.8196078431372548767, 0.9333333333333333481 ) ;
#133 =( GEOMETRIC_REPRESENTATION_CONTEXT ( 3 ) GLOBAL_UNCERTAINTY_ASSIGNED_CONTEXT ( ( #233 ) ) GLOBAL_UNIT_ASSIGNED_CONTEXT ( ( #58, #128, #285 ) ) REPRESENTATION_CONTEXT ( 'NONE', 'WORKASPACE' ) );
#134 = EDGE_CURVE ( 'NONE', #39, #240, #37, .T. ) ;
#135 = ORIENTED_EDGE ( 'NONE', *, *, #31, .F. ) ;
#136 = VERTEX_POINT ( 'NONE', #68 ) ;
#137 =( LENGTH_UNIT ( ) NAMED_UNIT ( * ) SI_UNIT ( $, .METRE. ) );
#138 = AXIS2_PLACEMENT_3D ( 'NONE', #227, #94, #18 ) ;
#139 = FACE_OUTER_BOUND ( 'NONE', #286, .T. ) ;
#140 = DIRECTION ( 'NONE',  ( 0.0000000000000000000, 0.0000000000000000000, -1.000000000000000000 ) ) ;
#141 = EDGE_CURVE ( 'NONE', #136, #81, #14, .T. ) ;
#142 = UNCERTAINTY_MEASURE_WITH_UNIT (LENGTH_MEASURE( 1.000000000000000082E-05 ), #223, 'distance_accuracy_value', 'NONE');
#143 = AXIS2_PLACEMENT_3D ( 'NONE', #67, #205, #295 ) ;
#144 = EDGE_CURVE ( 'NONE', #136, #108, #234, .T. ) ;
#145 = CARTESIAN_POINT ( 'NONE',  ( -0.01966531500000000265, 0.0000000000000000000, 2.408306506897443486E-18 ) ) ;
#146 = LINE ( 'NONE', #145, #269 ) ;
#147 = DIRECTION ( 'NONE',  ( -1.224646799147353207E-16, -0.0000000000000000000, -1.000000000000000000 ) ) ;
#148 = DIRECTION ( 'NONE',  ( -1.000000000000000000, 0.0000000000000000000, 0.0000000000000000000 ) ) ;
#149 = AXIS2_PLACEMENT_3D ( 'NONE', #183, #185, #124 ) ;
#150 = CARTESIAN_POINT ( 'NONE',  ( -0.01966531499999998878, 6.025587701691852153E-18, 0.1181100000000000066 ) ) ;
#151 = AXIS2_PLACEMENT_3D ( 'NONE', #56, #153, #160 ) ;
#152 = ORIENTED_EDGE ( 'NONE', *, *, #30, .F. ) ;
#153 = DIRECTION ( 'NONE',  ( -1.224646799147353207E-16, -0.0000000000000000000, -1.000000000000000000 ) ) ;
#154 = EDGE_LOOP ( 'NONE', ( #109, #85, #131, #135 ) ) ;
#155 = CONICAL_SURFACE ( 'NONE', #45, 0.06374000000000018540, 0.7853981633974528309 ) ;
#156 = VERTEX_POINT ( 'NONE', #211 ) ;
#157 = DIRECTION ( 'NONE',  ( 1.000000000000000000, 0.0000000000000000000, 0.0000000000000000000 ) ) ;
#158 = LINE ( 'NONE', #250, #177 ) ;
#159 = DIRECTION ( 'NONE',  ( -0.0000000000000000000, -0.0000000000000000000, -1.000000000000000000 ) ) ;
#160 = DIRECTION ( 'NONE',  ( 1.000000000000000000, 0.0000000000000000000, 0.0000000000000000000 ) ) ;
#161 = EDGE_CURVE ( 'NONE', #39, #81, #236, .T. ) ;
#162 = EDGE_CURVE ( 'NONE', #156, #240, #165, .T. ) ;
#163 = AXIS2_PLACEMENT_3D ( 'NONE', #257, #187, #208 ) ;
#164 = FACE_OUTER_BOUND ( 'NONE', #106, .T. ) ;
#165 = LINE ( 'NONE', #28, #289 ) ;
#166 = DIRECTION ( 'NONE',  ( 0.0000000000000000000, 0.0000000000000000000, -1.000000000000000000 ) ) ;
#167 = DIRECTION ( 'NONE',  ( -1.000000000000000000, 0.0000000000000000000, 0.0000000000000000000 ) ) ;
#168 = AXIS2_PLACEMENT_3D ( 'NONE', #249, #40, #204 ) ;
#169 = ADVANCED_FACE ( 'NONE', ( #73 ), #77, .T. ) ;
#170 = VERTEX_POINT ( 'NONE', #26 ) ;
#171 = AXIS2_PLACEMENT_3D ( 'NONE', #74, #166, #25 ) ;
#172 = DIRECTION ( 'NONE',  ( -1.224646799147353207E-16, -0.0000000000000000000, -1.000000000000000000 ) ) ;
#173 = ADVANCED_FACE ( 'NONE', ( #164 ), #216, .T. ) ;
#174 = ORIENTED_EDGE ( 'NONE', *, *, #298, .F. ) ;
#175 = EDGE_LOOP ( 'NONE', ( #174, #242, #35, #36 ) ) ;
#176 = ORIENTED_EDGE ( 'NONE', *, *, #83, .F. ) ;
#177 = VECTOR ( 'NONE', #159, 39.37007874015748143 ) ;
#178 = MECHANICAL_DESIGN_GEOMETRIC_PRESENTATION_REPRESENTATION (  '', ( #296 ), #133 ) ;
#179 = CARTESIAN_POINT ( 'NONE',  ( 2.949324855037697299E-34, 0.0000000000000000000, 2.408306506897443486E-18 ) ) ;
#180 = FACE_OUTER_BOUND ( 'NONE', #112, .T. ) ;
#181 = LENGTH_MEASURE_WITH_UNIT ( LENGTH_MEASURE( 0.02539999999999999897 ), #137 );
#182 = SURFACE_STYLE_USAGE ( .BOTH. , #247 ) ;
#183 = CARTESIAN_POINT ( 'NONE',  ( 0.0000000000000000000, 0.0000000000000000000, 1.968503999999999809 ) ) ;
#184 = VECTOR ( 'NONE', #278, 39.37007874015748143 ) ;
#185 = DIRECTION ( 'NONE',  ( 0.0000000000000000000, 0.0000000000000000000, 1.000000000000000000 ) ) ;
#186 = DIRECTION ( 'NONE',  ( 0.0000000000000000000, 0.0000000000000000000, 1.000000000000000000 ) ) ;
#187 = DIRECTION ( 'NONE',  ( 0.0000000000000000000, 0.0000000000000000000, 1.000000000000000000 ) ) ;
#188 = COLOUR_RGB ( '',0.7921568627450980005, 0.8196078431372548767, 0.9333333333333333481 ) ;
#189 = DIRECTION ( 'NONE',  ( -1.000000000000000000, 0.0000000000000000000, 1.224646799147353207E-16 ) ) ;
#190 = EDGE_CURVE ( 'NONE', #281, #170, #146, .T. ) ;
#191 = EDGE_CURVE ( 'NONE', #170, #108, #22, .T. ) ;
#192 = SURFACE_SIDE_STYLE ('',( #195 ) ) ;
#193 = ORIENTED_EDGE ( 'NONE', *, *, #162, .F. ) ;
#194 = ORIENTED_EDGE ( 'NONE', *, *, #298, .T. ) ;
#195 = SURFACE_STYLE_FILL_AREA ( #105 ) ;
#196 = VECTOR ( 'NONE', #48, 39.37007874015747433 ) ;
#197 = ORIENTED_EDGE ( 'NONE', *, *, #191, .F. ) ;
#198 = PRODUCT_DEFINITION_FORMATION_WITH_SPECIFIED_SOURCE ( 'ANY', '', #228, .NOT_KNOWN. ) ;
#199 = APPLICATION_PROTOCOL_DEFINITION ( 'draft international standard', 'automotive_design', 1998, #101 ) ;
#200 = ORIENTED_EDGE ( 'NONE', *, *, #83, .T. ) ;
#201 = ORIENTED_EDGE ( 'NONE', *, *, #88, .F. ) ;
#202 = PRESENTATION_STYLE_ASSIGNMENT (( #182 ) ) ;
#203 = CIRCLE ( 'NONE', #243, 0.07874000000000001831 ) ;
#204 = DIRECTION ( 'NONE',  ( -1.000000000000000000, 0.0000000000000000000, 0.0000000000000000000 ) ) ;
#205 = DIRECTION ( 'NONE',  ( -1.224646799147353207E-16, -0.0000000000000000000, -1.000000000000000000 ) ) ;
#206 =( CONVERSION_BASED_UNIT ( 'INCH', #181 ) LENGTH_UNIT ( ) NAMED_UNIT ( #238 ) );
#207 = CARTESIAN_POINT ( 'NONE',  ( -0.07873999999999996280, 0.0000000000000000000, 0.4531391870401412780 ) ) ;
#208 = DIRECTION ( 'NONE',  ( 1.000000000000000000, 0.0000000000000000000, -0.0000000000000000000 ) ) ;
#209 = CYLINDRICAL_SURFACE ( 'NONE', #71, 0.07874000000000001831 ) ;
#210 = ADVANCED_FACE ( 'NONE', ( #120 ), #209, .T. ) ;
#211 = CARTESIAN_POINT ( 'NONE',  ( -0.06374000000000018540, 0.0000000000000000000, 1.968503999999999809 ) ) ;
#212 = FACE_OUTER_BOUND ( 'NONE', #154, .T. ) ;
#213 = ADVANCED_FACE ( 'NONE', ( #97 ), #125, .F. ) ;
#214 = FACE_OUTER_BOUND ( 'NONE', #265, .T. ) ;
#215 = CIRCLE ( 'NONE', #60, 0.07874000000000001831 ) ;
#216 = CONICAL_SURFACE ( 'NONE', #171, 0.06374000000000018540, 0.7853981633974528309 ) ;
#217 =( LENGTH_UNIT ( ) NAMED_UNIT ( * ) SI_UNIT ( $, .METRE. ) );
#218 = VERTEX_POINT ( 'NONE', #51 ) ;
#219 =( NAMED_UNIT ( * ) PLANE_ANGLE_UNIT ( ) SI_UNIT ( $, .RADIAN. ) );
#220 = ORIENTED_EDGE ( 'NONE', *, *, #263, .F. ) ;
#221 = FILL_AREA_STYLE_COLOUR ( '', #132 ) ;
#222 = ORIENTED_EDGE ( 'NONE', *, *, #161, .F. ) ;
#223 =( CONVERSION_BASED_UNIT ( 'INCH', #287 ) LENGTH_UNIT ( ) NAMED_UNIT ( #32 ) );
#224 = ORIENTED_EDGE ( 'NONE', *, *, #191, .T. ) ;
#225 = DIRECTION ( 'NONE',  ( -1.224646799147353207E-16, -0.0000000000000000000, -1.000000000000000000 ) ) ;
#226 =( NAMED_UNIT ( * ) PLANE_ANGLE_UNIT ( ) SI_UNIT ( $, .RADIAN. ) );
#227 = CARTESIAN_POINT ( 'NONE',  ( 0.0000000000000000000, 0.0000000000000000000, 1.968503999999999809 ) ) ;
#228 = PRODUCT ( 'Micro_AMRM-010-2X', 'Micro_AMRM-010-2X', '', ( #280 ) ) ;
#229 = CARTESIAN_POINT ( 'NONE',  ( 1.446430334472939084E-17, 0.0000000000000000000, 0.1181100000000000066 ) ) ;
#230 = CARTESIAN_POINT ( 'NONE',  ( 0.01966531500000000265, 2.408306506897443486E-18, 0.0000000000000000000 ) ) ;
#231 = AXIS2_PLACEMENT_3D ( 'NONE', #99, #186, #254 ) ;
#232 = DIRECTION ( 'NONE',  ( -0.7071067811865507924, 0.0000000000000000000, -0.7071067811865443531 ) ) ;
#233 = UNCERTAINTY_MEASURE_WITH_UNIT (LENGTH_MEASURE( 1.000000000000000082E-05 ), #58, 'distance_accuracy_value', 'NONE');
#234 = LINE ( 'NONE', #121, #184 ) ;
#235 = ADVANCED_FACE ( 'NONE', ( #214 ), #72, .T. ) ;
#236 = LINE ( 'NONE', #2, #122 ) ;
#237 = CARTESIAN_POINT ( 'NONE',  ( 0.06374000000000018540, 7.805898697765251255E-18, 1.968503999999999809 ) ) ;
#238 = DIMENSIONAL_EXPONENTS ( 1.000000000000000000, 0.0000000000000000000, 0.0000000000000000000, 0.0000000000000000000, 0.0000000000000000000, 0.0000000000000000000, 0.0000000000000000000 ) ;
#239 = LINE ( 'NONE', #237, #93 ) ;
#240 = VERTEX_POINT ( 'NONE', #103 ) ;
#241 = ORIENTED_EDGE ( 'NONE', *, *, #161, .T. ) ;
#242 = ORIENTED_EDGE ( 'NONE', *, *, #52, .F. ) ;
#243 = AXIS2_PLACEMENT_3D ( 'NONE', #277, #299, #47 ) ;
#244 = ORIENTED_EDGE ( 'NONE', *, *, #293, .T. ) ;
#245 = EDGE_CURVE ( 'NONE', #156, #218, #90, .T. ) ;
#246 = ORIENTED_EDGE ( 'NONE', *, *, #141, .F. ) ;
#247 = SURFACE_SIDE_STYLE ('',( #95 ) ) ;
#248 = VECTOR ( 'NONE', #96, 39.37007874015748143 ) ;
#249 = CARTESIAN_POINT ( 'NONE',  ( 1.446430334472939084E-17, 0.0000000000000000000, 0.1181100000000000066 ) ) ;
#250 = CARTESIAN_POINT ( 'NONE',  ( -0.07874000000000001831, 0.0000000000000000000, 1.968503999999999809 ) ) ;
#251 = AXIS2_PLACEMENT_3D ( 'NONE', #229, #19, #157 ) ;
#252 = CYLINDRICAL_SURFACE ( 'NONE', #11, 0.01966531500000000265 ) ;
#253 = CARTESIAN_POINT ( 'NONE',  ( 2.949324855037697299E-34, 0.0000000000000000000, 2.408306506897443486E-18 ) ) ;
#254 = DIRECTION ( 'NONE',  ( 1.000000000000000000, 0.0000000000000000000, -0.0000000000000000000 ) ) ;
#255 = CONICAL_SURFACE ( 'NONE', #23, 0.01966531500000000265, 0.1745329251994338915 ) ;
#256 = DIRECTION ( 'NONE',  ( -0.0000000000000000000, -0.0000000000000000000, -1.000000000000000000 ) ) ;
#257 = CARTESIAN_POINT ( 'NONE',  ( 0.0000000000000000000, 0.0000000000000000000, 1.968503999999999809 ) ) ;
#258 = EDGE_LOOP ( 'NONE', ( #59, #241, #53, #176 ) ) ;
#259 = CIRCLE ( 'NONE', #138, 0.06374000000000018540 ) ;
#260 = DIRECTION ( 'NONE',  ( 1.000000000000000000, 0.0000000000000000000, 0.0000000000000000000 ) ) ;
#261 = EDGE_LOOP ( 'NONE', ( #13, #38, #197, #33 ) ) ;
#262 = ORIENTED_EDGE ( 'NONE', *, *, #134, .T. ) ;
#263 = EDGE_CURVE ( 'NONE', #240, #39, #203, .T. ) ;
#264 = AXIS2_PLACEMENT_3D ( 'NONE', #253, #147, #117 ) ;
#265 = EDGE_LOOP ( 'NONE', ( #222, #262, #200, #284 ) ) ;
#266 = CARTESIAN_POINT ( 'NONE',  ( 0.0000000000000000000, 0.0000000000000000000, 0.0000000000000000000 ) ) ;
#267 = CARTESIAN_POINT ( 'NONE',  ( 0.07874000000000001831, 9.642868896486260050E-18, 1.953504000000000129 ) ) ;
#268 = DIRECTION ( 'NONE',  ( 1.224646799147353207E-16, 0.0000000000000000000, 1.000000000000000000 ) ) ;
#269 = VECTOR ( 'NONE', #5, 39.37007874015748143 ) ;
#270 = CYLINDRICAL_SURFACE ( 'NONE', #75, 0.01966531500000000265 ) ;
#271 = DIRECTION ( 'NONE',  ( -1.000000000000000000, 0.0000000000000000000, 0.0000000000000000000 ) ) ;
#272 = ADVANCED_FACE ( 'NONE', ( #212 ), #252, .T. ) ;
#273 = DIRECTION ( 'NONE',  ( -1.224646799147353207E-16, -0.0000000000000000000, -1.000000000000000000 ) ) ;
#274 =( GEOMETRIC_REPRESENTATION_CONTEXT ( 3 ) GLOBAL_UNCERTAINTY_ASSIGNED_CONTEXT ( ( #46 ) ) GLOBAL_UNIT_ASSIGNED_CONTEXT ( ( #206, #226, #44 ) ) REPRESENTATION_CONTEXT ( 'NONE', 'WORKASPACE' ) );
#275 = ADVANCED_BREP_SHAPE_REPRESENTATION ( 'Micro_AMRM-010-2X', ( #64, #76 ), #50 ) ;
#276 = CARTESIAN_POINT ( 'NONE',  ( 0.0000000000000000000, 0.0000000000000000000, 0.0000000000000000000 ) ) ;
#277 = CARTESIAN_POINT ( 'NONE',  ( 0.0000000000000000000, 0.0000000000000000000, 1.953504000000000129 ) ) ;
#278 = DIRECTION ( 'NONE',  ( -1.224646799147353207E-16, -0.0000000000000000000, -1.000000000000000000 ) ) ;
#279 = CARTESIAN_POINT ( 'NONE',  ( -0.01966531499999998878, 2.408306506897443486E-18, 0.1181100000000000066 ) ) ;
#280 = PRODUCT_CONTEXT ( 'NONE', #101, 'mechanical' ) ;
#281 = VERTEX_POINT ( 'NONE', #150 ) ;
#282 = ORIENTED_EDGE ( 'NONE', *, *, #162, .T. ) ;
#283 = AXIS2_PLACEMENT_3D ( 'NONE', #49, #256, #148 ) ;
#284 = ORIENTED_EDGE ( 'NONE', *, *, #17, .F. ) ;
#285 =( NAMED_UNIT ( * ) SI_UNIT ( $, .STERADIAN. ) SOLID_ANGLE_UNIT ( ) );
#286 = EDGE_LOOP ( 'NONE', ( #152, #194, #7, #246 ) ) ;
#287 = LENGTH_MEASURE_WITH_UNIT ( LENGTH_MEASURE( 0.02539999999999999897 ), #217 );
#288 = EDGE_LOOP ( 'NONE', ( #224, #79 ) ) ;
#289 = VECTOR ( 'NONE', #232, 39.37007874015748143 ) ;
#290 = PRESENTATION_LAYER_ASSIGNMENT (  '', '', ( #296 ) ) ;
#291 = CARTESIAN_POINT ( 'NONE',  ( 0.07874000000000007382, 9.642868896486266213E-18, 0.4531391870401412780 ) ) ;
#292 = PRODUCT_DEFINITION_SHAPE ( 'NONE', 'NONE',  #118 ) ;
#293 = EDGE_CURVE ( 'NONE', #218, #39, #239, .T. ) ;
#294 = FACE_OUTER_BOUND ( 'NONE', #261, .T. ) ;
#295 = DIRECTION ( 'NONE',  ( -1.000000000000000000, 0.0000000000000000000, 0.0000000000000000000 ) ) ;
#296 = STYLED_ITEM ( 'NONE', ( #80 ), #275 ) ;
#297 = DIRECTION ( 'NONE',  ( 1.000000000000000000, 0.0000000000000000000, 0.0000000000000000000 ) ) ;
#298 = EDGE_CURVE ( 'NONE', #281, #87, #29, .T. ) ;
#299 = DIRECTION ( 'NONE',  ( 0.0000000000000000000, 0.0000000000000000000, -1.000000000000000000 ) ) ;
ENDSEC;
END-ISO-10303-21;
