ISO-10303-21;
HEADER;
FILE_DESCRIPTION (( 'STEP AP214' ),
    '1' );
FILE_NAME ('Micro_GEC-375-4-030X.STEP',
    '2021-09-03T17:23:16',
    ( '' ),
    ( '' ),
    'SwSTEP 2.0',
    'SolidWorks 2020',
    '' );
FILE_SCHEMA (( 'AUTOMOTIVE_DESIGN' ));
ENDSEC;

DATA;
#1 = DIRECTION ( 'NONE',  ( 1.000000000000000000, 0.0000000000000000000, 0.0000000000000000000 ) ) ;
#2 = CARTESIAN_POINT ( 'NONE',  ( 0.1873125000000000484, 0.0000000000000000000, 0.8750000000000000000 ) ) ;
#3 = DIRECTION ( 'NONE',  ( 1.000000000000000000, 0.0000000000000000000, 0.0000000000000000000 ) ) ;
#4 = DIMENSIONAL_EXPONENTS ( 1.000000000000000000, 0.0000000000000000000, 0.0000000000000000000, 0.0000000000000000000, 0.0000000000000000000, 0.0000000000000000000, 0.0000000000000000000 ) ;
#5 = VECTOR ( 'NONE', #103, 39.37007874015748143 ) ;
#6 = CARTESIAN_POINT ( 'NONE',  ( 1.071565949253934025E-16, 0.0000000000000000000, 0.8750000000000000000 ) ) ;
#7 = STYLED_ITEM ( 'NONE', ( #124 ), #216 ) ;
#8 = DIRECTION ( 'NONE',  ( -1.224646799147353207E-16, -0.0000000000000000000, -1.000000000000000000 ) ) ;
#9 = DIRECTION ( 'NONE',  ( 0.0000000000000000000, 0.0000000000000000000, 1.000000000000000000 ) ) ;
#10 = DIRECTION ( 'NONE',  ( 0.0000000000000000000, -1.000000000000000000, 0.0000000000000000000 ) ) ;
#11 = CYLINDRICAL_SURFACE ( 'NONE', #237, 0.1875000000000000278 ) ;
#12 = EDGE_CURVE ( 'NONE', #20, #191, #55, .T. ) ;
#13 = AXIS2_PLACEMENT_3D ( 'NONE', #283, #201, #64 ) ;
#14 = DIRECTION ( 'NONE',  ( -0.7071067811865385799, 0.0000000000000000000, -0.7071067811865563435 ) ) ;
#15 = CARTESIAN_POINT ( 'NONE',  ( 0.0000000000000000000, 0.0000000000000000000, 2.484999999999999432 ) ) ;
#16 = EDGE_CURVE ( 'NONE', #135, #164, #140, .T. ) ;
#17 = ORIENTED_EDGE ( 'NONE', *, *, #69, .F. ) ;
#18 = CIRCLE ( 'NONE', #146, 0.1873124999999999374 ) ;
#19 = CARTESIAN_POINT ( 'NONE',  ( -0.1873124999999999929, 0.0000000000000000000, 2.293916535652885596E-17 ) ) ;
#20 = VERTEX_POINT ( 'NONE', #315 ) ;
#21 = CARTESIAN_POINT ( 'NONE',  ( -0.1875000000000000278, 0.0000000000000000000, 2.484999999999999432 ) ) ;
#22 = EDGE_CURVE ( 'NONE', #174, #25, #225, .T. ) ;
#23 = ORIENTED_EDGE ( 'NONE', *, *, #79, .F. ) ;
#24 = EDGE_LOOP ( 'NONE', ( #238, #56 ) ) ;
#25 = VERTEX_POINT ( 'NONE', #160 ) ;
#26 = CONICAL_SURFACE ( 'NONE', #122, 0.1873124999999999374, 0.1745329251994340025 ) ;
#27 = DIRECTION ( 'NONE',  ( -1.224646799147353207E-16, -0.0000000000000000000, -1.000000000000000000 ) ) ;
#28 = DIRECTION ( 'NONE',  ( 1.000000000000000000, 0.0000000000000000000, 0.0000000000000000000 ) ) ;
#29 = ORIENTED_EDGE ( 'NONE', *, *, #193, .T. ) ;
#30 = ORIENTED_EDGE ( 'NONE', *, *, #292, .T. ) ;
#31 = PRESENTATION_LAYER_ASSIGNMENT (  '', '', ( #7 ) ) ;
#32 = VECTOR ( 'NONE', #351, 39.37007874015748143 ) ;
#33 = DIRECTION ( 'NONE',  ( 0.0000000000000000000, 0.0000000000000000000, 1.000000000000000000 ) ) ;
#34 = CARTESIAN_POINT ( 'NONE',  ( 1.072868196215332765E-16, 0.0000000000000000000, 0.8760633653411785682 ) ) ;
#35 = DIRECTION ( 'NONE',  ( 1.224646799147353207E-16, 1.000000000000000000, -0.0000000000000000000 ) ) ;
#36 = PRODUCT ( 'Micro_GEC-375-4-030X', 'Micro_GEC-375-4-030X', '', ( #260 ) ) ;
#37 = MECHANICAL_DESIGN_GEOMETRIC_PRESENTATION_REPRESENTATION (  '', ( #7 ), #256 ) ;
#38 = CARTESIAN_POINT ( 'NONE',  ( -0.1724999999999995981, 0.0000000000000000000, 2.500000000000000000 ) ) ;
#39 = SHAPE_DEFINITION_REPRESENTATION ( #109, #95 ) ;
#40 = PRODUCT_DEFINITION ( 'UNKNOWN', '', #75, #132 ) ;
#41 = CARTESIAN_POINT ( 'NONE',  ( 0.1875000000000000833, 2.296212748401288650E-17, 0.8760633653411785682 ) ) ;
#42 = AXIS2_PLACEMENT_3D ( 'NONE', #62, #251, #112 ) ;
#43 = ADVANCED_FACE ( 'NONE', ( #214 ), #178, .T. ) ;
#44 = SURFACE_STYLE_FILL_AREA ( #234 ) ;
#45 = ORIENTED_EDGE ( 'NONE', *, *, #79, .T. ) ;
#46 = ORIENTED_EDGE ( 'NONE', *, *, #193, .F. ) ;
#47 = CIRCLE ( 'NONE', #344, 0.1875000000000000278 ) ;
#48 = ORIENTED_EDGE ( 'NONE', *, *, #321, .F. ) ;
#49 = ORIENTED_EDGE ( 'NONE', *, *, #139, .F. ) ;
#50 = FACE_OUTER_BOUND ( 'NONE', #309, .T. ) ;
#51 = EDGE_LOOP ( 'NONE', ( #23, #215, #210, #150 ) ) ;
#52 = UNCERTAINTY_MEASURE_WITH_UNIT (LENGTH_MEASURE( 1.000000000000000082E-05 ), #111, 'distance_accuracy_value', 'NONE');
#53 = CIRCLE ( 'NONE', #219, 0.1573124999999999940 ) ;
#54 = AXIS2_PLACEMENT_3D ( 'NONE', #333, #235, #147 ) ;
#55 = LINE ( 'NONE', #218, #5 ) ;
#56 = ORIENTED_EDGE ( 'NONE', *, *, #116, .T. ) ;
#57 = DIRECTION ( 'NONE',  ( -1.000000000000000000, 0.0000000000000000000, 0.0000000000000000000 ) ) ;
#58 = VECTOR ( 'NONE', #77, 39.37007874015748854 ) ;
#59 = CARTESIAN_POINT ( 'NONE',  ( 0.1873125000000000484, 0.0000000000000000000, 0.8750000000000000000 ) ) ;
#60 = FILL_AREA_STYLE ('',( #300 ) ) ;
#61 = CARTESIAN_POINT ( 'NONE',  ( 0.1573124999999999940, 0.0000000000000000000, 0.02999999999999999889 ) ) ;
#62 = CARTESIAN_POINT ( 'NONE',  ( 3.673940397442059190E-18, 0.0000000000000000000, 0.0000000000000000000 ) ) ;
#63 = DIRECTION ( 'NONE',  ( -1.000000000000000000, 0.0000000000000000000, 0.0000000000000000000 ) ) ;
#64 = DIRECTION ( 'NONE',  ( 1.000000000000000000, 0.0000000000000000000, -0.0000000000000000000 ) ) ;
#65 = LENGTH_MEASURE_WITH_UNIT ( LENGTH_MEASURE( 0.02539999999999999897 ), #89 );
#66 = LINE ( 'NONE', #203, #96 ) ;
#67 = COLOUR_RGB ( '',0.7921568627450980005, 0.8196078431372548767, 0.9333333333333333481 ) ;
#68 = LENGTH_MEASURE_WITH_UNIT ( LENGTH_MEASURE( 0.02539999999999999897 ), #70 );
#69 = EDGE_CURVE ( 'NONE', #25, #20, #131, .T. ) ;
#70 =( LENGTH_UNIT ( ) NAMED_UNIT ( * ) SI_UNIT ( $, .METRE. ) );
#71 = ORIENTED_EDGE ( 'NONE', *, *, #312, .F. ) ;
#72 = EDGE_LOOP ( 'NONE', ( #17, #244, #29, #207 ) ) ;
#73 = VECTOR ( 'NONE', #125, 39.37007874015748143 ) ;
#74 = ORIENTED_EDGE ( 'NONE', *, *, #12, .T. ) ;
#75 = PRODUCT_DEFINITION_FORMATION_WITH_SPECIFIED_SOURCE ( 'ANY', '', #36, .NOT_KNOWN. ) ;
#76 = CARTESIAN_POINT ( 'NONE',  ( 0.0000000000000000000, 0.0000000000000000000, 2.500000000000000000 ) ) ;
#77 = DIRECTION ( 'NONE',  ( 0.7071067811865385799, 8.659560562354823157E-17, -0.7071067811865563435 ) ) ;
#78 = ORIENTED_EDGE ( 'NONE', *, *, #123, .F. ) ;
#79 = EDGE_CURVE ( 'NONE', #347, #164, #184, .T. ) ;
#80 = ORIENTED_EDGE ( 'NONE', *, *, #306, .F. ) ;
#81 = AXIS2_PLACEMENT_3D ( 'NONE', #322, #202, #63 ) ;
#83 = ORIENTED_EDGE ( 'NONE', *, *, #321, .T. ) ;
#82 = EDGE_CURVE ( 'NONE', #268, #343, #270, .T. ) ;
#84 = CARTESIAN_POINT ( 'NONE',  ( 0.1573124999999999940, 0.0000000000000000000, 0.0000000000000000000 ) ) ;
#85 = PRODUCT_RELATED_PRODUCT_CATEGORY ( 'part', '', ( #36 ) ) ;
#86 = CARTESIAN_POINT ( 'NONE',  ( -0.1573124999999999940, 1.926522495908680139E-17, 0.02999999999999999889 ) ) ;
#87 = DIRECTION ( 'NONE',  ( -1.224646799147353207E-16, -0.0000000000000000000, -1.000000000000000000 ) ) ;
#88 = CARTESIAN_POINT ( 'NONE',  ( 0.1873124999999999929, 2.293916535652885596E-17, 0.03000000000000000583 ) ) ;
#89 =( LENGTH_UNIT ( ) NAMED_UNIT ( * ) SI_UNIT ( $, .METRE. ) );
#90 = DIRECTION ( 'NONE',  ( 0.0000000000000000000, 0.0000000000000000000, 1.000000000000000000 ) ) ;
#91 = DIRECTION ( 'NONE',  ( 0.0000000000000000000, 0.0000000000000000000, -1.000000000000000000 ) ) ;
#92 = AXIS2_PLACEMENT_3D ( 'NONE', #187, #217, #293 ) ;
#93 = AXIS2_PLACEMENT_3D ( 'NONE', #6, #253, #114 ) ;
#94 = ADVANCED_FACE ( 'NONE', ( #50 ), #144, .T. ) ;
#95 = ADVANCED_BREP_SHAPE_REPRESENTATION ( 'Micro_GEC-375-4-030X', ( #216, #54 ), #212 ) ;
#96 = VECTOR ( 'NONE', #14, 39.37007874015748854 ) ;
#97 = DIRECTION ( 'NONE',  ( -1.000000000000000000, 0.0000000000000000000, 0.0000000000000000000 ) ) ;
#98 = ORIENTED_EDGE ( 'NONE', *, *, #246, .T. ) ;
#99 = FACE_OUTER_BOUND ( 'NONE', #288, .T. ) ;
#100 = EDGE_LOOP ( 'NONE', ( #71, #346, #342, #48 ) ) ;
#101 = ORIENTED_EDGE ( 'NONE', *, *, #82, .F. ) ;
#102 = FACE_OUTER_BOUND ( 'NONE', #284, .T. ) ;
#103 = DIRECTION ( 'NONE',  ( -0.0000000000000000000, -0.0000000000000000000, -1.000000000000000000 ) ) ;
#104 = COLOUR_RGB ( '',0.7921568627450980005, 0.8196078431372548767, 0.9333333333333333481 ) ;
#105 = ORIENTED_EDGE ( 'NONE', *, *, #116, .F. ) ;
#106 = EDGE_CURVE ( 'NONE', #164, #135, #130, .T. ) ;
#107 = CARTESIAN_POINT ( 'NONE',  ( 0.0000000000000000000, 0.0000000000000000000, 2.500000000000000000 ) ) ;
#108 = CARTESIAN_POINT ( 'NONE',  ( -0.1875000000000000278, 0.0000000000000000000, 2.500000000000000000 ) ) ;
#109 = PRODUCT_DEFINITION_SHAPE ( 'NONE', 'NONE',  #40 ) ;
#110 = AXIS2_PLACEMENT_3D ( 'NONE', #228, #90, #200 ) ;
#111 =( CONVERSION_BASED_UNIT ( 'INCH', #327 ) LENGTH_UNIT ( ) NAMED_UNIT ( #326 ) );
#112 = DIRECTION ( 'NONE',  ( 1.000000000000000000, 0.0000000000000000000, 0.0000000000000000000 ) ) ;
#113 = ADVANCED_FACE ( 'NONE', ( #277 ), #198, .T. ) ;
#114 = DIRECTION ( 'NONE',  ( 1.000000000000000000, 0.0000000000000000000, 0.0000000000000000000 ) ) ;
#115 = SURFACE_SIDE_STYLE ('',( #301 ) ) ;
#116 = EDGE_CURVE ( 'NONE', #180, #345, #299, .T. ) ;
#117 = CARTESIAN_POINT ( 'NONE',  ( -0.1573124999999999940, 2.110219515780783022E-17, 0.0000000000000000000 ) ) ;
#118 = DIRECTION ( 'NONE',  ( 1.000000000000000000, 0.0000000000000000000, -0.0000000000000000000 ) ) ;
#119 = PLANE ( 'NONE',  #13 ) ;
#120 = AXIS2_PLACEMENT_3D ( 'NONE', #107, #320, #209 ) ;
#121 = FILL_AREA_STYLE_COLOUR ( '', #67 ) ;
#122 = AXIS2_PLACEMENT_3D ( 'NONE', #229, #330, #141 ) ;
#123 = EDGE_CURVE ( 'NONE', #343, #191, #47, .T. ) ;
#124 = PRESENTATION_STYLE_ASSIGNMENT (( #149 ) ) ;
#125 = DIRECTION ( 'NONE',  ( -1.224646799147353207E-16, -0.0000000000000000000, -1.000000000000000000 ) ) ;
#126 = EDGE_CURVE ( 'NONE', #20, #268, #275, .T. ) ;
#127 = ORIENTED_EDGE ( 'NONE', *, *, #82, .T. ) ;
#128 = ORIENTED_EDGE ( 'NONE', *, *, #106, .F. ) ;
#129 = ORIENTED_EDGE ( 'NONE', *, *, #173, .F. ) ;
#130 = CIRCLE ( 'NONE', #110, 0.1873124999999999929 ) ;
#131 = LINE ( 'NONE', #245, #58 ) ;
#132 = PRODUCT_DEFINITION_CONTEXT ( 'detailed design', #241, 'design' ) ;
#133 = ORIENTED_EDGE ( 'NONE', *, *, #69, .T. ) ;
#134 = DIRECTION ( 'NONE',  ( 1.000000000000000000, 0.0000000000000000000, 0.0000000000000000000 ) ) ;
#135 = VERTEX_POINT ( 'NONE', #192 ) ;
#136 = UNCERTAINTY_MEASURE_WITH_UNIT (LENGTH_MEASURE( 1.000000000000000082E-05 ), #172, 'distance_accuracy_value', 'NONE');
#137 = DIRECTION ( 'NONE',  ( -1.000000000000000000, 1.224646799147353454E-16, 0.0000000000000000000 ) ) ;
#138 = CARTESIAN_POINT ( 'NONE',  ( -0.1874999999999999167, 0.0000000000000000000, 0.8760633653411785682 ) ) ;
#139 = EDGE_CURVE ( 'NONE', #347, #154, #18, .T. ) ;
#140 = CIRCLE ( 'NONE', #92, 0.1873124999999999929 ) ;
#141 = DIRECTION ( 'NONE',  ( 1.000000000000000000, 0.0000000000000000000, 0.0000000000000000000 ) ) ;
#142 = FACE_OUTER_BOUND ( 'NONE', #24, .T. ) ;
#143 =( CONVERSION_BASED_UNIT ( 'INCH', #65 ) LENGTH_UNIT ( ) NAMED_UNIT ( #263 ) );
#144 = TOROIDAL_SURFACE ( 'NONE', #269, 0.1573124999999999940, 0.02999999999999999889 ) ;
#145 = CYLINDRICAL_SURFACE ( 'NONE', #305, 0.1873124999999999929 ) ;
#146 = AXIS2_PLACEMENT_3D ( 'NONE', #195, #87, #57 ) ;
#147 = DIRECTION ( 'NONE',  ( 1.000000000000000000, 0.0000000000000000000, 0.0000000000000000000 ) ) ;
#148 = DIRECTION ( 'NONE',  ( -1.000000000000000000, 0.0000000000000000000, 1.224646799147352961E-16 ) ) ;
#149 = SURFACE_STYLE_USAGE ( .BOTH. , #264 ) ;
#150 = ORIENTED_EDGE ( 'NONE', *, *, #16, .T. ) ;
#151 = LINE ( 'NONE', #19, #73 ) ;
#152 = CONICAL_SURFACE ( 'NONE', #265, 0.1724999999999995981, 0.7853981633974357335 ) ;
#153 =( GEOMETRIC_REPRESENTATION_CONTEXT ( 3 ) GLOBAL_UNCERTAINTY_ASSIGNED_CONTEXT ( ( #278 ) ) GLOBAL_UNIT_ASSIGNED_CONTEXT ( ( #143, #336, #257 ) ) REPRESENTATION_CONTEXT ( 'NONE', 'WORKASPACE' ) );
#154 = VERTEX_POINT ( 'NONE', #166 ) ;
#155 = DIRECTION ( 'NONE',  ( -1.000000000000000000, 0.0000000000000000000, 0.0000000000000000000 ) ) ;
#156 = ORIENTED_EDGE ( 'NONE', *, *, #281, .T. ) ;
#157 = EDGE_LOOP ( 'NONE', ( #80, #49, #83, #156 ) ) ;
#158 = CARTESIAN_POINT ( 'NONE',  ( 0.0000000000000000000, 0.0000000000000000000, 2.500000000000000000 ) ) ;
#159 = ADVANCED_FACE ( 'NONE', ( #274 ), #145, .T. ) ;
#160 = CARTESIAN_POINT ( 'NONE',  ( 0.1724999999999995981, 2.204364238465233357E-17, 2.500000000000000000 ) ) ;
#161 = AXIS2_PLACEMENT_3D ( 'NONE', #76, #183, #186 ) ;
#162 = MECHANICAL_DESIGN_GEOMETRIC_PRESENTATION_REPRESENTATION (  '', ( #233 ), #153 ) ;
#163 = CARTESIAN_POINT ( 'NONE',  ( 3.673940397442059190E-18, 0.0000000000000000000, 0.02999999999999999889 ) ) ;
#164 = VERTEX_POINT ( 'NONE', #88 ) ;
#165 =( NAMED_UNIT ( * ) SI_UNIT ( $, .STERADIAN. ) SOLID_ANGLE_UNIT ( ) );
#166 = CARTESIAN_POINT ( 'NONE',  ( -0.1873124999999998541, 2.295064642027086199E-17, 0.8750000000000000000 ) ) ;
#167 = AXIS2_PLACEMENT_3D ( 'NONE', #163, #318, #28 ) ;
#168 = SURFACE_STYLE_USAGE ( .BOTH. , #115 ) ;
#169 = LINE ( 'NONE', #2, #32 ) ;
#170 = DIRECTION ( 'NONE',  ( 1.000000000000000000, 0.0000000000000000000, 0.0000000000000000000 ) ) ;
#171 = PRESENTATION_LAYER_ASSIGNMENT (  '', '', ( #233 ) ) ;
#172 =( CONVERSION_BASED_UNIT ( 'INCH', #68 ) LENGTH_UNIT ( ) NAMED_UNIT ( #4 ) );
#173 = EDGE_CURVE ( 'NONE', #345, #164, #231, .T. ) ;
#174 = VERTEX_POINT ( 'NONE', #38 ) ;
#175 = EDGE_LOOP ( 'NONE', ( #286, #98 ) ) ;
#176 = CLOSED_SHELL ( 'NONE', ( #43, #113, #185, #261, #223, #271, #317, #303, #335, #159, #182, #94 ) ) ;
#177 = DIRECTION ( 'NONE',  ( 0.0000000000000000000, 0.0000000000000000000, 1.000000000000000000 ) ) ;
#178 = TOROIDAL_SURFACE ( 'NONE', #167, 0.1573124999999999940, 0.02999999999999999889 ) ;
#179 = CIRCLE ( 'NONE', #204, 0.1875000000000000278 ) ;
#180 = VERTEX_POINT ( 'NONE', #117 ) ;
#181 = ORIENTED_EDGE ( 'NONE', *, *, #126, .T. ) ;
#182 = ADVANCED_FACE ( 'NONE', ( #142 ), #119, .F. ) ;
#183 = DIRECTION ( 'NONE',  ( -0.0000000000000000000, -0.0000000000000000000, -1.000000000000000000 ) ) ;
#184 = LINE ( 'NONE', #290, #334 ) ;
#185 = ADVANCED_FACE ( 'NONE', ( #332 ), #26, .T. ) ;
#186 = DIRECTION ( 'NONE',  ( -1.000000000000000000, 0.0000000000000000000, 0.0000000000000000000 ) ) ;
#187 = CARTESIAN_POINT ( 'NONE',  ( 3.673940397442059960E-18, 0.0000000000000000000, 0.03000000000000000583 ) ) ;
#188 = ORIENTED_EDGE ( 'NONE', *, *, #205, .F. ) ;
#189 = VECTOR ( 'NONE', #298, 39.37007874015748143 ) ;
#190 = APPLICATION_CONTEXT ( 'automotive_design' ) ;
#191 = VERTEX_POINT ( 'NONE', #41 ) ;
#192 = CARTESIAN_POINT ( 'NONE',  ( -0.1873124999999999929, 0.0000000000000000000, 0.03000000000000000583 ) ) ;
#193 = EDGE_CURVE ( 'NONE', #174, #268, #66, .T. ) ;
#194 = CARTESIAN_POINT ( 'NONE',  ( 0.0000000000000000000, 0.0000000000000000000, 2.500000000000000000 ) ) ;
#195 = CARTESIAN_POINT ( 'NONE',  ( 1.071565949253934025E-16, 0.0000000000000000000, 0.8750000000000000000 ) ) ;
#196 = AXIS2_PLACEMENT_3D ( 'NONE', #325, #350, #302 ) ;
#197 = DIRECTION ( 'NONE',  ( -1.000000000000000000, 0.0000000000000000000, 0.0000000000000000000 ) ) ;
#198 = CYLINDRICAL_SURFACE ( 'NONE', #196, 0.1873124999999999929 ) ;
#199 = DIRECTION ( 'NONE',  ( -0.0000000000000000000, -0.0000000000000000000, -1.000000000000000000 ) ) ;
#200 = DIRECTION ( 'NONE',  ( 1.000000000000000000, 0.0000000000000000000, 0.0000000000000000000 ) ) ;
#201 = DIRECTION ( 'NONE',  ( 0.0000000000000000000, 0.0000000000000000000, 1.000000000000000000 ) ) ;
#202 = DIRECTION ( 'NONE',  ( 0.0000000000000000000, 0.0000000000000000000, -1.000000000000000000 ) ) ;
#203 = CARTESIAN_POINT ( 'NONE',  ( -0.1724999999999995981, 0.0000000000000000000, 2.500000000000000000 ) ) ;
#204 = AXIS2_PLACEMENT_3D ( 'NONE', #291, #27, #1 ) ;
#205 = EDGE_CURVE ( 'NONE', #268, #20, #226, .T. ) ;
#206 = CARTESIAN_POINT ( 'NONE',  ( 0.0000000000000000000, 0.0000000000000000000, 2.500000000000000000 ) ) ;
#207 = ORIENTED_EDGE ( 'NONE', *, *, #126, .F. ) ;
#208 = DIRECTION ( 'NONE',  ( 0.0000000000000000000, 0.0000000000000000000, -1.000000000000000000 ) ) ;
#209 = DIRECTION ( 'NONE',  ( 1.000000000000000000, 0.0000000000000000000, 0.0000000000000000000 ) ) ;
#210 = ORIENTED_EDGE ( 'NONE', *, *, #252, .T. ) ;
#211 = VECTOR ( 'NONE', #311, 39.37007874015748143 ) ;
#212 =( GEOMETRIC_REPRESENTATION_CONTEXT ( 3 ) GLOBAL_UNCERTAINTY_ASSIGNED_CONTEXT ( ( #52 ) ) GLOBAL_UNIT_ASSIGNED_CONTEXT ( ( #111, #276, #165 ) ) REPRESENTATION_CONTEXT ( 'NONE', 'WORKASPACE' ) );
#213 = CYLINDRICAL_SURFACE ( 'NONE', #161, 0.1875000000000000278 ) ;
#214 = FACE_OUTER_BOUND ( 'NONE', #266, .T. ) ;
#215 = ORIENTED_EDGE ( 'NONE', *, *, #139, .T. ) ;
#216 = MANIFOLD_SOLID_BREP ( 'Fillet1', #176 ) ;
#217 = DIRECTION ( 'NONE',  ( 0.0000000000000000000, 0.0000000000000000000, 1.000000000000000000 ) ) ;
#218 = CARTESIAN_POINT ( 'NONE',  ( 0.1875000000000000278, 2.296212748401287726E-17, 2.500000000000000000 ) ) ;
#219 = AXIS2_PLACEMENT_3D ( 'NONE', #349, #199, #134 ) ;
#220 = DIRECTION ( 'NONE',  ( 0.0000000000000000000, 0.0000000000000000000, -1.000000000000000000 ) ) ;
#221 = FACE_OUTER_BOUND ( 'NONE', #157, .T. ) ;
#222 = DIRECTION ( 'NONE',  ( -1.224646799147353207E-16, -0.0000000000000000000, -1.000000000000000000 ) ) ;
#223 = ADVANCED_FACE ( 'NONE', ( #99 ), #11, .T. ) ;
#224 = CARTESIAN_POINT ( 'NONE',  ( 0.0000000000000000000, 0.0000000000000000000, 2.484999999999999432 ) ) ;
#225 = CIRCLE ( 'NONE', #120, 0.1724999999999995981 ) ;
#226 = CIRCLE ( 'NONE', #339, 0.1875000000000000278 ) ;
#227 = FACE_OUTER_BOUND ( 'NONE', #175, .T. ) ;
#228 = CARTESIAN_POINT ( 'NONE',  ( 3.673940397442059960E-18, 0.0000000000000000000, 0.03000000000000000583 ) ) ;
#229 = CARTESIAN_POINT ( 'NONE',  ( 1.071565949253934025E-16, 0.0000000000000000000, 0.8750000000000000000 ) ) ;
#230 = CARTESIAN_POINT ( 'NONE',  ( -0.1873124999999998541, 2.293916535652885288E-17, 0.8750000000000000000 ) ) ;
#231 = CIRCLE ( 'NONE', #328, 0.02999999999999999889 ) ;
#232 = AXIS2_PLACEMENT_3D ( 'NONE', #224, #220, #323 ) ;
#233 = STYLED_ITEM ( 'NONE', ( #279 ), #95 ) ;
#234 = FILL_AREA_STYLE ('',( #121 ) ) ;
#235 = DIRECTION ( 'NONE',  ( 0.0000000000000000000, 0.0000000000000000000, 1.000000000000000000 ) ) ;
#236 =( NAMED_UNIT ( * ) SI_UNIT ( $, .STERADIAN. ) SOLID_ANGLE_UNIT ( ) );
#237 = AXIS2_PLACEMENT_3D ( 'NONE', #285, #239, #97 ) ;
#238 = ORIENTED_EDGE ( 'NONE', *, *, #297, .T. ) ;
#239 = DIRECTION ( 'NONE',  ( -0.0000000000000000000, -0.0000000000000000000, -1.000000000000000000 ) ) ;
#240 = ORIENTED_EDGE ( 'NONE', *, *, #16, .F. ) ;
#241 = APPLICATION_CONTEXT ( 'automotive_design' ) ;
#242 = EDGE_LOOP ( 'NONE', ( #272, #45, #340, #243 ) ) ;
#243 = ORIENTED_EDGE ( 'NONE', *, *, #252, .F. ) ;
#244 = ORIENTED_EDGE ( 'NONE', *, *, #22, .F. ) ;
#245 = CARTESIAN_POINT ( 'NONE',  ( 0.1724999999999995981, 2.112515728529179297E-17, 2.500000000000000000 ) ) ;
#246 = EDGE_CURVE ( 'NONE', #25, #174, #294, .T. ) ;
#247 = ORIENTED_EDGE ( 'NONE', *, *, #292, .F. ) ;
#248 = ORIENTED_EDGE ( 'NONE', *, *, #246, .F. ) ;
#249 = AXIS2_PLACEMENT_3D ( 'NONE', #206, #177, #308 ) ;
#250 = DIRECTION ( 'NONE',  ( -1.224646799147353207E-16, -0.0000000000000000000, -1.000000000000000000 ) ) ;
#251 = DIRECTION ( 'NONE',  ( -0.0000000000000000000, -0.0000000000000000000, -1.000000000000000000 ) ) ;
#252 = EDGE_CURVE ( 'NONE', #154, #135, #151, .T. ) ;
#253 = DIRECTION ( 'NONE',  ( 1.224646799147353207E-16, 0.0000000000000000000, 1.000000000000000000 ) ) ;
#254 = DIRECTION ( 'NONE',  ( 1.000000000000000000, 0.0000000000000000000, 0.0000000000000000000 ) ) ;
#255 = FACE_OUTER_BOUND ( 'NONE', #72, .T. ) ;
#256 =( GEOMETRIC_REPRESENTATION_CONTEXT ( 3 ) GLOBAL_UNCERTAINTY_ASSIGNED_CONTEXT ( ( #136 ) ) GLOBAL_UNIT_ASSIGNED_CONTEXT ( ( #172, #341, #236 ) ) REPRESENTATION_CONTEXT ( 'NONE', 'WORKASPACE' ) );
#257 =( NAMED_UNIT ( * ) SI_UNIT ( $, .STERADIAN. ) SOLID_ANGLE_UNIT ( ) );
#258 = AXIS2_PLACEMENT_3D ( 'NONE', #304, #250, #197 ) ;
#259 = DIRECTION ( 'NONE',  ( 0.0000000000000000000, 0.0000000000000000000, -1.000000000000000000 ) ) ;
#260 = PRODUCT_CONTEXT ( 'NONE', #190, 'mechanical' ) ;
#261 = ADVANCED_FACE ( 'NONE', ( #310 ), #152, .T. ) ;
#262 = ORIENTED_EDGE ( 'NONE', *, *, #297, .F. ) ;
#263 = DIMENSIONAL_EXPONENTS ( 1.000000000000000000, 0.0000000000000000000, 0.0000000000000000000, 0.0000000000000000000, 0.0000000000000000000, 0.0000000000000000000, 0.0000000000000000000 ) ;
#264 = SURFACE_SIDE_STYLE ('',( #44 ) ) ;
#265 = AXIS2_PLACEMENT_3D ( 'NONE', #158, #208, #155 ) ;
#266 = EDGE_LOOP ( 'NONE', ( #105, #30, #128, #129 ) ) ;
#267 = ORIENTED_EDGE ( 'NONE', *, *, #173, .T. ) ;
#268 = VERTEX_POINT ( 'NONE', #21 ) ;
#269 = AXIS2_PLACEMENT_3D ( 'NONE', #329, #33, #254 ) ;
#270 = LINE ( 'NONE', #108, #211 ) ;
#271 = ADVANCED_FACE ( 'NONE', ( #102 ), #213, .T. ) ;
#272 = ORIENTED_EDGE ( 'NONE', *, *, #312, .T. ) ;
#273 = APPLICATION_PROTOCOL_DEFINITION ( 'draft international standard', 'automotive_design', 1998, #190 ) ;
#274 = FACE_OUTER_BOUND ( 'NONE', #51, .T. ) ;
#275 = CIRCLE ( 'NONE', #232, 0.1875000000000000278 ) ;
#276 =( NAMED_UNIT ( * ) PLANE_ANGLE_UNIT ( ) SI_UNIT ( $, .RADIAN. ) );
#277 = FACE_OUTER_BOUND ( 'NONE', #242, .T. ) ;
#278 = UNCERTAINTY_MEASURE_WITH_UNIT (LENGTH_MEASURE( 1.000000000000000082E-05 ), #143, 'distance_accuracy_value', 'NONE');
#279 = PRESENTATION_STYLE_ASSIGNMENT (( #168 ) ) ;
#280 = AXIS2_PLACEMENT_3D ( 'NONE', #194, #9, #118 ) ;
#281 = EDGE_CURVE ( 'NONE', #191, #343, #179, .T. ) ;
#282 =( LENGTH_UNIT ( ) NAMED_UNIT ( * ) SI_UNIT ( $, .METRE. ) );
#283 = CARTESIAN_POINT ( 'NONE',  ( 0.0000000000000000000, 0.0000000000000000000, 0.0000000000000000000 ) ) ;
#284 = EDGE_LOOP ( 'NONE', ( #296, #181, #127, #289 ) ) ;
#285 = CARTESIAN_POINT ( 'NONE',  ( 0.0000000000000000000, 0.0000000000000000000, 2.500000000000000000 ) ) ;
#286 = ORIENTED_EDGE ( 'NONE', *, *, #22, .T. ) ;
#287 = CONICAL_SURFACE ( 'NONE', #81, 0.1724999999999995981, 0.7853981633974357335 ) ;
#288 = EDGE_LOOP ( 'NONE', ( #316, #74, #78, #101 ) ) ;
#289 = ORIENTED_EDGE ( 'NONE', *, *, #281, .F. ) ;
#290 = CARTESIAN_POINT ( 'NONE',  ( 0.1873124999999999929, 2.293916535652885596E-17, -2.293916535652885596E-17 ) ) ;
#291 = CARTESIAN_POINT ( 'NONE',  ( 1.072868196215332765E-16, 0.0000000000000000000, 0.8760633653411785682 ) ) ;
#292 = EDGE_CURVE ( 'NONE', #180, #135, #307, .T. ) ;
#293 = DIRECTION ( 'NONE',  ( 1.000000000000000000, 0.0000000000000000000, 0.0000000000000000000 ) ) ;
#294 = CIRCLE ( 'NONE', #249, 0.1724999999999995981 ) ;
#295 = DIRECTION ( 'NONE',  ( -1.224646799147353207E-16, -0.0000000000000000000, -1.000000000000000000 ) ) ;
#296 = ORIENTED_EDGE ( 'NONE', *, *, #12, .F. ) ;
#297 = EDGE_CURVE ( 'NONE', #345, #180, #53, .T. ) ;
#298 = DIRECTION ( 'NONE',  ( -0.1736481776669312749, 2.126576849575784241E-17, 0.9848077530122077983 ) ) ;
#299 = CIRCLE ( 'NONE', #42, 0.1573124999999999940 ) ;
#300 = FILL_AREA_STYLE_COLOUR ( '', #104 ) ;
#301 = SURFACE_STYLE_FILL_AREA ( #60 ) ;
#302 = DIRECTION ( 'NONE',  ( -1.000000000000000000, 0.0000000000000000000, 1.224646799147352961E-16 ) ) ;
#303 = ADVANCED_FACE ( 'NONE', ( #255 ), #287, .T. ) ;
#304 = CARTESIAN_POINT ( 'NONE',  ( 1.071565949253934025E-16, 0.0000000000000000000, 0.8750000000000000000 ) ) ;
#305 = AXIS2_PLACEMENT_3D ( 'NONE', #337, #8, #148 ) ;
#306 = EDGE_CURVE ( 'NONE', #154, #343, #324, .T. ) ;
#307 = CIRCLE ( 'NONE', #348, 0.02999999999999998848 ) ;
#308 = DIRECTION ( 'NONE',  ( 1.000000000000000000, 0.0000000000000000000, 0.0000000000000000000 ) ) ;
#309 = EDGE_LOOP ( 'NONE', ( #247, #262, #267, #240 ) ) ;
#310 = FACE_OUTER_BOUND ( 'NONE', #313, .T. ) ;
#311 = DIRECTION ( 'NONE',  ( -0.0000000000000000000, -0.0000000000000000000, -1.000000000000000000 ) ) ;
#312 = EDGE_CURVE ( 'NONE', #154, #347, #314, .T. ) ;
#313 = EDGE_LOOP ( 'NONE', ( #248, #133, #188, #46 ) ) ;
#314 = CIRCLE ( 'NONE', #258, 0.1873124999999999374 ) ;
#315 = CARTESIAN_POINT ( 'NONE',  ( 0.1875000000000000278, 2.296212748401287726E-17, 2.484999999999999432 ) ) ;
#316 = ORIENTED_EDGE ( 'NONE', *, *, #205, .T. ) ;
#317 = ADVANCED_FACE ( 'NONE', ( #227 ), #331, .T. ) ;
#318 = DIRECTION ( 'NONE',  ( 0.0000000000000000000, 0.0000000000000000000, 1.000000000000000000 ) ) ;
#319 = CONICAL_SURFACE ( 'NONE', #93, 0.1873124999999999374, 0.1745329251994340025 ) ;
#320 = DIRECTION ( 'NONE',  ( 0.0000000000000000000, 0.0000000000000000000, 1.000000000000000000 ) ) ;
#321 = EDGE_CURVE ( 'NONE', #347, #191, #169, .T. ) ;
#322 = CARTESIAN_POINT ( 'NONE',  ( 0.0000000000000000000, 0.0000000000000000000, 2.500000000000000000 ) ) ;
#323 = DIRECTION ( 'NONE',  ( 1.000000000000000000, 0.0000000000000000000, 0.0000000000000000000 ) ) ;
#324 = LINE ( 'NONE', #230, #189 ) ;
#325 = CARTESIAN_POINT ( 'NONE',  ( 0.0000000000000000000, 0.0000000000000000000, 0.0000000000000000000 ) ) ;
#326 = DIMENSIONAL_EXPONENTS ( 1.000000000000000000, 0.0000000000000000000, 0.0000000000000000000, 0.0000000000000000000, 0.0000000000000000000, 0.0000000000000000000, 0.0000000000000000000 ) ;
#327 = LENGTH_MEASURE_WITH_UNIT ( LENGTH_MEASURE( 0.02539999999999999897 ), #282 );
#328 = AXIS2_PLACEMENT_3D ( 'NONE', #61, #10, #259 ) ;
#329 = CARTESIAN_POINT ( 'NONE',  ( 3.673940397442059190E-18, 0.0000000000000000000, 0.02999999999999999889 ) ) ;
#330 = DIRECTION ( 'NONE',  ( 1.224646799147353207E-16, 0.0000000000000000000, 1.000000000000000000 ) ) ;
#331 = PLANE ( 'NONE',  #280 ) ;
#332 = FACE_OUTER_BOUND ( 'NONE', #100, .T. ) ;
#333 = CARTESIAN_POINT ( 'NONE',  ( 0.0000000000000000000, 0.0000000000000000000, 0.0000000000000000000 ) ) ;
#334 = VECTOR ( 'NONE', #295, 39.37007874015748143 ) ;
#335 = ADVANCED_FACE ( 'NONE', ( #221 ), #319, .T. ) ;
#336 =( NAMED_UNIT ( * ) PLANE_ANGLE_UNIT ( ) SI_UNIT ( $, .RADIAN. ) );
#337 = CARTESIAN_POINT ( 'NONE',  ( 0.0000000000000000000, 0.0000000000000000000, 0.0000000000000000000 ) ) ;
#338 = APPLICATION_PROTOCOL_DEFINITION ( 'draft international standard', 'automotive_design', 1998, #241 ) ;
#339 = AXIS2_PLACEMENT_3D ( 'NONE', #15, #91, #170 ) ;
#340 = ORIENTED_EDGE ( 'NONE', *, *, #106, .T. ) ;
#341 =( NAMED_UNIT ( * ) PLANE_ANGLE_UNIT ( ) SI_UNIT ( $, .RADIAN. ) );
#342 = ORIENTED_EDGE ( 'NONE', *, *, #123, .T. ) ;
#343 = VERTEX_POINT ( 'NONE', #138 ) ;
#344 = AXIS2_PLACEMENT_3D ( 'NONE', #34, #222, #3 ) ;
#345 = VERTEX_POINT ( 'NONE', #84 ) ;
#346 = ORIENTED_EDGE ( 'NONE', *, *, #306, .T. ) ;
#347 = VERTEX_POINT ( 'NONE', #59 ) ;
#348 = AXIS2_PLACEMENT_3D ( 'NONE', #86, #35, #137 ) ;
#349 = CARTESIAN_POINT ( 'NONE',  ( 3.673940397442059190E-18, 0.0000000000000000000, 0.0000000000000000000 ) ) ;
#350 = DIRECTION ( 'NONE',  ( -1.224646799147353207E-16, -0.0000000000000000000, -1.000000000000000000 ) ) ;
#351 = DIRECTION ( 'NONE',  ( 0.1736481776669314969, 0.0000000000000000000, 0.9848077530122077983 ) ) ;
ENDSEC;
END-ISO-10303-21;
