ISO-10303-21;
HEADER;
FILE_DESCRIPTION (( 'STEP AP214' ),
    '1' );
FILE_NAME ('81563.STEP',
    '2023-06-23T02:02:28',
    ( '' ),
    ( '' ),
    'SwSTEP 2.0',
    'SolidWorks 2023',
    '' );
FILE_SCHEMA (( 'AUTOMOTIVE_DESIGN' ));
ENDSEC;

DATA;
#1 = CIRCLE ( 'NONE', #297, 0.3750000000000000555 ) ;
#2 =( NAMED_UNIT ( * ) PLANE_ANGLE_UNIT ( ) SI_UNIT ( $, .RADIAN. ) );
#3 = DIRECTION ( 'NONE',  ( -1.000000000000000000, -5.442874662877125091E-17, 0.000000000000000000 ) ) ;
#4 = CARTESIAN_POINT ( 'NONE',  ( -1.224646799147353207E-16, 5.000000000000000000, 0.000000000000000000 ) ) ;
#5 = ORIENTED_EDGE ( 'NONE', *, *, #204, .F. ) ;
#6 = ORIENTED_EDGE ( 'NONE', *, *, #186, .F. ) ;
#7 = VERTEX_POINT ( 'NONE', #246 ) ;
#8 = ADVANCED_FACE ( 'NONE', ( #156 ), #57, .F. ) ;
#9 = SURFACE_STYLE_FILL_AREA ( #62 ) ;
#10 = STYLED_ITEM ( 'NONE', ( #165 ), #128 ) ;
#11 = VERTEX_POINT ( 'NONE', #203 ) ;
#12 = FACE_OUTER_BOUND ( 'NONE', #35, .T. ) ;
#13 = CARTESIAN_POINT ( 'NONE',  ( -0.3750000000000000555, 2.750000000000000000, 0.000000000000000000 ) ) ;
#14 = COLOUR_RGB ( '',0.7921568627450980005, 0.8196078431372548767, 0.9333333333333333481 ) ;
#15 = LENGTH_MEASURE_WITH_UNIT ( LENGTH_MEASURE( 0.02539999999999999897 ), #90 );
#16 = CYLINDRICAL_SURFACE ( 'NONE', #52, 0.3750000000000000555 ) ;
#17 = SURFACE_STYLE_FILL_AREA ( #234 ) ;
#18 = ADVANCED_FACE ( 'NONE', ( #102 ), #130, .F. ) ;
#19 = SURFACE_STYLE_USAGE ( .BOTH. , #99 ) ;
#20 = CIRCLE ( 'NONE', #74, 0.3750000000000000555 ) ;
#21 = DIRECTION ( 'NONE',  ( -5.442874662877125708E-17, 1.000000000000000000, -0.000000000000000000 ) ) ;
#22 = CARTESIAN_POINT ( 'NONE',  ( 0.3750000000000000555, 5.000000000000000000, 0.000000000000000000 ) ) ;
#23 = CYLINDRICAL_SURFACE ( 'NONE', #92, 0.3750000000000000555 ) ;
#24 = CARTESIAN_POINT ( 'NONE',  ( 0.3749999999999999445, 5.000000000000000000, 4.592425496802576068E-17 ) ) ;
#25 = LENGTH_MEASURE_WITH_UNIT ( LENGTH_MEASURE( 0.02539999999999999897 ), #101 );
#26 = ORIENTED_EDGE ( 'NONE', *, *, #193, .F. ) ;
#27 = ORIENTED_EDGE ( 'NONE', *, *, #241, .T. ) ;
#28 = DIRECTION ( 'NONE',  ( 0.000000000000000000, 0.000000000000000000, -1.000000000000000000 ) ) ;
#29 =( GEOMETRIC_REPRESENTATION_CONTEXT ( 3 ) GLOBAL_UNCERTAINTY_ASSIGNED_CONTEXT ( ( #191 ) ) GLOBAL_UNIT_ASSIGNED_CONTEXT ( ( #205, #61, #276 ) ) REPRESENTATION_CONTEXT ( 'NONE', 'WORKASPACE' ) );
#30 = DIRECTION ( 'NONE',  ( 1.000000000000000000, 5.442874662877125091E-17, 0.000000000000000000 ) ) ;
#31 = ORIENTED_EDGE ( 'NONE', *, *, #237, .F. ) ;
#32 = EDGE_CURVE ( 'NONE', #7, #201, #195, .T. ) ;
#33 = DIRECTION ( 'NONE',  ( 0.000000000000000000, 1.000000000000000000, 0.000000000000000000 ) ) ;
#34 =( NAMED_UNIT ( * ) PLANE_ANGLE_UNIT ( ) SI_UNIT ( $, .RADIAN. ) );
#35 = EDGE_LOOP ( 'NONE', ( #136, #113, #247, #5 ) ) ;
#36 =( LENGTH_UNIT ( ) NAMED_UNIT ( * ) SI_UNIT ( $, .METRE. ) );
#37 = VECTOR ( 'NONE', #278, 39.37007874015748143 ) ;
#38 = MECHANICAL_DESIGN_GEOMETRIC_PRESENTATION_REPRESENTATION (  '', ( #10 ), #181 ) ;
#39 = EDGE_CURVE ( 'NONE', #58, #224, #127, .T. ) ;
#40 = DIMENSIONAL_EXPONENTS ( 1.000000000000000000, 0.000000000000000000, 0.000000000000000000, 0.000000000000000000, 0.000000000000000000, 0.000000000000000000, 0.000000000000000000 ) ;
#41 = AXIS2_PLACEMENT_3D ( 'NONE', #252, #229, #3 ) ;
#42 =( GEOMETRIC_REPRESENTATION_CONTEXT ( 3 ) GLOBAL_UNCERTAINTY_ASSIGNED_CONTEXT ( ( #289 ) ) GLOBAL_UNIT_ASSIGNED_CONTEXT ( ( #188, #34, #213 ) ) REPRESENTATION_CONTEXT ( 'NONE', 'WORKASPACE' ) );
#43 = CARTESIAN_POINT ( 'NONE',  ( 0.000000000000000000, 2.750000000000000000, 0.000000000000000000 ) ) ;
#44 = MANIFOLD_SOLID_BREP ( 'Revolve - Tool Body (Straight Shanked)', #179 ) ;
#45 = LINE ( 'NONE', #143, #145 ) ;
#46 = ADVANCED_FACE ( 'NONE', ( #12 ), #254, .T. ) ;
#47 = MECHANICAL_DESIGN_GEOMETRIC_PRESENTATION_REPRESENTATION (  '', ( #106 ), #123 ) ;
#48 = PRODUCT_DEFINITION_CONTEXT ( 'detailed design', #309, 'design' ) ;
#49 = CARTESIAN_POINT ( 'NONE',  ( 0.000000000000000000, 0.000000000000000000, 0.000000000000000000 ) ) ;
#50 = ADVANCED_FACE ( 'NONE', ( #210 ), #305, .T. ) ;
#51 = CARTESIAN_POINT ( 'NONE',  ( -1.224646799147353207E-16, 5.000000000000000000, 0.000000000000000000 ) ) ;
#52 = AXIS2_PLACEMENT_3D ( 'NONE', #220, #118, #75 ) ;
#53 = PRESENTATION_STYLE_ASSIGNMENT (( #271 ) ) ;
#54 = AXIS2_PLACEMENT_3D ( 'NONE', #89, #302, #157 ) ;
#55 = ORIENTED_EDGE ( 'NONE', *, *, #241, .F. ) ;
#56 = SURFACE_STYLE_FILL_AREA ( #175 ) ;
#57 = PLANE ( 'NONE',  #212 ) ;
#58 = VERTEX_POINT ( 'NONE', #13 ) ;
#59 =( LENGTH_UNIT ( ) NAMED_UNIT ( * ) SI_UNIT ( $, .METRE. ) );
#60 = PRODUCT ( '81563', '81563', '', ( #230 ) ) ;
#61 =( NAMED_UNIT ( * ) PLANE_ANGLE_UNIT ( ) SI_UNIT ( $, .RADIAN. ) );
#62 = FILL_AREA_STYLE ('',( #189 ) ) ;
#63 = CIRCLE ( 'NONE', #263, 0.3750000000000000555 ) ;
#64 = CARTESIAN_POINT ( 'NONE',  ( 0.000000000000000000, 0.000000000000000000, 0.000000000000000000 ) ) ;
#65 = LENGTH_MEASURE_WITH_UNIT ( LENGTH_MEASURE( 0.02539999999999999897 ), #300 );
#66 = DIRECTION ( 'NONE',  ( -1.000000000000000000, 0.000000000000000000, 0.000000000000000000 ) ) ;
#67 = DIMENSIONAL_EXPONENTS ( 1.000000000000000000, 0.000000000000000000, 0.000000000000000000, 0.000000000000000000, 0.000000000000000000, 0.000000000000000000, 0.000000000000000000 ) ;
#68 = SURFACE_STYLE_FILL_AREA ( #97 ) ;
#69 = VECTOR ( 'NONE', #295, 39.37007874015748143 ) ;
#70 = AXIS2_PLACEMENT_3D ( 'NONE', #51, #103, #294 ) ;
#71 = UNCERTAINTY_MEASURE_WITH_UNIT (LENGTH_MEASURE( 1.000000000000000082E-05 ), #209, 'distance_accuracy_value', 'NONE');
#72 = DIRECTION ( 'NONE',  ( -1.000000000000000000, 0.000000000000000000, 0.000000000000000000 ) ) ;
#73 = LENGTH_MEASURE_WITH_UNIT ( LENGTH_MEASURE( 0.02539999999999999897 ), #192 );
#74 = AXIS2_PLACEMENT_3D ( 'NONE', #107, #267, #202 ) ;
#75 = DIRECTION ( 'NONE',  ( 0.000000000000000000, 0.000000000000000000, -1.000000000000000000 ) ) ;
#76 = SURFACE_STYLE_FILL_AREA ( #81 ) ;
#77 = DIRECTION ( 'NONE',  ( -0.000000000000000000, -1.000000000000000000, -0.000000000000000000 ) ) ;
#78 = ORIENTED_EDGE ( 'NONE', *, *, #93, .T. ) ;
#79 =( GEOMETRIC_REPRESENTATION_CONTEXT ( 3 ) GLOBAL_UNCERTAINTY_ASSIGNED_CONTEXT ( ( #100 ) ) GLOBAL_UNIT_ASSIGNED_CONTEXT ( ( #108, #251, #248 ) ) REPRESENTATION_CONTEXT ( 'NONE', 'WORKASPACE' ) );
#80 = CARTESIAN_POINT ( 'NONE',  ( 4.592425496802575451E-17, 0.000000000000000000, 0.3750000000000000555 ) ) ;
#81 = FILL_AREA_STYLE ('',( #194 ) ) ;
#82 = VERTEX_POINT ( 'NONE', #88 ) ;
#83 = CARTESIAN_POINT ( 'NONE',  ( 0.000000000000000000, 0.000000000000000000, 0.000000000000000000 ) ) ;
#84 = PRESENTATION_LAYER_ASSIGNMENT (  '', '', ( #154 ) ) ;
#85 = EDGE_LOOP ( 'NONE', ( #270, #235 ) ) ;
#86 = EDGE_LOOP ( 'NONE', ( #152, #182 ) ) ;
#87 = APPLICATION_PROTOCOL_DEFINITION ( 'draft international standard', 'automotive_design', 1998, #309 ) ;
#88 = CARTESIAN_POINT ( 'NONE',  ( 0.000000000000000000, 0.000000000000000000, -0.3750000000000000555 ) ) ;
#89 = CARTESIAN_POINT ( 'NONE',  ( 0.000000000000000000, 0.000000000000000000, 0.000000000000000000 ) ) ;
#90 =( LENGTH_UNIT ( ) NAMED_UNIT ( * ) SI_UNIT ( $, .METRE. ) );
#91 = CARTESIAN_POINT ( 'NONE',  ( 0.000000000000000000, 0.000000000000000000, 0.000000000000000000 ) ) ;
#92 = AXIS2_PLACEMENT_3D ( 'NONE', #64, #133, #253 ) ;
#93 = EDGE_CURVE ( 'NONE', #183, #11, #63, .T. ) ;
#94 = DIRECTION ( 'NONE',  ( 0.000000000000000000, 0.000000000000000000, -1.000000000000000000 ) ) ;
#95 = CIRCLE ( 'NONE', #208, 0.3750000000000001665 ) ;
#96 = APPLICATION_CONTEXT ( 'automotive_design' ) ;
#97 = FILL_AREA_STYLE ('',( #264 ) ) ;
#98 =( LENGTH_UNIT ( ) NAMED_UNIT ( * ) SI_UNIT ( $, .METRE. ) );
#99 = SURFACE_SIDE_STYLE ('',( #68 ) ) ;
#100 = UNCERTAINTY_MEASURE_WITH_UNIT (LENGTH_MEASURE( 1.000000000000000082E-05 ), #108, 'distance_accuracy_value', 'NONE');
#101 =( LENGTH_UNIT ( ) NAMED_UNIT ( * ) SI_UNIT ( $, .METRE. ) );
#102 = FACE_OUTER_BOUND ( 'NONE', #85, .T. ) ;
#103 = DIRECTION ( 'NONE',  ( -5.442874662877125708E-17, 1.000000000000000000, -0.000000000000000000 ) ) ;
#104 = VERTEX_POINT ( 'NONE', #215 ) ;
#105 = PRESENTATION_LAYER_ASSIGNMENT (  '', '', ( #150 ) ) ;
#106 = STYLED_ITEM ( 'NONE', ( #162 ), #164 ) ;
#107 = CARTESIAN_POINT ( 'NONE',  ( 3.032960542342103792E-32, 2.750000000000000000, 0.000000000000000000 ) ) ;
#108 =( CONVERSION_BASED_UNIT ( 'INCH', #25 ) LENGTH_UNIT ( ) NAMED_UNIT ( #232 ) );
#109 = DIRECTION ( 'NONE',  ( 5.442874662877125091E-17, -1.000000000000000000, 0.000000000000000000 ) ) ;
#110 = CIRCLE ( 'NONE', #159, 0.3750000000000000555 ) ;
#111 = SURFACE_STYLE_USAGE ( .BOTH. , #262 ) ;
#112 = DIMENSIONAL_EXPONENTS ( 1.000000000000000000, 0.000000000000000000, 0.000000000000000000, 0.000000000000000000, 0.000000000000000000, 0.000000000000000000, 0.000000000000000000 ) ;
#113 = ORIENTED_EDGE ( 'NONE', *, *, #168, .T. ) ;
#114 = ADVANCED_FACE ( 'NONE', ( #190 ), #142, .T. ) ;
#115 = SURFACE_STYLE_FILL_AREA ( #158 ) ;
#116 = DIMENSIONAL_EXPONENTS ( 1.000000000000000000, 0.000000000000000000, 0.000000000000000000, 0.000000000000000000, 0.000000000000000000, 0.000000000000000000, 0.000000000000000000 ) ;
#117 =( NAMED_UNIT ( * ) SI_UNIT ( $, .STERADIAN. ) SOLID_ANGLE_UNIT ( ) );
#118 = DIRECTION ( 'NONE',  ( -0.000000000000000000, -1.000000000000000000, -0.000000000000000000 ) ) ;
#119 = PRESENTATION_LAYER_ASSIGNMENT (  '', '', ( #106 ) ) ;
#120 = SURFACE_STYLE_USAGE ( .BOTH. , #147 ) ;
#121 = EDGE_CURVE ( 'NONE', #104, #82, #110, .T. ) ;
#122 = DIRECTION ( 'NONE',  ( -0.000000000000000000, -1.000000000000000000, -0.000000000000000000 ) ) ;
#123 =( GEOMETRIC_REPRESENTATION_CONTEXT ( 3 ) GLOBAL_UNCERTAINTY_ASSIGNED_CONTEXT ( ( #125 ) ) GLOBAL_UNIT_ASSIGNED_CONTEXT ( ( #242, #2, #117 ) ) REPRESENTATION_CONTEXT ( 'NONE', 'WORKASPACE' ) );
#124 = DIRECTION ( 'NONE',  ( -5.442874662877125708E-17, 1.000000000000000000, -0.000000000000000000 ) ) ;
#125 = UNCERTAINTY_MEASURE_WITH_UNIT (LENGTH_MEASURE( 1.000000000000000082E-05 ), #242, 'distance_accuracy_value', 'NONE');
#126 = DIRECTION ( 'NONE',  ( -0.000000000000000000, -1.000000000000000000, -0.000000000000000000 ) ) ;
#127 = LINE ( 'NONE', #137, #37 ) ;
#128 = ADVANCED_FACE ( 'NONE', ( #140 ), #16, .T. ) ;
#129 = SURFACE_SIDE_STYLE ('',( #56 ) ) ;
#130 = PLANE ( 'NONE',  #41 ) ;
#131 = ORIENTED_EDGE ( 'NONE', *, *, #39, .F. ) ;
#132 =( CONVERSION_BASED_UNIT ( 'INCH', #303 ) LENGTH_UNIT ( ) NAMED_UNIT ( #256 ) );
#133 = DIRECTION ( 'NONE',  ( -0.000000000000000000, -1.000000000000000000, -0.000000000000000000 ) ) ;
#134 = PRESENTATION_LAYER_ASSIGNMENT (  '', '', ( #216 ) ) ;
#135 = CARTESIAN_POINT ( 'NONE',  ( -1.224646799147353207E-16, 5.000000000000000000, 0.000000000000000000 ) ) ;
#136 = ORIENTED_EDGE ( 'NONE', *, *, #32, .F. ) ;
#137 = CARTESIAN_POINT ( 'NONE',  ( -0.3750000000000002220, 5.000000000000000000, 0.000000000000000000 ) ) ;
#138 =( NAMED_UNIT ( * ) PLANE_ANGLE_UNIT ( ) SI_UNIT ( $, .RADIAN. ) );
#139 = COLOUR_RGB ( '',1.000000000000000000, 0.000000000000000000, 0.000000000000000000 ) ;
#140 = FACE_OUTER_BOUND ( 'NONE', #298, .T. ) ;
#141 = EDGE_CURVE ( 'NONE', #11, #82, #45, .T. ) ;
#142 = CYLINDRICAL_SURFACE ( 'NONE', #249, 0.3750000000000001110 ) ;
#143 = CARTESIAN_POINT ( 'NONE',  ( 0.000000000000000000, 0.000000000000000000, -0.3750000000000000555 ) ) ;
#144 = STYLED_ITEM ( 'NONE', ( #53 ), #283 ) ;
#145 = VECTOR ( 'NONE', #146, 39.37007874015748143 ) ;
#146 = DIRECTION ( 'NONE',  ( -0.000000000000000000, -1.000000000000000000, -0.000000000000000000 ) ) ;
#147 = SURFACE_SIDE_STYLE ('',( #17 ) ) ;
#148 = DIRECTION ( 'NONE',  ( -0.000000000000000000, -1.000000000000000000, -0.000000000000000000 ) ) ;
#149 = ORIENTED_EDGE ( 'NONE', *, *, #193, .T. ) ;
#150 = STYLED_ITEM ( 'NONE', ( #282 ), #50 ) ;
#151 = VECTOR ( 'NONE', #126, 39.37007874015748143 ) ;
#152 = ORIENTED_EDGE ( 'NONE', *, *, #186, .T. ) ;
#153 = PRESENTATION_STYLE_ASSIGNMENT (( #243 ) ) ;
#154 = STYLED_ITEM ( 'NONE', ( #260 ), #44 ) ;
#155 = AXIS2_PLACEMENT_3D ( 'NONE', #83, #148, #28 ) ;
#156 = FACE_OUTER_BOUND ( 'NONE', #200, .T. ) ;
#157 = DIRECTION ( 'NONE',  ( 1.000000000000000000, 0.000000000000000000, 0.000000000000000000 ) ) ;
#158 = FILL_AREA_STYLE ('',( #160 ) ) ;
#159 = AXIS2_PLACEMENT_3D ( 'NONE', #49, #166, #94 ) ;
#160 = FILL_AREA_STYLE_COLOUR ( '', #221 ) ;
#161 = DIRECTION ( 'NONE',  ( 0.000000000000000000, 0.000000000000000000, -1.000000000000000000 ) ) ;
#162 = PRESENTATION_STYLE_ASSIGNMENT (( #120 ) ) ;
#163 = AXIS2_PLACEMENT_3D ( 'NONE', #91, #261, #161 ) ;
#164 = ADVANCED_FACE ( 'NONE', ( #265 ), #239, .T. ) ;
#165 = PRESENTATION_STYLE_ASSIGNMENT (( #19 ) ) ;
#166 = DIRECTION ( 'NONE',  ( -0.000000000000000000, -1.000000000000000000, -0.000000000000000000 ) ) ;
#167 = DIRECTION ( 'NONE',  ( -5.442874662877125708E-17, 1.000000000000000000, -0.000000000000000000 ) ) ;
#168 = EDGE_CURVE ( 'NONE', #7, #58, #20, .T. ) ;
#169 =( CONVERSION_BASED_UNIT ( 'INCH', #288 ) LENGTH_UNIT ( ) NAMED_UNIT ( #116 ) );
#170 = ORIENTED_EDGE ( 'NONE', *, *, #93, .F. ) ;
#171 = FILL_AREA_STYLE_COLOUR ( '', #14 ) ;
#172 = SURFACE_SIDE_STYLE ('',( #76 ) ) ;
#173 = PRESENTATION_LAYER_ASSIGNMENT (  '', '', ( #10 ) ) ;
#174 = DIRECTION ( 'NONE',  ( 0.000000000000000000, 0.000000000000000000, -1.000000000000000000 ) ) ;
#175 = FILL_AREA_STYLE ('',( #171 ) ) ;
#176 = ORIENTED_EDGE ( 'NONE', *, *, #204, .T. ) ;
#177 = ORIENTED_EDGE ( 'NONE', *, *, #237, .T. ) ;
#178 = DIRECTION ( 'NONE',  ( -1.000000000000000000, 0.000000000000000000, 0.000000000000000000 ) ) ;
#179 = CLOSED_SHELL ( 'NONE', ( #114, #18, #46, #8 ) ) ;
#180 = PRODUCT_RELATED_PRODUCT_CATEGORY ( 'part', '', ( #60 ) ) ;
#181 =( GEOMETRIC_REPRESENTATION_CONTEXT ( 3 ) GLOBAL_UNCERTAINTY_ASSIGNED_CONTEXT ( ( #219 ) ) GLOBAL_UNIT_ASSIGNED_CONTEXT ( ( #169, #292, #236 ) ) REPRESENTATION_CONTEXT ( 'NONE', 'WORKASPACE' ) );
#182 = ORIENTED_EDGE ( 'NONE', *, *, #121, .T. ) ;
#183 = VERTEX_POINT ( 'NONE', #299 ) ;
#184 =( NAMED_UNIT ( * ) PLANE_ANGLE_UNIT ( ) SI_UNIT ( $, .RADIAN. ) );
#185 = APPLICATION_PROTOCOL_DEFINITION ( 'draft international standard', 'automotive_design', 1998, #96 ) ;
#186 = EDGE_CURVE ( 'NONE', #82, #104, #291, .T. ) ;
#187 = MECHANICAL_DESIGN_GEOMETRIC_PRESENTATION_REPRESENTATION (  '', ( #144 ), #29 ) ;
#188 =( CONVERSION_BASED_UNIT ( 'INCH', #231 ) LENGTH_UNIT ( ) NAMED_UNIT ( #40 ) );
#189 = FILL_AREA_STYLE_COLOUR ( '', #285 ) ;
#190 = FACE_OUTER_BOUND ( 'NONE', #274, .T. ) ;
#191 = UNCERTAINTY_MEASURE_WITH_UNIT (LENGTH_MEASURE( 1.000000000000000082E-05 ), #205, 'distance_accuracy_value', 'NONE');
#192 =( LENGTH_UNIT ( ) NAMED_UNIT ( * ) SI_UNIT ( $, .METRE. ) );
#193 = EDGE_CURVE ( 'NONE', #224, #201, #95, .T. ) ;
#194 = FILL_AREA_STYLE_COLOUR ( '', #257 ) ;
#195 = LINE ( 'NONE', #24, #69 ) ;
#196 = CARTESIAN_POINT ( 'NONE',  ( 3.032960542342103792E-32, 2.750000000000000000, 0.000000000000000000 ) ) ;
#197 =( GEOMETRIC_REPRESENTATION_CONTEXT ( 3 ) GLOBAL_UNCERTAINTY_ASSIGNED_CONTEXT ( ( #222 ) ) GLOBAL_UNIT_ASSIGNED_CONTEXT ( ( #132, #184, #304 ) ) REPRESENTATION_CONTEXT ( 'NONE', 'WORKASPACE' ) );
#198 = PRESENTATION_LAYER_ASSIGNMENT (  '', '', ( #144 ) ) ;
#199 = LINE ( 'NONE', #80, #151 ) ;
#200 = EDGE_LOOP ( 'NONE', ( #149, #176 ) ) ;
#201 = VERTEX_POINT ( 'NONE', #228 ) ;
#202 = DIRECTION ( 'NONE',  ( -1.000000000000000000, 0.000000000000000000, 0.000000000000000000 ) ) ;
#203 = CARTESIAN_POINT ( 'NONE',  ( 0.000000000000000000, 2.750000000000000000, -0.3750000000000000555 ) ) ;
#204 = EDGE_CURVE ( 'NONE', #201, #224, #245, .T. ) ;
#205 =( CONVERSION_BASED_UNIT ( 'INCH', #65 ) LENGTH_UNIT ( ) NAMED_UNIT ( #67 ) );
#206 = ORIENTED_EDGE ( 'NONE', *, *, #141, .F. ) ;
#207 = CLOSED_SHELL ( 'NONE', ( #283, #164, #128, #50 ) ) ;
#208 = AXIS2_PLACEMENT_3D ( 'NONE', #4, #21, #178 ) ;
#209 =( CONVERSION_BASED_UNIT ( 'INCH', #15 ) LENGTH_UNIT ( ) NAMED_UNIT ( #112 ) );
#210 = FACE_OUTER_BOUND ( 'NONE', #86, .T. ) ;
#211 =( NAMED_UNIT ( * ) SI_UNIT ( $, .STERADIAN. ) SOLID_ANGLE_UNIT ( ) );
#212 = AXIS2_PLACEMENT_3D ( 'NONE', #22, #109, #30 ) ;
#213 =( NAMED_UNIT ( * ) SI_UNIT ( $, .STERADIAN. ) SOLID_ANGLE_UNIT ( ) );
#214 = DIMENSIONAL_EXPONENTS ( 1.000000000000000000, 0.000000000000000000, 0.000000000000000000, 0.000000000000000000, 0.000000000000000000, 0.000000000000000000, 0.000000000000000000 ) ;
#215 = CARTESIAN_POINT ( 'NONE',  ( 4.592425496802575451E-17, 0.000000000000000000, 0.3750000000000000555 ) ) ;
#216 = STYLED_ITEM ( 'NONE', ( #153 ), #258 ) ;
#217 = EDGE_CURVE ( 'NONE', #58, #7, #268, .T. ) ;
#218 = ADVANCED_BREP_SHAPE_REPRESENTATION ( '81563', ( #258, #44, #54 ), #42 ) ;
#219 = UNCERTAINTY_MEASURE_WITH_UNIT (LENGTH_MEASURE( 1.000000000000000082E-05 ), #169, 'distance_accuracy_value', 'NONE');
#220 = CARTESIAN_POINT ( 'NONE',  ( 0.000000000000000000, 0.000000000000000000, 0.000000000000000000 ) ) ;
#221 = COLOUR_RGB ( '',0.7921568627450980005, 0.8196078431372548767, 0.9333333333333333481 ) ;
#222 = UNCERTAINTY_MEASURE_WITH_UNIT (LENGTH_MEASURE( 1.000000000000000082E-05 ), #132, 'distance_accuracy_value', 'NONE');
#223 = CARTESIAN_POINT ( 'NONE',  ( 0.000000000000000000, 2.750000000000000000, 0.000000000000000000 ) ) ;
#224 = VERTEX_POINT ( 'NONE', #296 ) ;
#225 = DIRECTION ( 'NONE',  ( 0.000000000000000000, -0.000000000000000000, 1.000000000000000000 ) ) ;
#226 = ORIENTED_EDGE ( 'NONE', *, *, #217, .T. ) ;
#227 = PRODUCT_DEFINITION_SHAPE ( 'NONE', 'NONE',  #293 ) ;
#228 = CARTESIAN_POINT ( 'NONE',  ( 0.3750000000000000555, 5.000000000000000000, 4.592425496802576684E-17 ) ) ;
#229 = DIRECTION ( 'NONE',  ( -5.442874662877125091E-17, 1.000000000000000000, 0.000000000000000000 ) ) ;
#230 = PRODUCT_CONTEXT ( 'NONE', #96, 'mechanical' ) ;
#231 = LENGTH_MEASURE_WITH_UNIT ( LENGTH_MEASURE( 0.02539999999999999897 ), #36 );
#232 = DIMENSIONAL_EXPONENTS ( 1.000000000000000000, 0.000000000000000000, 0.000000000000000000, 0.000000000000000000, 0.000000000000000000, 0.000000000000000000, 0.000000000000000000 ) ;
#233 = SURFACE_STYLE_USAGE ( .BOTH. , #255 ) ;
#234 = FILL_AREA_STYLE ('',( #240 ) ) ;
#235 = ORIENTED_EDGE ( 'NONE', *, *, #168, .F. ) ;
#236 =( NAMED_UNIT ( * ) SI_UNIT ( $, .STERADIAN. ) SOLID_ANGLE_UNIT ( ) );
#237 = EDGE_CURVE ( 'NONE', #183, #104, #199, .T. ) ;
#238 = AXIS2_PLACEMENT_3D ( 'NONE', #135, #284, #66 ) ;
#239 = PLANE ( 'NONE',  #301 ) ;
#240 = FILL_AREA_STYLE_COLOUR ( '', #139 ) ;
#241 = EDGE_CURVE ( 'NONE', #11, #183, #1, .T. ) ;
#242 =( CONVERSION_BASED_UNIT ( 'INCH', #73 ) LENGTH_UNIT ( ) NAMED_UNIT ( #214 ) );
#243 = SURFACE_STYLE_USAGE ( .BOTH. , #129 ) ;
#244 = MECHANICAL_DESIGN_GEOMETRIC_PRESENTATION_REPRESENTATION (  '', ( #154 ), #197 ) ;
#245 = CIRCLE ( 'NONE', #70, 0.3750000000000001665 ) ;
#246 = CARTESIAN_POINT ( 'NONE',  ( 0.3750000000000000555, 2.750000000000000000, 4.592425496802576684E-17 ) ) ;
#247 = ORIENTED_EDGE ( 'NONE', *, *, #39, .T. ) ;
#248 =( NAMED_UNIT ( * ) SI_UNIT ( $, .STERADIAN. ) SOLID_ANGLE_UNIT ( ) );
#249 = AXIS2_PLACEMENT_3D ( 'NONE', #287, #167, #72 ) ;
#250 = EDGE_LOOP ( 'NONE', ( #27, #177, #6, #206 ) ) ;
#251 =( NAMED_UNIT ( * ) PLANE_ANGLE_UNIT ( ) SI_UNIT ( $, .RADIAN. ) );
#252 = CARTESIAN_POINT ( 'NONE',  ( 5.554665861710585348E-34, 2.750000000000000000, 0.000000000000000000 ) ) ;
#253 = DIRECTION ( 'NONE',  ( 0.000000000000000000, 0.000000000000000000, -1.000000000000000000 ) ) ;
#254 = CYLINDRICAL_SURFACE ( 'NONE', #238, 0.3750000000000001110 ) ;
#255 = SURFACE_SIDE_STYLE ('',( #115 ) ) ;
#256 = DIMENSIONAL_EXPONENTS ( 1.000000000000000000, 0.000000000000000000, 0.000000000000000000, 0.000000000000000000, 0.000000000000000000, 0.000000000000000000, 0.000000000000000000 ) ;
#257 = COLOUR_RGB ( '',1.000000000000000000, 0.000000000000000000, 0.000000000000000000 ) ;
#258 = MANIFOLD_SOLID_BREP ( 'Revolve - Cutting Edge', #207 ) ;
#259 = SHAPE_DEFINITION_REPRESENTATION ( #227, #218 ) ;
#260 = PRESENTATION_STYLE_ASSIGNMENT (( #233 ) ) ;
#261 = DIRECTION ( 'NONE',  ( 0.000000000000000000, -1.000000000000000000, -0.000000000000000000 ) ) ;
#262 = SURFACE_SIDE_STYLE ('',( #9 ) ) ;
#263 = AXIS2_PLACEMENT_3D ( 'NONE', #43, #122, #308 ) ;
#264 = FILL_AREA_STYLE_COLOUR ( '', #306 ) ;
#265 = FACE_OUTER_BOUND ( 'NONE', #277, .T. ) ;
#266 = CARTESIAN_POINT ( 'NONE',  ( 0.000000000000000000, 2.750000000000000000, 0.000000000000000000 ) ) ;
#267 = DIRECTION ( 'NONE',  ( -5.442874662877125708E-17, 1.000000000000000000, -0.000000000000000000 ) ) ;
#268 = CIRCLE ( 'NONE', #286, 0.3750000000000000555 ) ;
#269 = FACE_OUTER_BOUND ( 'NONE', #250, .T. ) ;
#270 = ORIENTED_EDGE ( 'NONE', *, *, #217, .F. ) ;
#271 = SURFACE_STYLE_USAGE ( .BOTH. , #172 ) ;
#272 = ORIENTED_EDGE ( 'NONE', *, *, #141, .T. ) ;
#273 = DIRECTION ( 'NONE',  ( -1.000000000000000000, 0.000000000000000000, 0.000000000000000000 ) ) ;
#274 = EDGE_LOOP ( 'NONE', ( #226, #280, #26, #131 ) ) ;
#275 = ORIENTED_EDGE ( 'NONE', *, *, #121, .F. ) ;
#276 =( NAMED_UNIT ( * ) SI_UNIT ( $, .STERADIAN. ) SOLID_ANGLE_UNIT ( ) );
#277 = EDGE_LOOP ( 'NONE', ( #55, #170 ) ) ;
#278 = DIRECTION ( 'NONE',  ( -5.442874662877125091E-17, 1.000000000000000000, -0.000000000000000000 ) ) ;
#279 = MECHANICAL_DESIGN_GEOMETRIC_PRESENTATION_REPRESENTATION (  '', ( #150 ), #290 ) ;
#280 = ORIENTED_EDGE ( 'NONE', *, *, #32, .T. ) ;
#281 = MECHANICAL_DESIGN_GEOMETRIC_PRESENTATION_REPRESENTATION (  '', ( #216 ), #79 ) ;
#282 = PRESENTATION_STYLE_ASSIGNMENT (( #111 ) ) ;
#283 = ADVANCED_FACE ( 'NONE', ( #269 ), #23, .T. ) ;
#284 = DIRECTION ( 'NONE',  ( -5.442874662877125708E-17, 1.000000000000000000, -0.000000000000000000 ) ) ;
#285 = COLOUR_RGB ( '',1.000000000000000000, 0.000000000000000000, 0.000000000000000000 ) ;
#286 = AXIS2_PLACEMENT_3D ( 'NONE', #196, #124, #273 ) ;
#287 = CARTESIAN_POINT ( 'NONE',  ( -1.224646799147353207E-16, 5.000000000000000000, 0.000000000000000000 ) ) ;
#288 = LENGTH_MEASURE_WITH_UNIT ( LENGTH_MEASURE( 0.02539999999999999897 ), #98 );
#289 = UNCERTAINTY_MEASURE_WITH_UNIT (LENGTH_MEASURE( 1.000000000000000082E-05 ), #188, 'distance_accuracy_value', 'NONE');
#290 =( GEOMETRIC_REPRESENTATION_CONTEXT ( 3 ) GLOBAL_UNCERTAINTY_ASSIGNED_CONTEXT ( ( #71 ) ) GLOBAL_UNIT_ASSIGNED_CONTEXT ( ( #209, #138, #211 ) ) REPRESENTATION_CONTEXT ( 'NONE', 'WORKASPACE' ) );
#291 = CIRCLE ( 'NONE', #155, 0.3750000000000000555 ) ;
#292 =( NAMED_UNIT ( * ) PLANE_ANGLE_UNIT ( ) SI_UNIT ( $, .RADIAN. ) );
#293 = PRODUCT_DEFINITION ( 'UNKNOWN', '', #307, #48 ) ;
#294 = DIRECTION ( 'NONE',  ( -1.000000000000000000, 0.000000000000000000, 0.000000000000000000 ) ) ;
#295 = DIRECTION ( 'NONE',  ( -5.442874662877125091E-17, 1.000000000000000000, -0.000000000000000000 ) ) ;
#296 = CARTESIAN_POINT ( 'NONE',  ( -0.3750000000000002776, 5.000000000000000000, 0.000000000000000000 ) ) ;
#297 = AXIS2_PLACEMENT_3D ( 'NONE', #223, #77, #174 ) ;
#298 = EDGE_LOOP ( 'NONE', ( #31, #78, #272, #275 ) ) ;
#299 = CARTESIAN_POINT ( 'NONE',  ( 4.592425496802575451E-17, 2.750000000000000000, 0.3750000000000000555 ) ) ;
#300 =( LENGTH_UNIT ( ) NAMED_UNIT ( * ) SI_UNIT ( $, .METRE. ) );
#301 = AXIS2_PLACEMENT_3D ( 'NONE', #266, #33, #225 ) ;
#302 = DIRECTION ( 'NONE',  ( 0.000000000000000000, 0.000000000000000000, 1.000000000000000000 ) ) ;
#303 = LENGTH_MEASURE_WITH_UNIT ( LENGTH_MEASURE( 0.02539999999999999897 ), #59 );
#304 =( NAMED_UNIT ( * ) SI_UNIT ( $, .STERADIAN. ) SOLID_ANGLE_UNIT ( ) );
#305 = PLANE ( 'NONE',  #163 ) ;
#306 = COLOUR_RGB ( '',1.000000000000000000, 0.000000000000000000, 0.000000000000000000 ) ;
#307 = PRODUCT_DEFINITION_FORMATION_WITH_SPECIFIED_SOURCE ( 'ANY', '', #60, .NOT_KNOWN. ) ;
#308 = DIRECTION ( 'NONE',  ( 0.000000000000000000, 0.000000000000000000, -1.000000000000000000 ) ) ;
#309 = APPLICATION_CONTEXT ( 'automotive_design' ) ;
ENDSEC;
END-ISO-10303-21;
