ISO-10303-21;
HEADER;
FILE_DESCRIPTION (( 'STEP AP214' ),
    '1' );
FILE_NAME ('Micro_AMRM-010-2.STEP',
    '2021-09-01T17:11:57',
    ( '' ),
    ( '' ),
    'SwSTEP 2.0',
    'SolidWorks 2020',
    '' );
FILE_SCHEMA (( 'AUTOMOTIVE_DESIGN' ));
ENDSEC;

DATA;
#1 = ADVANCED_FACE ( 'NONE', ( #189 ), #44, .T. ) ;
#2 = AXIS2_PLACEMENT_3D ( 'NONE', #276, #65, #251 ) ;
#3 = EDGE_LOOP ( 'NONE', ( #34, #259, #217, #49 ) ) ;
#4 = AXIS2_PLACEMENT_3D ( 'NONE', #90, #19, #249 ) ;
#5 = SURFACE_SIDE_STYLE ('',( #208 ) ) ;
#6 = DIRECTION ( 'NONE',  ( -0.0000000000000000000, -0.0000000000000000000, -1.000000000000000000 ) ) ;
#7 = CARTESIAN_POINT ( 'NONE',  ( 0.06374000000000018540, 8.724383797125754882E-18, 1.968503999999999809 ) ) ;
#8 = ORIENTED_EDGE ( 'NONE', *, *, #274, .T. ) ;
#9 = APPLICATION_CONTEXT ( 'automotive_design' ) ;
#10 = FACE_OUTER_BOUND ( 'NONE', #166, .T. ) ;
#11 = AXIS2_PLACEMENT_3D ( 'NONE', #133, #155, #203 ) ;
#12 = ADVANCED_FACE ( 'NONE', ( #77 ), #216, .T. ) ;
#13 = ORIENTED_EDGE ( 'NONE', *, *, #274, .F. ) ;
#14 = CARTESIAN_POINT ( 'NONE',  ( -0.01966531500000000265, 0.0000000000000000000, 2.408306506897443486E-18 ) ) ;
#15 = DIRECTION ( 'NONE',  ( -1.000000000000000000, 0.0000000000000000000, 0.0000000000000000000 ) ) ;
#16 = AXIS2_PLACEMENT_3D ( 'NONE', #45, #137, #231 ) ;
#17 = SHAPE_DEFINITION_REPRESENTATION ( #271, #188 ) ;
#18 = ORIENTED_EDGE ( 'NONE', *, *, #214, .T. ) ;
#19 = DIRECTION ( 'NONE',  ( -1.224646799147353207E-16, -0.0000000000000000000, -1.000000000000000000 ) ) ;
#20 = ADVANCED_FACE ( 'NONE', ( #10 ), #207, .T. ) ;
#21 = VECTOR ( 'NONE', #148, 39.37007874015748143 ) ;
#22 = DIRECTION ( 'NONE',  ( 1.000000000000000000, 0.0000000000000000000, -0.0000000000000000000 ) ) ;
#23 = UNCERTAINTY_MEASURE_WITH_UNIT (LENGTH_MEASURE( 1.000000000000000082E-05 ), #291, 'distance_accuracy_value', 'NONE');
#24 = EDGE_LOOP ( 'NONE', ( #224, #114, #69, #142 ) ) ;
#25 = FILL_AREA_STYLE_COLOUR ( '', #78 ) ;
#26 = AXIS2_PLACEMENT_3D ( 'NONE', #265, #260, #28 ) ;
#27 = ORIENTED_EDGE ( 'NONE', *, *, #279, .F. ) ;
#28 = DIRECTION ( 'NONE',  ( 1.000000000000000000, 0.0000000000000000000, 0.0000000000000000000 ) ) ;
#29 = ADVANCED_FACE ( 'NONE', ( #147 ), #98, .T. ) ;
#30 = ORIENTED_EDGE ( 'NONE', *, *, #157, .F. ) ;
#31 = DIRECTION ( 'NONE',  ( 1.224646799147353207E-16, 0.0000000000000000000, 1.000000000000000000 ) ) ;
#32 = EDGE_CURVE ( 'NONE', #262, #213, #141, .T. ) ;
#33 = ORIENTED_EDGE ( 'NONE', *, *, #96, .F. ) ;
#34 = ORIENTED_EDGE ( 'NONE', *, *, #185, .F. ) ;
#35 = CIRCLE ( 'NONE', #76, 0.06374000000000018540 ) ;
#36 = CARTESIAN_POINT ( 'NONE',  ( 0.0000000000000000000, 0.0000000000000000000, 1.968503999999999809 ) ) ;
#37 =( LENGTH_UNIT ( ) NAMED_UNIT ( * ) SI_UNIT ( $, .METRE. ) );
#38 = EDGE_CURVE ( 'NONE', #123, #287, #253, .T. ) ;
#39 = SURFACE_SIDE_STYLE ('',( #201 ) ) ;
#40 = CARTESIAN_POINT ( 'NONE',  ( 0.0000000000000000000, 0.0000000000000000000, 1.953504000000000129 ) ) ;
#41 = LINE ( 'NONE', #87, #83 ) ;
#42 = UNCERTAINTY_MEASURE_WITH_UNIT (LENGTH_MEASURE( 1.000000000000000082E-05 ), #284, 'distance_accuracy_value', 'NONE');
#43 = DIRECTION ( 'NONE',  ( 0.0000000000000000000, 0.0000000000000000000, 1.000000000000000000 ) ) ;
#44 = CONICAL_SURFACE ( 'NONE', #16, 0.06374000000000018540, 0.7853981633974528309 ) ;
#45 = CARTESIAN_POINT ( 'NONE',  ( 0.0000000000000000000, 0.0000000000000000000, 1.968503999999999809 ) ) ;
#46 = FACE_OUTER_BOUND ( 'NONE', #159, .T. ) ;
#47 = EDGE_LOOP ( 'NONE', ( #289, #256, #235, #33 ) ) ;
#48 = LINE ( 'NONE', #184, #21 ) ;
#49 = ORIENTED_EDGE ( 'NONE', *, *, #266, .F. ) ;
#50 = CARTESIAN_POINT ( 'NONE',  ( -0.01966531499999998878, 2.408306506897443486E-18, 0.1181100000000000066 ) ) ;
#51 = VERTEX_POINT ( 'NONE', #56 ) ;
#52 = DIRECTION ( 'NONE',  ( -1.000000000000000000, 0.0000000000000000000, 0.0000000000000000000 ) ) ;
#53 = CARTESIAN_POINT ( 'NONE',  ( -0.07874000000000001831, 0.0000000000000000000, 1.953504000000000129 ) ) ;
#54 =( NAMED_UNIT ( * ) SI_UNIT ( $, .STERADIAN. ) SOLID_ANGLE_UNIT ( ) );
#55 = AXIS2_PLACEMENT_3D ( 'NONE', #99, #238, #209 ) ;
#56 = CARTESIAN_POINT ( 'NONE',  ( -0.07873999999999996280, 0.0000000000000000000, 0.4531391870401412780 ) ) ;
#57 = EDGE_CURVE ( 'NONE', #213, #262, #35, .T. ) ;
#58 = LENGTH_MEASURE_WITH_UNIT ( LENGTH_MEASURE( 0.02539999999999999897 ), #37 );
#59 = FILL_AREA_STYLE_COLOUR ( '', #92 ) ;
#60 = APPLICATION_PROTOCOL_DEFINITION ( 'draft international standard', 'automotive_design', 1998, #250 ) ;
#61 = DIRECTION ( 'NONE',  ( -1.000000000000000000, 0.0000000000000000000, 1.224646799147353207E-16 ) ) ;
#62 = DIMENSIONAL_EXPONENTS ( 1.000000000000000000, 0.0000000000000000000, 0.0000000000000000000, 0.0000000000000000000, 0.0000000000000000000, 0.0000000000000000000, 0.0000000000000000000 ) ;
#63 = MECHANICAL_DESIGN_GEOMETRIC_PRESENTATION_REPRESENTATION (  '', ( #205 ), #180 ) ;
#64 =( NAMED_UNIT ( * ) PLANE_ANGLE_UNIT ( ) SI_UNIT ( $, .RADIAN. ) );
#65 = DIRECTION ( 'NONE',  ( -1.224646799147353207E-16, -0.0000000000000000000, -1.000000000000000000 ) ) ;
#66 =( CONVERSION_BASED_UNIT ( 'INCH', #58 ) LENGTH_UNIT ( ) NAMED_UNIT ( #67 ) );
#67 = DIMENSIONAL_EXPONENTS ( 1.000000000000000000, 0.0000000000000000000, 0.0000000000000000000, 0.0000000000000000000, 0.0000000000000000000, 0.0000000000000000000, 0.0000000000000000000 ) ;
#68 = AXIS2_PLACEMENT_3D ( 'NONE', #187, #164, #218 ) ;
#69 = ORIENTED_EDGE ( 'NONE', *, *, #140, .F. ) ;
#70 = CIRCLE ( 'NONE', #278, 0.01966531500000000265 ) ;
#71 = ORIENTED_EDGE ( 'NONE', *, *, #88, .F. ) ;
#72 = ORIENTED_EDGE ( 'NONE', *, *, #85, .F. ) ;
#73 = LINE ( 'NONE', #14, #261 ) ;
#74 = EDGE_LOOP ( 'NONE', ( #211, #161 ) ) ;
#75 = DIRECTION ( 'NONE',  ( -0.0000000000000000000, -0.0000000000000000000, -1.000000000000000000 ) ) ;
#76 = AXIS2_PLACEMENT_3D ( 'NONE', #36, #153, #245 ) ;
#77 = FACE_OUTER_BOUND ( 'NONE', #79, .T. ) ;
#78 = COLOUR_RGB ( '',0.7921568627450980005, 0.8196078431372548767, 0.9333333333333333481 ) ;
#79 = EDGE_LOOP ( 'NONE', ( #121, #163, #280, #283 ) ) ;
#80 = DIRECTION ( 'NONE',  ( 0.1736481776669313859, 0.0000000000000000000, 0.9848077530122077983 ) ) ;
#81 = ADVANCED_FACE ( 'NONE', ( #195 ), #222, .T. ) ;
#82 = AXIS2_PLACEMENT_3D ( 'NONE', #178, #43, #22 ) ;
#83 = VECTOR ( 'NONE', #80, 39.37007874015748143 ) ;
#84 = MANIFOLD_SOLID_BREP ( 'Cut-Revolve1', #254 ) ;
#85 = EDGE_CURVE ( 'NONE', #123, #285, #154, .T. ) ;
#86 = CYLINDRICAL_SURFACE ( 'NONE', #95, 0.01966531500000000265 ) ;
#87 = CARTESIAN_POINT ( 'NONE',  ( 0.01966531500000001306, 0.0000000000000000000, 0.1181100000000000066 ) ) ;
#88 = EDGE_CURVE ( 'NONE', #285, #255, #156, .T. ) ;
#89 = DIRECTION ( 'NONE',  ( 1.000000000000000000, 0.0000000000000000000, 0.0000000000000000000 ) ) ;
#90 = CARTESIAN_POINT ( 'NONE',  ( 2.949324855037697299E-34, 0.0000000000000000000, 2.408306506897443486E-18 ) ) ;
#91 = UNCERTAINTY_MEASURE_WITH_UNIT (LENGTH_MEASURE( 1.000000000000000082E-05 ), #66, 'distance_accuracy_value', 'NONE');
#92 = COLOUR_RGB ( '',0.7921568627450980005, 0.8196078431372548767, 0.9333333333333333481 ) ;
#93 = LINE ( 'NONE', #160, #116 ) ;
#94 = EDGE_LOOP ( 'NONE', ( #8, #106, #101, #27 ) ) ;
#95 = AXIS2_PLACEMENT_3D ( 'NONE', #272, #132, #61 ) ;
#96 = EDGE_CURVE ( 'NONE', #194, #51, #288, .T. ) ;
#97 = VECTOR ( 'NONE', #75, 39.37007874015748143 ) ;
#98 = CYLINDRICAL_SURFACE ( 'NONE', #221, 0.07874000000000001831 ) ;
#99 = CARTESIAN_POINT ( 'NONE',  ( 1.446430334472939084E-17, 0.0000000000000000000, 0.1181100000000000066 ) ) ;
#100 = DIRECTION ( 'NONE',  ( 1.000000000000000000, 0.0000000000000000000, -0.0000000000000000000 ) ) ;
#101 = ORIENTED_EDGE ( 'NONE', *, *, #105, .F. ) ;
#102 = CARTESIAN_POINT ( 'NONE',  ( 0.0000000000000000000, 0.0000000000000000000, 0.0000000000000000000 ) ) ;
#103 = ORIENTED_EDGE ( 'NONE', *, *, #243, .F. ) ;
#104 = DIRECTION ( 'NONE',  ( 0.7071067811865507924, 8.659560562354973534E-17, -0.7071067811865443531 ) ) ;
#105 = EDGE_CURVE ( 'NONE', #255, #285, #70, .T. ) ;
#106 = ORIENTED_EDGE ( 'NONE', *, *, #85, .T. ) ;
#107 = DIRECTION ( 'NONE',  ( -1.000000000000000000, 0.0000000000000000000, 0.0000000000000000000 ) ) ;
#108 = CARTESIAN_POINT ( 'NONE',  ( 0.01966531500000000265, 2.408306506897443486E-18, -2.408306506897443486E-18 ) ) ;
#109 = CONICAL_SURFACE ( 'NONE', #165, 0.01966531500000000265, 0.1745329251994338915 ) ;
#110 = PRODUCT_DEFINITION ( 'UNKNOWN', '', #177, #152 ) ;
#111 = ORIENTED_EDGE ( 'NONE', *, *, #38, .T. ) ;
#112 = DIRECTION ( 'NONE',  ( 0.0000000000000000000, 0.0000000000000000000, -1.000000000000000000 ) ) ;
#113 = VECTOR ( 'NONE', #234, 39.37007874015747433 ) ;
#114 = ORIENTED_EDGE ( 'NONE', *, *, #185, .T. ) ;
#115 = FILL_AREA_STYLE ('',( #25 ) ) ;
#116 = VECTOR ( 'NONE', #104, 39.37007874015748143 ) ;
#117 = ORIENTED_EDGE ( 'NONE', *, *, #124, .F. ) ;
#118 = DIRECTION ( 'NONE',  ( -0.0000000000000000000, -0.0000000000000000000, -1.000000000000000000 ) ) ;
#119 = VERTEX_POINT ( 'NONE', #149 ) ;
#120 =( LENGTH_UNIT ( ) NAMED_UNIT ( * ) SI_UNIT ( $, .METRE. ) );
#121 = ORIENTED_EDGE ( 'NONE', *, *, #202, .F. ) ;
#122 = AXIS2_PLACEMENT_3D ( 'NONE', #102, #193, #100 ) ;
#123 = VERTEX_POINT ( 'NONE', #130 ) ;
#124 = EDGE_CURVE ( 'NONE', #123, #194, #41, .T. ) ;
#125 = FACE_OUTER_BOUND ( 'NONE', #74, .T. ) ;
#126 = DIRECTION ( 'NONE',  ( 0.0000000000000000000, 0.0000000000000000000, 1.000000000000000000 ) ) ;
#127 = PRESENTATION_STYLE_ASSIGNMENT (( #292 ) ) ;
#128 =( GEOMETRIC_REPRESENTATION_CONTEXT ( 3 ) GLOBAL_UNCERTAINTY_ASSIGNED_CONTEXT ( ( #23 ) ) GLOBAL_UNIT_ASSIGNED_CONTEXT ( ( #291, #64, #54 ) ) REPRESENTATION_CONTEXT ( 'NONE', 'WORKASPACE' ) );
#129 = AXIS2_PLACEMENT_3D ( 'NONE', #244, #126, #89 ) ;
#130 = CARTESIAN_POINT ( 'NONE',  ( 0.01966531500000001306, 0.0000000000000000000, 0.1181100000000000066 ) ) ;
#131 = ORIENTED_EDGE ( 'NONE', *, *, #105, .T. ) ;
#132 = DIRECTION ( 'NONE',  ( -1.224646799147353207E-16, -0.0000000000000000000, -1.000000000000000000 ) ) ;
#133 = CARTESIAN_POINT ( 'NONE',  ( 0.0000000000000000000, 0.0000000000000000000, 1.968503999999999809 ) ) ;
#134 = VECTOR ( 'NONE', #296, 39.37007874015748143 ) ;
#135 = ADVANCED_FACE ( 'NONE', ( #174 ), #86, .T. ) ;
#136 = MECHANICAL_DESIGN_GEOMETRIC_PRESENTATION_REPRESENTATION (  '', ( #268 ), #128 ) ;
#137 = DIRECTION ( 'NONE',  ( 0.0000000000000000000, 0.0000000000000000000, -1.000000000000000000 ) ) ;
#138 = EDGE_LOOP ( 'NONE', ( #13, #186, #144, #117 ) ) ;
#139 = LINE ( 'NONE', #169, #281 ) ;
#140 = EDGE_CURVE ( 'NONE', #206, #119, #176, .T. ) ;
#141 = CIRCLE ( 'NONE', #297, 0.06374000000000018540 ) ;
#142 = ORIENTED_EDGE ( 'NONE', *, *, #236, .F. ) ;
#143 = CARTESIAN_POINT ( 'NONE',  ( -0.01966531499999998878, 6.025587701691852153E-18, 0.1181100000000000066 ) ) ;
#144 = ORIENTED_EDGE ( 'NONE', *, *, #157, .T. ) ;
#145 =( NAMED_UNIT ( * ) SI_UNIT ( $, .STERADIAN. ) SOLID_ANGLE_UNIT ( ) );
#146 = ADVANCED_FACE ( 'NONE', ( #125 ), #299, .T. ) ;
#147 = FACE_OUTER_BOUND ( 'NONE', #47, .T. ) ;
#148 = DIRECTION ( 'NONE',  ( -0.7071067811865507924, 0.0000000000000000000, -0.7071067811865443531 ) ) ;
#149 = CARTESIAN_POINT ( 'NONE',  ( 0.07874000000000001831, 9.642868896486260050E-18, 1.953504000000000129 ) ) ;
#150 = DIRECTION ( 'NONE',  ( 0.0000000000000000000, 0.0000000000000000000, 1.000000000000000000 ) ) ;
#151 = DIRECTION ( 'NONE',  ( 1.000000000000000000, 0.0000000000000000000, 0.0000000000000000000 ) ) ;
#152 = PRODUCT_DEFINITION_CONTEXT ( 'detailed design', #9, 'design' ) ;
#153 = DIRECTION ( 'NONE',  ( 0.0000000000000000000, 0.0000000000000000000, 1.000000000000000000 ) ) ;
#154 = LINE ( 'NONE', #108, #134 ) ;
#155 = DIRECTION ( 'NONE',  ( 0.0000000000000000000, 0.0000000000000000000, -1.000000000000000000 ) ) ;
#156 = CIRCLE ( 'NONE', #4, 0.01966531500000000265 ) ;
#157 = EDGE_CURVE ( 'NONE', #51, #194, #240, .T. ) ;
#158 = AXIS2_PLACEMENT_3D ( 'NONE', #175, #172, #107 ) ;
#159 = EDGE_LOOP ( 'NONE', ( #131, #233 ) ) ;
#160 = CARTESIAN_POINT ( 'NONE',  ( 0.06374000000000018540, 7.805898697765251255E-18, 1.968503999999999809 ) ) ;
#161 = ORIENTED_EDGE ( 'NONE', *, *, #57, .T. ) ;
#162 = LINE ( 'NONE', #50, #113 ) ;
#163 = ORIENTED_EDGE ( 'NONE', *, *, #38, .F. ) ;
#164 = DIRECTION ( 'NONE',  ( -1.224646799147353207E-16, -0.0000000000000000000, -1.000000000000000000 ) ) ;
#165 = AXIS2_PLACEMENT_3D ( 'NONE', #215, #31, #167 ) ;
#166 = EDGE_LOOP ( 'NONE', ( #183, #18, #30, #103 ) ) ;
#167 = DIRECTION ( 'NONE',  ( 1.000000000000000000, 0.0000000000000000000, 0.0000000000000000000 ) ) ;
#168 = ORIENTED_EDGE ( 'NONE', *, *, #279, .T. ) ;
#169 = CARTESIAN_POINT ( 'NONE',  ( 0.07874000000000001831, 9.642868896486260050E-18, 1.968503999999999809 ) ) ;
#170 = AXIS2_PLACEMENT_3D ( 'NONE', #40, #112, #241 ) ;
#171 = DIRECTION ( 'NONE',  ( -1.224646799147353207E-16, -0.0000000000000000000, -1.000000000000000000 ) ) ;
#172 = DIRECTION ( 'NONE',  ( -1.224646799147353207E-16, -0.0000000000000000000, -1.000000000000000000 ) ) ;
#173 = ADVANCED_FACE ( 'NONE', ( #226 ), #275, .T. ) ;
#174 = FACE_OUTER_BOUND ( 'NONE', #94, .T. ) ;
#175 = CARTESIAN_POINT ( 'NONE',  ( 1.446430334472939084E-17, 0.0000000000000000000, 0.1181100000000000066 ) ) ;
#176 = CIRCLE ( 'NONE', #170, 0.07874000000000001831 ) ;
#177 = PRODUCT_DEFINITION_FORMATION_WITH_SPECIFIED_SOURCE ( 'ANY', '', #298, .NOT_KNOWN. ) ;
#178 = CARTESIAN_POINT ( 'NONE',  ( 0.0000000000000000000, 0.0000000000000000000, 1.968503999999999809 ) ) ;
#179 = AXIS2_PLACEMENT_3D ( 'NONE', #270, #171, #269 ) ;
#180 =( GEOMETRIC_REPRESENTATION_CONTEXT ( 3 ) GLOBAL_UNCERTAINTY_ASSIGNED_CONTEXT ( ( #91 ) ) GLOBAL_UNIT_ASSIGNED_CONTEXT ( ( #66, #196, #200 ) ) REPRESENTATION_CONTEXT ( 'NONE', 'WORKASPACE' ) );
#181 = DIRECTION ( 'NONE',  ( -1.224646799147353207E-16, -0.0000000000000000000, -1.000000000000000000 ) ) ;
#182 =( GEOMETRIC_REPRESENTATION_CONTEXT ( 3 ) GLOBAL_UNCERTAINTY_ASSIGNED_CONTEXT ( ( #42 ) ) GLOBAL_UNIT_ASSIGNED_CONTEXT ( ( #284, #190, #145 ) ) REPRESENTATION_CONTEXT ( 'NONE', 'WORKASPACE' ) );
#183 = ORIENTED_EDGE ( 'NONE', *, *, #140, .T. ) ;
#184 = CARTESIAN_POINT ( 'NONE',  ( -0.06374000000000018540, 0.0000000000000000000, 1.968503999999999809 ) ) ;
#185 = EDGE_CURVE ( 'NONE', #213, #119, #93, .T. ) ;
#186 = ORIENTED_EDGE ( 'NONE', *, *, #202, .T. ) ;
#187 = CARTESIAN_POINT ( 'NONE',  ( 1.446430334472939084E-17, 0.0000000000000000000, 0.1181100000000000066 ) ) ;
#188 = ADVANCED_BREP_SHAPE_REPRESENTATION ( 'Micro_AMRM-010-2', ( #84, #129 ), #182 ) ;
#189 = FACE_OUTER_BOUND ( 'NONE', #24, .T. ) ;
#190 =( NAMED_UNIT ( * ) PLANE_ANGLE_UNIT ( ) SI_UNIT ( $, .RADIAN. ) );
#191 = AXIS2_PLACEMENT_3D ( 'NONE', #192, #264, #52 ) ;
#192 = CARTESIAN_POINT ( 'NONE',  ( 0.0000000000000000000, 0.0000000000000000000, 1.968503999999999809 ) ) ;
#193 = DIRECTION ( 'NONE',  ( 0.0000000000000000000, 0.0000000000000000000, 1.000000000000000000 ) ) ;
#194 = VERTEX_POINT ( 'NONE', #210 ) ;
#195 = FACE_OUTER_BOUND ( 'NONE', #237, .T. ) ;
#196 =( NAMED_UNIT ( * ) PLANE_ANGLE_UNIT ( ) SI_UNIT ( $, .RADIAN. ) );
#197 = CIRCLE ( 'NONE', #68, 0.01966531500000000265 ) ;
#198 = FILL_AREA_STYLE ('',( #59 ) ) ;
#199 = CARTESIAN_POINT ( 'NONE',  ( 5.549354549769428585E-17, 0.0000000000000000000, 0.4531391870401412780 ) ) ;
#200 =( NAMED_UNIT ( * ) SI_UNIT ( $, .STERADIAN. ) SOLID_ANGLE_UNIT ( ) );
#201 = SURFACE_STYLE_FILL_AREA ( #198 ) ;
#202 = EDGE_CURVE ( 'NONE', #287, #51, #162, .T. ) ;
#203 = DIRECTION ( 'NONE',  ( -1.000000000000000000, 0.0000000000000000000, 0.0000000000000000000 ) ) ;
#204 = PRESENTATION_LAYER_ASSIGNMENT (  '', '', ( #268 ) ) ;
#205 = STYLED_ITEM ( 'NONE', ( #252 ), #188 ) ;
#206 = VERTEX_POINT ( 'NONE', #53 ) ;
#207 = CYLINDRICAL_SURFACE ( 'NONE', #191, 0.07874000000000001831 ) ;
#208 = SURFACE_STYLE_FILL_AREA ( #115 ) ;
#209 = DIRECTION ( 'NONE',  ( 1.000000000000000000, 0.0000000000000000000, 0.0000000000000000000 ) ) ;
#210 = CARTESIAN_POINT ( 'NONE',  ( 0.07874000000000007382, 9.642868896486266213E-18, 0.4531391870401412780 ) ) ;
#211 = ORIENTED_EDGE ( 'NONE', *, *, #32, .T. ) ;
#212 = PLANE ( 'NONE',  #122 ) ;
#213 = VERTEX_POINT ( 'NONE', #7 ) ;
#214 = EDGE_CURVE ( 'NONE', #119, #194, #139, .T. ) ;
#215 = CARTESIAN_POINT ( 'NONE',  ( 1.446430334472939084E-17, 0.0000000000000000000, 0.1181100000000000066 ) ) ;
#216 = CONICAL_SURFACE ( 'NONE', #55, 0.01966531500000000265, 0.1745329251994338915 ) ;
#217 = ORIENTED_EDGE ( 'NONE', *, *, #236, .T. ) ;
#218 = DIRECTION ( 'NONE',  ( -1.000000000000000000, 0.0000000000000000000, 0.0000000000000000000 ) ) ;
#219 = LENGTH_MEASURE_WITH_UNIT ( LENGTH_MEASURE( 0.02539999999999999897 ), #267 );
#220 = PRODUCT_CONTEXT ( 'NONE', #250, 'mechanical' ) ;
#221 = AXIS2_PLACEMENT_3D ( 'NONE', #257, #6, #15 ) ;
#222 = CYLINDRICAL_SURFACE ( 'NONE', #179, 0.01966531500000000265 ) ;
#223 = DIRECTION ( 'NONE',  ( -1.224646799147353207E-16, -0.0000000000000000000, -1.000000000000000000 ) ) ;
#224 = ORIENTED_EDGE ( 'NONE', *, *, #57, .F. ) ;
#225 = CARTESIAN_POINT ( 'NONE',  ( 0.0000000000000000000, 0.0000000000000000000, 1.968503999999999809 ) ) ;
#226 = FACE_OUTER_BOUND ( 'NONE', #3, .T. ) ;
#227 = AXIS2_PLACEMENT_3D ( 'NONE', #199, #294, #295 ) ;
#228 = DIMENSIONAL_EXPONENTS ( 1.000000000000000000, 0.0000000000000000000, 0.0000000000000000000, 0.0000000000000000000, 0.0000000000000000000, 0.0000000000000000000, 0.0000000000000000000 ) ;
#229 = ADVANCED_FACE ( 'NONE', ( #46 ), #212, .F. ) ;
#230 = PRODUCT_RELATED_PRODUCT_CATEGORY ( 'part', '', ( #298 ) ) ;
#231 = DIRECTION ( 'NONE',  ( -1.000000000000000000, 0.0000000000000000000, 0.0000000000000000000 ) ) ;
#232 = LENGTH_MEASURE_WITH_UNIT ( LENGTH_MEASURE( 0.02539999999999999897 ), #120 );
#233 = ORIENTED_EDGE ( 'NONE', *, *, #88, .T. ) ;
#234 = DIRECTION ( 'NONE',  ( -0.1736481776669311916, 2.126576849575783316E-17, 0.9848077530122080203 ) ) ;
#235 = ORIENTED_EDGE ( 'NONE', *, *, #243, .T. ) ;
#236 = EDGE_CURVE ( 'NONE', #262, #206, #48, .T. ) ;
#237 = EDGE_LOOP ( 'NONE', ( #72, #111, #168, #71 ) ) ;
#238 = DIRECTION ( 'NONE',  ( 1.224646799147353207E-16, 0.0000000000000000000, 1.000000000000000000 ) ) ;
#239 = CARTESIAN_POINT ( 'NONE',  ( -0.06374000000000018540, 0.0000000000000000000, 1.968503999999999809 ) ) ;
#240 = CIRCLE ( 'NONE', #2, 0.07874000000000001831 ) ;
#241 = DIRECTION ( 'NONE',  ( 1.000000000000000000, 0.0000000000000000000, 0.0000000000000000000 ) ) ;
#242 = DIRECTION ( 'NONE',  ( -1.000000000000000000, 0.0000000000000000000, 1.224646799147353207E-16 ) ) ;
#243 = EDGE_CURVE ( 'NONE', #206, #51, #290, .T. ) ;
#244 = CARTESIAN_POINT ( 'NONE',  ( 0.0000000000000000000, 0.0000000000000000000, 0.0000000000000000000 ) ) ;
#245 = DIRECTION ( 'NONE',  ( 1.000000000000000000, 0.0000000000000000000, 0.0000000000000000000 ) ) ;
#246 = SURFACE_STYLE_USAGE ( .BOTH. , #5 ) ;
#247 = PRESENTATION_LAYER_ASSIGNMENT (  '', '', ( #205 ) ) ;
#248 = CARTESIAN_POINT ( 'NONE',  ( 2.949324855037697299E-34, 0.0000000000000000000, 2.408306506897443486E-18 ) ) ;
#249 = DIRECTION ( 'NONE',  ( -1.000000000000000000, 0.0000000000000000000, 1.224646799147353207E-16 ) ) ;
#250 = APPLICATION_CONTEXT ( 'automotive_design' ) ;
#251 = DIRECTION ( 'NONE',  ( 1.000000000000000000, 0.0000000000000000000, 0.0000000000000000000 ) ) ;
#252 = PRESENTATION_STYLE_ASSIGNMENT (( #246 ) ) ;
#253 = CIRCLE ( 'NONE', #158, 0.01966531500000000265 ) ;
#254 = CLOSED_SHELL ( 'NONE', ( #135, #277, #1, #20, #29, #146, #173, #12, #81, #229 ) ) ;
#255 = VERTEX_POINT ( 'NONE', #258 ) ;
#256 = ORIENTED_EDGE ( 'NONE', *, *, #266, .T. ) ;
#257 = CARTESIAN_POINT ( 'NONE',  ( 0.0000000000000000000, 0.0000000000000000000, 1.968503999999999809 ) ) ;
#258 = CARTESIAN_POINT ( 'NONE',  ( -0.01966531500000000265, 0.0000000000000000000, 4.816613013794886973E-18 ) ) ;
#259 = ORIENTED_EDGE ( 'NONE', *, *, #32, .F. ) ;
#260 = DIRECTION ( 'NONE',  ( 0.0000000000000000000, 0.0000000000000000000, -1.000000000000000000 ) ) ;
#261 = VECTOR ( 'NONE', #181, 39.37007874015748143 ) ;
#262 = VERTEX_POINT ( 'NONE', #239 ) ;
#263 = CARTESIAN_POINT ( 'NONE',  ( -0.07874000000000001831, 0.0000000000000000000, 1.968503999999999809 ) ) ;
#264 = DIRECTION ( 'NONE',  ( -0.0000000000000000000, -0.0000000000000000000, -1.000000000000000000 ) ) ;
#265 = CARTESIAN_POINT ( 'NONE',  ( 0.0000000000000000000, 0.0000000000000000000, 1.953504000000000129 ) ) ;
#266 = EDGE_CURVE ( 'NONE', #119, #206, #293, .T. ) ;
#267 =( LENGTH_UNIT ( ) NAMED_UNIT ( * ) SI_UNIT ( $, .METRE. ) );
#268 = STYLED_ITEM ( 'NONE', ( #127 ), #84 ) ;
#269 = DIRECTION ( 'NONE',  ( -1.000000000000000000, 0.0000000000000000000, 1.224646799147353207E-16 ) ) ;
#270 = CARTESIAN_POINT ( 'NONE',  ( 0.0000000000000000000, 0.0000000000000000000, 0.0000000000000000000 ) ) ;
#271 = PRODUCT_DEFINITION_SHAPE ( 'NONE', 'NONE',  #110 ) ;
#272 = CARTESIAN_POINT ( 'NONE',  ( 0.0000000000000000000, 0.0000000000000000000, 0.0000000000000000000 ) ) ;
#273 = APPLICATION_PROTOCOL_DEFINITION ( 'draft international standard', 'automotive_design', 1998, #9 ) ;
#274 = EDGE_CURVE ( 'NONE', #287, #123, #197, .T. ) ;
#275 = CONICAL_SURFACE ( 'NONE', #11, 0.06374000000000018540, 0.7853981633974528309 ) ;
#276 = CARTESIAN_POINT ( 'NONE',  ( 5.549354549769428585E-17, 0.0000000000000000000, 0.4531391870401412780 ) ) ;
#277 = ADVANCED_FACE ( 'NONE', ( #286 ), #109, .T. ) ;
#278 = AXIS2_PLACEMENT_3D ( 'NONE', #248, #223, #242 ) ;
#279 = EDGE_CURVE ( 'NONE', #287, #255, #73, .T. ) ;
#280 = ORIENTED_EDGE ( 'NONE', *, *, #124, .T. ) ;
#281 = VECTOR ( 'NONE', #118, 39.37007874015748143 ) ;
#282 = CARTESIAN_POINT ( 'NONE',  ( 0.01966531500000000265, 2.408306506897443486E-18, 0.0000000000000000000 ) ) ;
#283 = ORIENTED_EDGE ( 'NONE', *, *, #96, .T. ) ;
#284 =( CONVERSION_BASED_UNIT ( 'INCH', #232 ) LENGTH_UNIT ( ) NAMED_UNIT ( #62 ) );
#285 = VERTEX_POINT ( 'NONE', #282 ) ;
#286 = FACE_OUTER_BOUND ( 'NONE', #138, .T. ) ;
#287 = VERTEX_POINT ( 'NONE', #143 ) ;
#288 = CIRCLE ( 'NONE', #227, 0.07874000000000001831 ) ;
#289 = ORIENTED_EDGE ( 'NONE', *, *, #214, .F. ) ;
#290 = LINE ( 'NONE', #263, #97 ) ;
#291 =( CONVERSION_BASED_UNIT ( 'INCH', #219 ) LENGTH_UNIT ( ) NAMED_UNIT ( #228 ) );
#292 = SURFACE_STYLE_USAGE ( .BOTH. , #39 ) ;
#293 = CIRCLE ( 'NONE', #26, 0.07874000000000001831 ) ;
#294 = DIRECTION ( 'NONE',  ( -1.224646799147353207E-16, -0.0000000000000000000, -1.000000000000000000 ) ) ;
#295 = DIRECTION ( 'NONE',  ( 1.000000000000000000, 0.0000000000000000000, 0.0000000000000000000 ) ) ;
#296 = DIRECTION ( 'NONE',  ( -1.224646799147353207E-16, -0.0000000000000000000, -1.000000000000000000 ) ) ;
#297 = AXIS2_PLACEMENT_3D ( 'NONE', #225, #150, #151 ) ;
#298 = PRODUCT ( 'Micro_AMRM-010-2', 'Micro_AMRM-010-2', '', ( #220 ) ) ;
#299 = PLANE ( 'NONE',  #82 ) ;
ENDSEC;
END-ISO-10303-21;
