ISO-10303-21;
HEADER;
FILE_DESCRIPTION (( 'STEP AP214' ),
    '1' );
FILE_NAME ('56707.STEP',
    '2023-06-30T22:13:10',
    ( '' ),
    ( '' ),
    'SwSTEP 2.0',
    'SolidWorks 2023',
    '' );
FILE_SCHEMA (( 'AUTOMOTIVE_DESIGN' ));
ENDSEC;

DATA;
#1 = CARTESIAN_POINT ( 'NONE',  ( 2.449293598294707400E-16, 4.000000000000000000, 0.000000000000000000 ) ) ;
#2 = VERTEX_POINT ( 'NONE', #321 ) ;
#3 = CARTESIAN_POINT ( 'NONE',  ( -3.061616997868383018E-17, 0.000000000000000000, 0.000000000000000000 ) ) ;
#4 = FILL_AREA_STYLE ('',( #229 ) ) ;
#5 = COLOUR_RGB ( '',0.7921568627450980005, 0.8196078431372548767, 0.9333333333333333481 ) ;
#6 = AXIS2_PLACEMENT_3D ( 'NONE', #279, #225, #344 ) ;
#7 =( CONVERSION_BASED_UNIT ( 'INCH', #326 ) LENGTH_UNIT ( ) NAMED_UNIT ( #157 ) );
#8 =( NAMED_UNIT ( * ) PLANE_ANGLE_UNIT ( ) SI_UNIT ( $, .RADIAN. ) );
#9 = ADVANCED_FACE ( 'NONE', ( #84 ), #56, .T. ) ;
#10 = MECHANICAL_DESIGN_GEOMETRIC_PRESENTATION_REPRESENTATION (  '', ( #15 ), #307 ) ;
#11 = DIRECTION ( 'NONE',  ( -0.000000000000000000, -1.000000000000000000, -0.000000000000000000 ) ) ;
#12 = DIMENSIONAL_EXPONENTS ( 1.000000000000000000, 0.000000000000000000, 0.000000000000000000, 0.000000000000000000, 0.000000000000000000, 0.000000000000000000, 0.000000000000000000 ) ;
#13 = SURFACE_SIDE_STYLE ('',( #151 ) ) ;
#14 = LINE ( 'NONE', #339, #338 ) ;
#15 = STYLED_ITEM ( 'NONE', ( #208 ), #95 ) ;
#16 = PRODUCT_RELATED_PRODUCT_CATEGORY ( 'part', '', ( #286 ) ) ;
#17 = SURFACE_STYLE_USAGE ( .BOTH. , #275 ) ;
#18 = PRODUCT_CONTEXT ( 'NONE', #309, 'mechanical' ) ;
#19 = ORIENTED_EDGE ( 'NONE', *, *, #136, .F. ) ;
#20 = FACE_OUTER_BOUND ( 'NONE', #25, .T. ) ;
#21 = DIRECTION ( 'NONE',  ( -1.175163117075789240E-16, 1.000000000000000000, -0.000000000000000000 ) ) ;
#22 = UNCERTAINTY_MEASURE_WITH_UNIT (LENGTH_MEASURE( 1.000000000000000082E-05 ), #209, 'distance_accuracy_value', 'NONE');
#23 =( NAMED_UNIT ( * ) SI_UNIT ( $, .STERADIAN. ) SOLID_ANGLE_UNIT ( ) );
#24 = CIRCLE ( 'NONE', #357, 0.5000000000000000000 ) ;
#25 = EDGE_LOOP ( 'NONE', ( #81, #372 ) ) ;
#26 =( LENGTH_UNIT ( ) NAMED_UNIT ( * ) SI_UNIT ( $, .METRE. ) );
#27 = CYLINDRICAL_SURFACE ( 'NONE', #263, 0.4999999999999993894 ) ;
#28 = EDGE_LOOP ( 'NONE', ( #305, #255, #19, #133, #199 ) ) ;
#29 = PRESENTATION_STYLE_ASSIGNMENT (( #334 ) ) ;
#30 = SURFACE_STYLE_USAGE ( .BOTH. , #139 ) ;
#31 = FILL_AREA_STYLE ('',( #86 ) ) ;
#32 = DIRECTION ( 'NONE',  ( 0.000000000000000000, 0.000000000000000000, 1.000000000000000000 ) ) ;
#33 = CARTESIAN_POINT ( 'NONE',  ( 2.449293598294707400E-16, 4.000000000000000000, 0.000000000000000000 ) ) ;
#34 = CARTESIAN_POINT ( 'NONE',  ( 2.449293598294707400E-16, 4.000000000000000000, 0.000000000000000000 ) ) ;
#35 = ORIENTED_EDGE ( 'NONE', *, *, #353, .F. ) ;
#36 = LENGTH_MEASURE_WITH_UNIT ( LENGTH_MEASURE( 0.02539999999999999897 ), #200 );
#37 = DIRECTION ( 'NONE',  ( -1.000000000000000000, -1.175163117075789240E-16, 0.000000000000000000 ) ) ;
#38 = DIRECTION ( 'NONE',  ( 0.000000000000000000, 0.000000000000000000, -1.000000000000000000 ) ) ;
#39 = FILL_AREA_STYLE ('',( #178 ) ) ;
#40 = AXIS2_PLACEMENT_3D ( 'NONE', #34, #138, #114 ) ;
#41 = PRESENTATION_LAYER_ASSIGNMENT (  '', '', ( #65 ) ) ;
#42 = CYLINDRICAL_SURFACE ( 'NONE', #69, 0.4999999999999998335 ) ;
#43 =( CONVERSION_BASED_UNIT ( 'INCH', #221 ) LENGTH_UNIT ( ) NAMED_UNIT ( #77 ) );
#44 = ORIENTED_EDGE ( 'NONE', *, *, #146, .T. ) ;
#45 =( LENGTH_UNIT ( ) NAMED_UNIT ( * ) SI_UNIT ( $, .METRE. ) );
#46 = CIRCLE ( 'NONE', #98, 0.5000000000000000000 ) ;
#47 = DIRECTION ( 'NONE',  ( -0.000000000000000000, -1.000000000000000000, -0.000000000000000000 ) ) ;
#48 = DIRECTION ( 'NONE',  ( 0.000000000000000000, 0.000000000000000000, 1.000000000000000000 ) ) ;
#49 = ADVANCED_FACE ( 'NONE', ( #116 ), #195, .T. ) ;
#50 = APPLICATION_PROTOCOL_DEFINITION ( 'draft international standard', 'automotive_design', 1998, #309 ) ;
#51 = DIRECTION ( 'NONE',  ( -0.000000000000000000, -1.000000000000000000, -0.000000000000000000 ) ) ;
#52 = DIMENSIONAL_EXPONENTS ( 1.000000000000000000, 0.000000000000000000, 0.000000000000000000, 0.000000000000000000, 0.000000000000000000, 0.000000000000000000, 0.000000000000000000 ) ;
#53 = ORIENTED_EDGE ( 'NONE', *, *, #360, .F. ) ;
#54 = LENGTH_MEASURE_WITH_UNIT ( LENGTH_MEASURE( 0.02539999999999999897 ), #227 );
#55 = PRESENTATION_LAYER_ASSIGNMENT (  '', '', ( #101 ) ) ;
#56 = CYLINDRICAL_SURFACE ( 'NONE', #40, 0.4999999999999993894 ) ;
#57 = PRESENTATION_STYLE_ASSIGNMENT (( #171 ) ) ;
#58 = EDGE_CURVE ( 'NONE', #284, #75, #46, .T. ) ;
#59 = SURFACE_STYLE_FILL_AREA ( #31 ) ;
#60 = DIRECTION ( 'NONE',  ( -1.000000000000000000, 0.000000000000000000, 0.000000000000000000 ) ) ;
#61 = CIRCLE ( 'NONE', #6, 0.5000000000000000000 ) ;
#62 = ORIENTED_EDGE ( 'NONE', *, *, #82, .T. ) ;
#63 = DIRECTION ( 'NONE',  ( -0.000000000000000000, -1.000000000000000000, -0.000000000000000000 ) ) ;
#64 = LINE ( 'NONE', #296, #349 ) ;
#65 = STYLED_ITEM ( 'NONE', ( #306 ), #193 ) ;
#66 = DIRECTION ( 'NONE',  ( 1.224646799147353207E-16, -0.000000000000000000, 1.000000000000000000 ) ) ;
#67 = DIRECTION ( 'NONE',  ( -1.175163117075789240E-16, 1.000000000000000000, -0.000000000000000000 ) ) ;
#68 = FILL_AREA_STYLE ('',( #354 ) ) ;
#69 = AXIS2_PLACEMENT_3D ( 'NONE', #70, #47, #189 ) ;
#70 = CARTESIAN_POINT ( 'NONE',  ( 0.000000000000000000, 0.000000000000000000, 0.000000000000000000 ) ) ;
#71 = ORIENTED_EDGE ( 'NONE', *, *, #82, .F. ) ;
#72 = EDGE_CURVE ( 'NONE', #288, #261, #264, .T. ) ;
#73 =( NAMED_UNIT ( * ) SI_UNIT ( $, .STERADIAN. ) SOLID_ANGLE_UNIT ( ) );
#74 = FILL_AREA_STYLE ('',( #128 ) ) ;
#75 = VERTEX_POINT ( 'NONE', #154 ) ;
#76 = PRODUCT_DEFINITION_CONTEXT ( 'detailed design', #233, 'design' ) ;
#77 = DIMENSIONAL_EXPONENTS ( 1.000000000000000000, 0.000000000000000000, 0.000000000000000000, 0.000000000000000000, 0.000000000000000000, 0.000000000000000000, 0.000000000000000000 ) ;
#78 = DIRECTION ( 'NONE',  ( 0.000000000000000000, -0.000000000000000000, 1.000000000000000000 ) ) ;
#79 = UNCERTAINTY_MEASURE_WITH_UNIT (LENGTH_MEASURE( 1.000000000000000082E-05 ), #43, 'distance_accuracy_value', 'NONE');
#80 = CARTESIAN_POINT ( 'NONE',  ( 0.4999999999999997780, 4.000000000000000000, 0.000000000000000000 ) ) ;
#81 = ORIENTED_EDGE ( 'NONE', *, *, #285, .T. ) ;
#82 = EDGE_CURVE ( 'NONE', #106, #2, #266, .T. ) ;
#83 = DIRECTION ( 'NONE',  ( -1.175163117075789240E-16, 1.000000000000000000, -0.000000000000000000 ) ) ;
#84 = FACE_OUTER_BOUND ( 'NONE', #118, .T. ) ;
#85 = ADVANCED_FACE ( 'NONE', ( #150 ), #295, .F. ) ;
#86 = FILL_AREA_STYLE_COLOUR ( '', #110 ) ;
#87 =( NAMED_UNIT ( * ) PLANE_ANGLE_UNIT ( ) SI_UNIT ( $, .RADIAN. ) );
#88 = CARTESIAN_POINT ( 'NONE',  ( 0.000000000000000000, 0.5000000000000000000, 0.000000000000000000 ) ) ;
#89 = CARTESIAN_POINT ( 'NONE',  ( 6.123233995736763571E-17, 1.500000000000000222, 0.4999999999999997780 ) ) ;
#90 = EDGE_LOOP ( 'NONE', ( #53, #71 ) ) ;
#91 = STYLED_ITEM ( 'NONE', ( #57 ), #251 ) ;
#92 = FILL_AREA_STYLE_COLOUR ( '', #231 ) ;
#93 = SURFACE_STYLE_USAGE ( .BOTH. , #13 ) ;
#94 = DIRECTION ( 'NONE',  ( -1.000000000000000000, 0.000000000000000000, 0.000000000000000000 ) ) ;
#95 = ADVANCED_FACE ( 'NONE', ( #240 ), #124, .T. ) ;
#96 = SURFACE_STYLE_USAGE ( .BOTH. , #291 ) ;
#97 = DIRECTION ( 'NONE',  ( 0.000000000000000000, 0.000000000000000000, -1.000000000000000000 ) ) ;
#98 = AXIS2_PLACEMENT_3D ( 'NONE', #88, #63, #232 ) ;
#99 = CARTESIAN_POINT ( 'NONE',  ( 0.000000000000000000, 0.000000000000000000, 0.000000000000000000 ) ) ;
#100 = SURFACE_STYLE_FILL_AREA ( #361 ) ;
#101 = STYLED_ITEM ( 'NONE', ( #29 ), #249 ) ;
#102 = MECHANICAL_DESIGN_GEOMETRIC_PRESENTATION_REPRESENTATION (  '', ( #292 ), #301 ) ;
#103 = APPLICATION_PROTOCOL_DEFINITION ( 'draft international standard', 'automotive_design', 1998, #233 ) ;
#104 =( NAMED_UNIT ( * ) PLANE_ANGLE_UNIT ( ) SI_UNIT ( $, .RADIAN. ) );
#105 = DIMENSIONAL_EXPONENTS ( 1.000000000000000000, 0.000000000000000000, 0.000000000000000000, 0.000000000000000000, 0.000000000000000000, 0.000000000000000000, 0.000000000000000000 ) ;
#106 = VERTEX_POINT ( 'NONE', #331 ) ;
#107 = UNCERTAINTY_MEASURE_WITH_UNIT (LENGTH_MEASURE( 1.000000000000000082E-05 ), #158, 'distance_accuracy_value', 'NONE');
#108 = CARTESIAN_POINT ( 'NONE',  ( 0.000000000000000000, 1.500000000000000222, 0.000000000000000000 ) ) ;
#109 = PRESENTATION_LAYER_ASSIGNMENT (  '', '', ( #253 ) ) ;
#110 = COLOUR_RGB ( '',0.7921568627450980005, 0.8196078431372548767, 0.9333333333333333481 ) ;
#111 = DIRECTION ( 'NONE',  ( -1.175163117075789240E-16, 1.000000000000000000, -0.000000000000000000 ) ) ;
#112 = DIRECTION ( 'NONE',  ( -0.000000000000000000, -1.000000000000000000, -0.000000000000000000 ) ) ;
#113 =( NAMED_UNIT ( * ) PLANE_ANGLE_UNIT ( ) SI_UNIT ( $, .RADIAN. ) );
#114 = DIRECTION ( 'NONE',  ( -1.000000000000000000, 0.000000000000000000, 0.000000000000000000 ) ) ;
#115 = DIRECTION ( 'NONE',  ( -1.000000000000000000, 0.000000000000000000, 0.000000000000000000 ) ) ;
#116 = FACE_OUTER_BOUND ( 'NONE', #245, .T. ) ;
#117 = PRODUCT_DEFINITION_SHAPE ( 'NONE', 'NONE',  #220 ) ;
#118 = EDGE_LOOP ( 'NONE', ( #228, #44, #134, #273 ) ) ;
#119 = EDGE_CURVE ( 'NONE', #257, #278, #373, .T. ) ;
#120 = FACE_OUTER_BOUND ( 'NONE', #248, .T. ) ;
#121 = ORIENTED_EDGE ( 'NONE', *, *, #212, .T. ) ;
#122 = MECHANICAL_DESIGN_GEOMETRIC_PRESENTATION_REPRESENTATION (  '', ( #65 ), #219 ) ;
#123 = EDGE_LOOP ( 'NONE', ( #143, #121, #262, #190, #308 ) ) ;
#124 = CYLINDRICAL_SURFACE ( 'NONE', #237, 0.4999999999999998335 ) ;
#125 = CARTESIAN_POINT ( 'NONE',  ( 5.387201390984180500E-16, 1.499999999999999778, 0.000000000000000000 ) ) ;
#126 = AXIS2_PLACEMENT_3D ( 'NONE', #108, #270, #78 ) ;
#127 = CARTESIAN_POINT ( 'NONE',  ( -6.123233995736766036E-17, 0.5000000000000000000, 0.000000000000000000 ) ) ;
#128 = FILL_AREA_STYLE_COLOUR ( '', #329 ) ;
#129 = ORIENTED_EDGE ( 'NONE', *, *, #250, .F. ) ;
#130 = SPHERICAL_SURFACE ( 'NONE', #238, 0.5000000000000000000 ) ;
#131 = CIRCLE ( 'NONE', #198, 0.4999999999999992228 ) ;
#132 = FACE_OUTER_BOUND ( 'NONE', #314, .T. ) ;
#133 = ORIENTED_EDGE ( 'NONE', *, *, #345, .F. ) ;
#134 = ORIENTED_EDGE ( 'NONE', *, *, #285, .F. ) ;
#135 = PRESENTATION_LAYER_ASSIGNMENT (  '', '', ( #15 ) ) ;
#136 = EDGE_CURVE ( 'NONE', #311, #261, #24, .T. ) ;
#137 = DIRECTION ( 'NONE',  ( -1.000000000000000000, 0.000000000000000000, 0.000000000000000000 ) ) ;
#138 = DIRECTION ( 'NONE',  ( -1.175163117075789240E-16, 1.000000000000000000, -0.000000000000000000 ) ) ;
#139 = SURFACE_SIDE_STYLE ('',( #226 ) ) ;
#140 = DIRECTION ( 'NONE',  ( 1.000000000000000000, 0.000000000000000000, 0.000000000000000000 ) ) ;
#141 = EDGE_CURVE ( 'NONE', #311, #260, #204, .T. ) ;
#142 = CARTESIAN_POINT ( 'NONE',  ( -0.5000000000000000000, 0.5000000000000000000, 6.123233995736764803E-17 ) ) ;
#143 = ORIENTED_EDGE ( 'NONE', *, *, #72, .F. ) ;
#144 =( CONVERSION_BASED_UNIT ( 'INCH', #36 ) LENGTH_UNIT ( ) NAMED_UNIT ( #105 ) );
#145 = CLOSED_SHELL ( 'NONE', ( #359, #95, #193, #179, #49 ) ) ;
#146 = EDGE_CURVE ( 'NONE', #106, #257, #64, .T. ) ;
#147 = CIRCLE ( 'NONE', #362, 0.4999999999999997780 ) ;
#148 = MECHANICAL_DESIGN_GEOMETRIC_PRESENTATION_REPRESENTATION (  '', ( #91 ), #272 ) ;
#149 = DIRECTION ( 'NONE',  ( -1.175163117075789240E-16, 1.000000000000000000, -0.000000000000000000 ) ) ;
#150 = FACE_OUTER_BOUND ( 'NONE', #90, .T. ) ;
#151 = SURFACE_STYLE_FILL_AREA ( #68 ) ;
#152 = AXIS2_PLACEMENT_3D ( 'NONE', #80, #335, #216 ) ;
#153 = CIRCLE ( 'NONE', #324, 0.5000000000000000000 ) ;
#154 = CARTESIAN_POINT ( 'NONE',  ( 0.000000000000000000, 0.5000000000000000000, -0.5000000000000000000 ) ) ;
#155 = PLANE ( 'NONE',  #126 ) ;
#156 = DIRECTION ( 'NONE',  ( 1.000000000000000000, 0.000000000000000000, 0.000000000000000000 ) ) ;
#157 = DIMENSIONAL_EXPONENTS ( 1.000000000000000000, 0.000000000000000000, 0.000000000000000000, 0.000000000000000000, 0.000000000000000000, 0.000000000000000000, 0.000000000000000000 ) ;
#158 =( CONVERSION_BASED_UNIT ( 'INCH', #185 ) LENGTH_UNIT ( ) NAMED_UNIT ( #297 ) );
#159 = AXIS2_PLACEMENT_3D ( 'NONE', #127, #328, #203 ) ;
#160 = ORIENTED_EDGE ( 'NONE', *, *, #58, .T. ) ;
#161 = UNCERTAINTY_MEASURE_WITH_UNIT (LENGTH_MEASURE( 1.000000000000000082E-05 ), #164, 'distance_accuracy_value', 'NONE');
#162 = CARTESIAN_POINT ( 'NONE',  ( 0.000000000000000000, 1.500000000000000222, 0.000000000000000000 ) ) ;
#163 = VECTOR ( 'NONE', #51, 39.37007874015748143 ) ;
#164 =( CONVERSION_BASED_UNIT ( 'INCH', #54 ) LENGTH_UNIT ( ) NAMED_UNIT ( #215 ) );
#165 = EDGE_LOOP ( 'NONE', ( #172, #184, #370, #170 ) ) ;
#166 = DIRECTION ( 'NONE',  ( 0.000000000000000000, 0.000000000000000000, -1.000000000000000000 ) ) ;
#167 = LENGTH_MEASURE_WITH_UNIT ( LENGTH_MEASURE( 0.02539999999999999897 ), #192 );
#168 = LENGTH_MEASURE_WITH_UNIT ( LENGTH_MEASURE( 0.02539999999999999897 ), #320 );
#169 = AXIS2_PLACEMENT_3D ( 'NONE', #125, #332, #176 ) ;
#170 = ORIENTED_EDGE ( 'NONE', *, *, #136, .T. ) ;
#171 = SURFACE_STYLE_USAGE ( .BOTH. , #325 ) ;
#172 = ORIENTED_EDGE ( 'NONE', *, *, #322, .T. ) ;
#173 =( NAMED_UNIT ( * ) PLANE_ANGLE_UNIT ( ) SI_UNIT ( $, .RADIAN. ) );
#174 = FILL_AREA_STYLE ('',( #92 ) ) ;
#175 = AXIS2_PLACEMENT_3D ( 'NONE', #268, #289, #37 ) ;
#176 = DIRECTION ( 'NONE',  ( -1.000000000000000000, 0.000000000000000000, 0.000000000000000000 ) ) ;
#177 = LENGTH_MEASURE_WITH_UNIT ( LENGTH_MEASURE( 0.02539999999999999897 ), #26 );
#178 = FILL_AREA_STYLE_COLOUR ( '', #298 ) ;
#179 = ADVANCED_FACE ( 'NONE', ( #235 ), #42, .T. ) ;
#180 = SURFACE_STYLE_USAGE ( .BOTH. , #356 ) ;
#181 = PRESENTATION_LAYER_ASSIGNMENT (  '', '', ( #254 ) ) ;
#182 = CIRCLE ( 'NONE', #188, 0.5000000000000000000 ) ;
#183 = DIMENSIONAL_EXPONENTS ( 1.000000000000000000, 0.000000000000000000, 0.000000000000000000, 0.000000000000000000, 0.000000000000000000, 0.000000000000000000, 0.000000000000000000 ) ;
#184 = ORIENTED_EDGE ( 'NONE', *, *, #353, .T. ) ;
#185 = LENGTH_MEASURE_WITH_UNIT ( LENGTH_MEASURE( 0.02539999999999999897 ), #45 );
#186 = CARTESIAN_POINT ( 'NONE',  ( -6.123233995736766036E-17, 0.5000000000000000000, 0.000000000000000000 ) ) ;
#187 = MECHANICAL_DESIGN_GEOMETRIC_PRESENTATION_REPRESENTATION (  '', ( #254 ), #343 ) ;
#188 = AXIS2_PLACEMENT_3D ( 'NONE', #196, #191, #166 ) ;
#189 = DIRECTION ( 'NONE',  ( 0.000000000000000000, 0.000000000000000000, -1.000000000000000000 ) ) ;
#190 = ORIENTED_EDGE ( 'NONE', *, *, #58, .F. ) ;
#191 = DIRECTION ( 'NONE',  ( -0.000000000000000000, -1.000000000000000000, -0.000000000000000000 ) ) ;
#192 =( LENGTH_UNIT ( ) NAMED_UNIT ( * ) SI_UNIT ( $, .METRE. ) );
#193 = ADVANCED_FACE ( 'NONE', ( #132 ), #155, .T. ) ;
#194 =( NAMED_UNIT ( * ) SI_UNIT ( $, .STERADIAN. ) SOLID_ANGLE_UNIT ( ) );
#195 = SPHERICAL_SURFACE ( 'NONE', #282, 0.5000000000000000000 ) ;
#196 = CARTESIAN_POINT ( 'NONE',  ( 0.000000000000000000, 0.5000000000000000000, 0.000000000000000000 ) ) ;
#197 = MECHANICAL_DESIGN_GEOMETRIC_PRESENTATION_REPRESENTATION (  '', ( #101 ), #317 ) ;
#198 = AXIS2_PLACEMENT_3D ( 'NONE', #351, #21, #60 ) ;
#199 = ORIENTED_EDGE ( 'NONE', *, *, #222, .F. ) ;
#200 =( LENGTH_UNIT ( ) NAMED_UNIT ( * ) SI_UNIT ( $, .METRE. ) );
#201 =( LENGTH_UNIT ( ) NAMED_UNIT ( * ) SI_UNIT ( $, .METRE. ) );
#202 = EDGE_CURVE ( 'NONE', #2, #278, #14, .T. ) ;
#203 = DIRECTION ( 'NONE',  ( -1.000000000000000000, 0.000000000000000000, 0.000000000000000000 ) ) ;
#204 = CIRCLE ( 'NONE', #159, 0.5000000000000000000 ) ;
#205 = PRESENTATION_STYLE_ASSIGNMENT (( #180 ) ) ;
#206 = AXIS2_PLACEMENT_3D ( 'NONE', #247, #242, #156 ) ;
#207 = ADVANCED_FACE ( 'NONE', ( #20 ), #336, .F. ) ;
#208 = PRESENTATION_STYLE_ASSIGNMENT (( #93 ) ) ;
#209 =( CONVERSION_BASED_UNIT ( 'INCH', #177 ) LENGTH_UNIT ( ) NAMED_UNIT ( #52 ) );
#210 = SURFACE_STYLE_FILL_AREA ( #39 ) ;
#211 = SURFACE_SIDE_STYLE ('',( #100 ) ) ;
#212 = EDGE_CURVE ( 'NONE', #288, #302, #333, .T. ) ;
#213 = UNCERTAINTY_MEASURE_WITH_UNIT (LENGTH_MEASURE( 1.000000000000000082E-05 ), #7, 'distance_accuracy_value', 'NONE');
#214 = ORIENTED_EDGE ( 'NONE', *, *, #141, .T. ) ;
#215 = DIMENSIONAL_EXPONENTS ( 1.000000000000000000, 0.000000000000000000, 0.000000000000000000, 0.000000000000000000, 0.000000000000000000, 0.000000000000000000, 0.000000000000000000 ) ;
#216 = DIRECTION ( 'NONE',  ( 1.000000000000000000, 1.175163117075789240E-16, 0.000000000000000000 ) ) ;
#217 = ORIENTED_EDGE ( 'NONE', *, *, #212, .F. ) ;
#218 = COLOUR_RGB ( '',1.000000000000000000, 0.000000000000000000, 0.000000000000000000 ) ;
#219 =( GEOMETRIC_REPRESENTATION_CONTEXT ( 3 ) GLOBAL_UNCERTAINTY_ASSIGNED_CONTEXT ( ( #79 ) ) GLOBAL_UNIT_ASSIGNED_CONTEXT ( ( #43, #365, #252 ) ) REPRESENTATION_CONTEXT ( 'NONE', 'WORKASPACE' ) );
#220 = PRODUCT_DEFINITION ( 'UNKNOWN', '', #368, #76 ) ;
#221 = LENGTH_MEASURE_WITH_UNIT ( LENGTH_MEASURE( 0.02539999999999999897 ), #246 );
#222 = EDGE_CURVE ( 'NONE', #302, #75, #313, .T. ) ;
#223 = UNCERTAINTY_MEASURE_WITH_UNIT (LENGTH_MEASURE( 1.000000000000000082E-05 ), #280, 'distance_accuracy_value', 'NONE');
#224 = CARTESIAN_POINT ( 'NONE',  ( -0.4999999999999992228, 4.000000000000000000, 0.000000000000000000 ) ) ;
#225 = DIRECTION ( 'NONE',  ( -0.000000000000000000, -1.000000000000000000, -0.000000000000000000 ) ) ;
#226 = SURFACE_STYLE_FILL_AREA ( #4 ) ;
#227 =( LENGTH_UNIT ( ) NAMED_UNIT ( * ) SI_UNIT ( $, .METRE. ) );
#228 = ORIENTED_EDGE ( 'NONE', *, *, #360, .T. ) ;
#229 = FILL_AREA_STYLE_COLOUR ( '', #218 ) ;
#230 =( GEOMETRIC_REPRESENTATION_CONTEXT ( 3 ) GLOBAL_UNCERTAINTY_ASSIGNED_CONTEXT ( ( #223 ) ) GLOBAL_UNIT_ASSIGNED_CONTEXT ( ( #280, #87, #348 ) ) REPRESENTATION_CONTEXT ( 'NONE', 'WORKASPACE' ) );
#231 = COLOUR_RGB ( '',1.000000000000000000, 0.000000000000000000, 0.000000000000000000 ) ;
#232 = DIRECTION ( 'NONE',  ( 0.000000000000000000, 0.000000000000000000, -1.000000000000000000 ) ) ;
#233 = APPLICATION_CONTEXT ( 'automotive_design' ) ;
#234 = DIRECTION ( 'NONE',  ( -0.000000000000000000, -1.000000000000000000, -0.000000000000000000 ) ) ;
#235 = FACE_OUTER_BOUND ( 'NONE', #123, .T. ) ;
#236 = CLOSED_SHELL ( 'NONE', ( #9, #85, #274, #207 ) ) ;
#237 = AXIS2_PLACEMENT_3D ( 'NONE', #99, #234, #97 ) ;
#238 = AXIS2_PLACEMENT_3D ( 'NONE', #186, #48, #276 ) ;
#239 =( NAMED_UNIT ( * ) SI_UNIT ( $, .STERADIAN. ) SOLID_ANGLE_UNIT ( ) );
#240 = FACE_OUTER_BOUND ( 'NONE', #28, .T. ) ;
#241 = FILL_AREA_STYLE_COLOUR ( '', #5 ) ;
#242 = DIRECTION ( 'NONE',  ( 0.000000000000000000, 0.000000000000000000, 1.000000000000000000 ) ) ;
#243 = ORIENTED_EDGE ( 'NONE', *, *, #119, .F. ) ;
#244 = DIRECTION ( 'NONE',  ( -0.000000000000000000, -1.000000000000000000, -0.000000000000000000 ) ) ;
#245 = EDGE_LOOP ( 'NONE', ( #35, #160, #318, #214 ) ) ;
#246 =( LENGTH_UNIT ( ) NAMED_UNIT ( * ) SI_UNIT ( $, .METRE. ) );
#247 = CARTESIAN_POINT ( 'NONE',  ( 0.000000000000000000, 0.000000000000000000, 0.000000000000000000 ) ) ;
#248 = EDGE_LOOP ( 'NONE', ( #341, #62, #316, #243 ) ) ;
#249 = MANIFOLD_SOLID_BREP ( 'Revolve - Cutting Edge', #145 ) ;
#250 = EDGE_CURVE ( 'NONE', #302, #288, #147, .T. ) ;
#251 = MANIFOLD_SOLID_BREP ( 'Revolve - Tool Body (Straight Shanked)', #236 ) ;
#252 =( NAMED_UNIT ( * ) SI_UNIT ( $, .STERADIAN. ) SOLID_ANGLE_UNIT ( ) );
#253 = STYLED_ITEM ( 'NONE', ( #346 ), #49 ) ;
#254 = STYLED_ITEM ( 'NONE', ( #205 ), #179 ) ;
#255 = ORIENTED_EDGE ( 'NONE', *, *, #72, .T. ) ;
#256 = DIRECTION ( 'NONE',  ( -1.175163117075789240E-16, 1.000000000000000000, -0.000000000000000000 ) ) ;
#257 = VERTEX_POINT ( 'NONE', #371 ) ;
#258 = DIRECTION ( 'NONE',  ( 0.000000000000000000, 0.000000000000000000, -1.000000000000000000 ) ) ;
#259 = VECTOR ( 'NONE', #11, 39.37007874015748143 ) ;
#260 = VERTEX_POINT ( 'NONE', #3 ) ;
#261 = VERTEX_POINT ( 'NONE', #347 ) ;
#262 = ORIENTED_EDGE ( 'NONE', *, *, #222, .T. ) ;
#263 = AXIS2_PLACEMENT_3D ( 'NONE', #33, #83, #137 ) ;
#264 = LINE ( 'NONE', #352, #259 ) ;
#265 = CARTESIAN_POINT ( 'NONE',  ( 0.000000000000000000, 0.5000000000000000000, 0.000000000000000000 ) ) ;
#266 = CIRCLE ( 'NONE', #169, 0.4999999999999992228 ) ;
#267 = PRESENTATION_LAYER_ASSIGNMENT (  '', '', ( #292 ) ) ;
#268 = CARTESIAN_POINT ( 'NONE',  ( 5.387201390984180500E-16, 1.500000000000000222, 0.000000000000000000 ) ) ;
#269 = SHAPE_DEFINITION_REPRESENTATION ( #117, #340 ) ;
#270 = DIRECTION ( 'NONE',  ( 0.000000000000000000, 1.000000000000000000, 0.000000000000000000 ) ) ;
#271 =( NAMED_UNIT ( * ) SI_UNIT ( $, .STERADIAN. ) SOLID_ANGLE_UNIT ( ) );
#272 =( GEOMETRIC_REPRESENTATION_CONTEXT ( 3 ) GLOBAL_UNCERTAINTY_ASSIGNED_CONTEXT ( ( #161 ) ) GLOBAL_UNIT_ASSIGNED_CONTEXT ( ( #164, #113, #194 ) ) REPRESENTATION_CONTEXT ( 'NONE', 'WORKASPACE' ) );
#273 = ORIENTED_EDGE ( 'NONE', *, *, #202, .F. ) ;
#274 = ADVANCED_FACE ( 'NONE', ( #120 ), #27, .T. ) ;
#275 = SURFACE_SIDE_STYLE ('',( #366 ) ) ;
#276 = DIRECTION ( 'NONE',  ( 1.000000000000000000, 0.000000000000000000, 0.000000000000000000 ) ) ;
#277 = COLOUR_RGB ( '',1.000000000000000000, 0.000000000000000000, 0.000000000000000000 ) ;
#278 = VERTEX_POINT ( 'NONE', #224 ) ;
#279 = CARTESIAN_POINT ( 'NONE',  ( 0.000000000000000000, 0.5000000000000000000, 0.000000000000000000 ) ) ;
#280 =( CONVERSION_BASED_UNIT ( 'INCH', #167 ) LENGTH_UNIT ( ) NAMED_UNIT ( #183 ) );
#281 = CARTESIAN_POINT ( 'NONE',  ( -6.123233995736766036E-17, 0.5000000000000000000, 0.000000000000000000 ) ) ;
#282 = AXIS2_PLACEMENT_3D ( 'NONE', #281, #32, #140 ) ;
#283 = AXIS2_PLACEMENT_3D ( 'NONE', #1, #256, #115 ) ;
#284 = VERTEX_POINT ( 'NONE', #142 ) ;
#285 = EDGE_CURVE ( 'NONE', #278, #257, #299, .T. ) ;
#286 = PRODUCT ( '56707', '56707', '', ( #18 ) ) ;
#287 = PRESENTATION_STYLE_ASSIGNMENT (( #96 ) ) ;
#288 = VERTEX_POINT ( 'NONE', #89 ) ;
#289 = DIRECTION ( 'NONE',  ( -1.175163117075789240E-16, 1.000000000000000000, 0.000000000000000000 ) ) ;
#290 = AXIS2_PLACEMENT_3D ( 'NONE', #293, #67, #94 ) ;
#291 = SURFACE_SIDE_STYLE ('',( #355 ) ) ;
#292 = STYLED_ITEM ( 'NONE', ( #287 ), #359 ) ;
#293 = CARTESIAN_POINT ( 'NONE',  ( 2.449293598294707400E-16, 4.000000000000000000, 0.000000000000000000 ) ) ;
#294 = FACE_OUTER_BOUND ( 'NONE', #165, .T. ) ;
#295 = PLANE ( 'NONE',  #175 ) ;
#296 = CARTESIAN_POINT ( 'NONE',  ( 0.4999999999999996669, 4.000000000000000000, 6.123233995736758640E-17 ) ) ;
#297 = DIMENSIONAL_EXPONENTS ( 1.000000000000000000, 0.000000000000000000, 0.000000000000000000, 0.000000000000000000, 0.000000000000000000, 0.000000000000000000, 0.000000000000000000 ) ;
#298 = COLOUR_RGB ( '',1.000000000000000000, 0.000000000000000000, 0.000000000000000000 ) ;
#299 = CIRCLE ( 'NONE', #283, 0.4999999999999995004 ) ;
#300 = DIRECTION ( 'NONE',  ( -0.000000000000000000, -1.000000000000000000, -0.000000000000000000 ) ) ;
#301 =( GEOMETRIC_REPRESENTATION_CONTEXT ( 3 ) GLOBAL_UNCERTAINTY_ASSIGNED_CONTEXT ( ( #337 ) ) GLOBAL_UNIT_ASSIGNED_CONTEXT ( ( #144, #303, #73 ) ) REPRESENTATION_CONTEXT ( 'NONE', 'WORKASPACE' ) );
#302 = VERTEX_POINT ( 'NONE', #342 ) ;
#303 =( NAMED_UNIT ( * ) PLANE_ANGLE_UNIT ( ) SI_UNIT ( $, .RADIAN. ) );
#304 = CARTESIAN_POINT ( 'NONE',  ( 0.000000000000000000, 1.500000000000000222, 0.000000000000000000 ) ) ;
#305 = ORIENTED_EDGE ( 'NONE', *, *, #250, .T. ) ;
#306 = PRESENTATION_STYLE_ASSIGNMENT (( #17 ) ) ;
#307 =( GEOMETRIC_REPRESENTATION_CONTEXT ( 3 ) GLOBAL_UNCERTAINTY_ASSIGNED_CONTEXT ( ( #213 ) ) GLOBAL_UNIT_ASSIGNED_CONTEXT ( ( #7, #173, #358 ) ) REPRESENTATION_CONTEXT ( 'NONE', 'WORKASPACE' ) );
#308 = ORIENTED_EDGE ( 'NONE', *, *, #322, .F. ) ;
#309 = APPLICATION_CONTEXT ( 'automotive_design' ) ;
#310 = DIRECTION ( 'NONE',  ( 0.000000000000000000, 0.000000000000000000, -1.000000000000000000 ) ) ;
#311 = VERTEX_POINT ( 'NONE', #369 ) ;
#312 = UNCERTAINTY_MEASURE_WITH_UNIT (LENGTH_MEASURE( 1.000000000000000082E-05 ), #319, 'distance_accuracy_value', 'NONE');
#313 = LINE ( 'NONE', #364, #163 ) ;
#314 = EDGE_LOOP ( 'NONE', ( #129, #217 ) ) ;
#315 =( NAMED_UNIT ( * ) PLANE_ANGLE_UNIT ( ) SI_UNIT ( $, .RADIAN. ) );
#316 = ORIENTED_EDGE ( 'NONE', *, *, #202, .T. ) ;
#317 =( GEOMETRIC_REPRESENTATION_CONTEXT ( 3 ) GLOBAL_UNCERTAINTY_ASSIGNED_CONTEXT ( ( #312 ) ) GLOBAL_UNIT_ASSIGNED_CONTEXT ( ( #319, #315, #23 ) ) REPRESENTATION_CONTEXT ( 'NONE', 'WORKASPACE' ) );
#318 = ORIENTED_EDGE ( 'NONE', *, *, #345, .T. ) ;
#319 =( CONVERSION_BASED_UNIT ( 'INCH', #168 ) LENGTH_UNIT ( ) NAMED_UNIT ( #12 ) );
#320 =( LENGTH_UNIT ( ) NAMED_UNIT ( * ) SI_UNIT ( $, .METRE. ) );
#321 = CARTESIAN_POINT ( 'NONE',  ( -0.4999999999999987232, 1.499999999999999778, 0.000000000000000000 ) ) ;
#322 = EDGE_CURVE ( 'NONE', #261, #284, #182, .T. ) ;
#323 = MECHANICAL_DESIGN_GEOMETRIC_PRESENTATION_REPRESENTATION (  '', ( #253 ), #230 ) ;
#324 = AXIS2_PLACEMENT_3D ( 'NONE', #330, #66, #327 ) ;
#325 = SURFACE_SIDE_STYLE ('',( #59 ) ) ;
#326 = LENGTH_MEASURE_WITH_UNIT ( LENGTH_MEASURE( 0.02539999999999999897 ), #201 );
#327 = DIRECTION ( 'NONE',  ( 1.000000000000000000, 0.000000000000000000, -1.224646799147353207E-16 ) ) ;
#328 = DIRECTION ( 'NONE',  ( 0.000000000000000000, 0.000000000000000000, -1.000000000000000000 ) ) ;
#329 = COLOUR_RGB ( '',1.000000000000000000, 0.000000000000000000, 0.000000000000000000 ) ;
#330 = CARTESIAN_POINT ( 'NONE',  ( -6.123233995736766036E-17, 0.5000000000000000000, 0.000000000000000000 ) ) ;
#331 = CARTESIAN_POINT ( 'NONE',  ( 0.4999999999999998335, 1.499999999999999778, 6.123233995736759873E-17 ) ) ;
#332 = DIRECTION ( 'NONE',  ( -1.175163117075789240E-16, 1.000000000000000000, -0.000000000000000000 ) ) ;
#333 = CIRCLE ( 'NONE', #367, 0.4999999999999997780 ) ;
#334 = SURFACE_STYLE_USAGE ( .BOTH. , #211 ) ;
#335 = DIRECTION ( 'NONE',  ( 1.175163117075789240E-16, -1.000000000000000000, 0.000000000000000000 ) ) ;
#336 = PLANE ( 'NONE',  #152 ) ;
#337 = UNCERTAINTY_MEASURE_WITH_UNIT (LENGTH_MEASURE( 1.000000000000000082E-05 ), #144, 'distance_accuracy_value', 'NONE');
#338 = VECTOR ( 'NONE', #111, 39.37007874015748143 ) ;
#339 = CARTESIAN_POINT ( 'NONE',  ( -0.4999999999999991118, 4.000000000000000000, 0.000000000000000000 ) ) ;
#340 = ADVANCED_BREP_SHAPE_REPRESENTATION ( '56707', ( #249, #251, #206 ), #350 ) ;
#341 = ORIENTED_EDGE ( 'NONE', *, *, #146, .F. ) ;
#342 = CARTESIAN_POINT ( 'NONE',  ( 0.000000000000000000, 1.500000000000000222, -0.4999999999999997780 ) ) ;
#343 =( GEOMETRIC_REPRESENTATION_CONTEXT ( 3 ) GLOBAL_UNCERTAINTY_ASSIGNED_CONTEXT ( ( #107 ) ) GLOBAL_UNIT_ASSIGNED_CONTEXT ( ( #158, #104, #271 ) ) REPRESENTATION_CONTEXT ( 'NONE', 'WORKASPACE' ) );
#344 = DIRECTION ( 'NONE',  ( 0.000000000000000000, 0.000000000000000000, -1.000000000000000000 ) ) ;
#345 = EDGE_CURVE ( 'NONE', #75, #311, #61, .T. ) ;
#346 = PRESENTATION_STYLE_ASSIGNMENT (( #30 ) ) ;
#347 = CARTESIAN_POINT ( 'NONE',  ( 6.123233995736766036E-17, 0.5000000000000000000, 0.5000000000000000000 ) ) ;
#348 =( NAMED_UNIT ( * ) SI_UNIT ( $, .STERADIAN. ) SOLID_ANGLE_UNIT ( ) );
#349 = VECTOR ( 'NONE', #149, 39.37007874015748143 ) ;
#350 =( GEOMETRIC_REPRESENTATION_CONTEXT ( 3 ) GLOBAL_UNCERTAINTY_ASSIGNED_CONTEXT ( ( #22 ) ) GLOBAL_UNIT_ASSIGNED_CONTEXT ( ( #209, #8, #239 ) ) REPRESENTATION_CONTEXT ( 'NONE', 'WORKASPACE' ) );
#351 = CARTESIAN_POINT ( 'NONE',  ( 5.387201390984180500E-16, 1.499999999999999778, 0.000000000000000000 ) ) ;
#352 = CARTESIAN_POINT ( 'NONE',  ( 6.123233995736764803E-17, 0.000000000000000000, 0.4999999999999998335 ) ) ;
#353 = EDGE_CURVE ( 'NONE', #284, #260, #153, .T. ) ;
#354 = FILL_AREA_STYLE_COLOUR ( '', #277 ) ;
#355 = SURFACE_STYLE_FILL_AREA ( #174 ) ;
#356 = SURFACE_SIDE_STYLE ('',( #210 ) ) ;
#357 = AXIS2_PLACEMENT_3D ( 'NONE', #265, #300, #38 ) ;
#358 =( NAMED_UNIT ( * ) SI_UNIT ( $, .STERADIAN. ) SOLID_ANGLE_UNIT ( ) );
#359 = ADVANCED_FACE ( 'NONE', ( #294 ), #130, .T. ) ;
#360 = EDGE_CURVE ( 'NONE', #2, #106, #131, .T. ) ;
#361 = FILL_AREA_STYLE ('',( #241 ) ) ;
#362 = AXIS2_PLACEMENT_3D ( 'NONE', #162, #112, #258 ) ;
#363 = PRESENTATION_LAYER_ASSIGNMENT (  '', '', ( #91 ) ) ;
#364 = CARTESIAN_POINT ( 'NONE',  ( 0.000000000000000000, 0.000000000000000000, -0.4999999999999998335 ) ) ;
#365 =( NAMED_UNIT ( * ) PLANE_ANGLE_UNIT ( ) SI_UNIT ( $, .RADIAN. ) );
#366 = SURFACE_STYLE_FILL_AREA ( #74 ) ;
#367 = AXIS2_PLACEMENT_3D ( 'NONE', #304, #244, #310 ) ;
#368 = PRODUCT_DEFINITION_FORMATION_WITH_SPECIFIED_SOURCE ( 'ANY', '', #286, .NOT_KNOWN. ) ;
#369 = CARTESIAN_POINT ( 'NONE',  ( 0.5000000000000000000, 0.5000000000000000000, 0.000000000000000000 ) ) ;
#370 = ORIENTED_EDGE ( 'NONE', *, *, #141, .F. ) ;
#371 = CARTESIAN_POINT ( 'NONE',  ( 0.4999999999999998335, 4.000000000000000000, 6.123233995736759873E-17 ) ) ;
#372 = ORIENTED_EDGE ( 'NONE', *, *, #119, .T. ) ;
#373 = CIRCLE ( 'NONE', #290, 0.4999999999999995004 ) ;
ENDSEC;
END-ISO-10303-21;
