ISO-10303-21;
HEADER;
FILE_DESCRIPTION (( 'STEP AP214' ),
    '1' );
FILE_NAME ('Micro_SEM-390-04X.STEP',
    '2021-09-02T03:15:39',
    ( '' ),
    ( '' ),
    'SwSTEP 2.0',
    'SolidWorks 2020',
    '' );
FILE_SCHEMA (( 'AUTOMOTIVE_DESIGN' ));
ENDSEC;

DATA;
#1 = LINE ( 'NONE', #192, #221 ) ;
#2 = DIRECTION ( 'NONE',  ( -1.000000000000000000, 0.0000000000000000000, 1.224646799147353207E-16 ) ) ;
#3 = ADVANCED_FACE ( 'NONE', ( #181 ), #267, .T. ) ;
#4 =( LENGTH_UNIT ( ) NAMED_UNIT ( * ) SI_UNIT ( $, .METRE. ) );
#5 = PRESENTATION_LAYER_ASSIGNMENT (  '', '', ( #137 ) ) ;
#6 =( GEOMETRIC_REPRESENTATION_CONTEXT ( 3 ) GLOBAL_UNCERTAINTY_ASSIGNED_CONTEXT ( ( #34 ) ) GLOBAL_UNIT_ASSIGNED_CONTEXT ( ( #132, #31, #35 ) ) REPRESENTATION_CONTEXT ( 'NONE', 'WORKASPACE' ) );
#7 = DIRECTION ( 'NONE',  ( -1.224646799147353207E-16, -0.0000000000000000000, -1.000000000000000000 ) ) ;
#8 = SURFACE_STYLE_USAGE ( .BOTH. , #260 ) ;
#9 = EDGE_CURVE ( 'NONE', #160, #17, #193, .T. ) ;
#10 = FILL_AREA_STYLE ('',( #57 ) ) ;
#11 = CIRCLE ( 'NONE', #149, 0.1951046999999999920 ) ;
#12 =( CONVERSION_BASED_UNIT ( 'INCH', #251 ) LENGTH_UNIT ( ) NAMED_UNIT ( #77 ) );
#13 = EDGE_LOOP ( 'NONE', ( #272, #15, #123, #296 ) ) ;
#14 = CONICAL_SURFACE ( 'NONE', #84, 0.2037499999999991263, 0.7853981633974688181 ) ;
#15 = ORIENTED_EDGE ( 'NONE', *, *, #9, .T. ) ;
#16 = FACE_OUTER_BOUND ( 'NONE', #293, .T. ) ;
#17 = VERTEX_POINT ( 'NONE', #184 ) ;
#18 = ADVANCED_FACE ( 'NONE', ( #16 ), #249, .T. ) ;
#19 = CARTESIAN_POINT ( 'NONE',  ( 7.654042494670957853E-17, 0.0000000000000000000, 0.6250000000000000000 ) ) ;
#20 = EDGE_LOOP ( 'NONE', ( #37, #263, #71, #231 ) ) ;
#21 = CONICAL_SURFACE ( 'NONE', #148, 0.1951047000000000198, 0.1745329251994339748 ) ;
#22 = CARTESIAN_POINT ( 'NONE',  ( 0.2037499999999991263, 2.495217853262720780E-17, 2.500000000000000000 ) ) ;
#23 = ORIENTED_EDGE ( 'NONE', *, *, #204, .T. ) ;
#24 = DIRECTION ( 'NONE',  ( -0.0000000000000000000, -0.0000000000000000000, -1.000000000000000000 ) ) ;
#25 = DIRECTION ( 'NONE',  ( -1.224646799147353207E-16, -0.0000000000000000000, -1.000000000000000000 ) ) ;
#26 = AXIS2_PLACEMENT_3D ( 'NONE', #284, #175, #33 ) ;
#27 = CARTESIAN_POINT ( 'NONE',  ( 0.0000000000000000000, 0.0000000000000000000, 0.0000000000000000000 ) ) ;
#28 = CARTESIAN_POINT ( 'NONE',  ( 0.0000000000000000000, 0.0000000000000000000, 2.500000000000000000 ) ) ;
#29 = CARTESIAN_POINT ( 'NONE',  ( 0.0000000000000000000, 0.0000000000000000000, 2.484999999999999876 ) ) ;
#30 = UNCERTAINTY_MEASURE_WITH_UNIT (LENGTH_MEASURE( 1.000000000000000082E-05 ), #12, 'distance_accuracy_value', 'NONE');
#31 =( NAMED_UNIT ( * ) PLANE_ANGLE_UNIT ( ) SI_UNIT ( $, .RADIAN. ) );
#32 = EDGE_CURVE ( 'NONE', #291, #40, #276, .T. ) ;
#33 = DIRECTION ( 'NONE',  ( -1.000000000000000000, 0.0000000000000000000, 0.0000000000000000000 ) ) ;
#34 = UNCERTAINTY_MEASURE_WITH_UNIT (LENGTH_MEASURE( 1.000000000000000082E-05 ), #132, 'distance_accuracy_value', 'NONE');
#35 =( NAMED_UNIT ( * ) SI_UNIT ( $, .STERADIAN. ) SOLID_ANGLE_UNIT ( ) );
#36 = EDGE_CURVE ( 'NONE', #160, #141, #116, .T. ) ;
#37 = ORIENTED_EDGE ( 'NONE', *, *, #63, .F. ) ;
#38 = DIRECTION ( 'NONE',  ( 1.000000000000000000, 0.0000000000000000000, 0.0000000000000000000 ) ) ;
#39 = FACE_OUTER_BOUND ( 'NONE', #13, .T. ) ;
#40 = VERTEX_POINT ( 'NONE', #164 ) ;
#41 = AXIS2_PLACEMENT_3D ( 'NONE', #163, #214, #130 ) ;
#42 =( LENGTH_UNIT ( ) NAMED_UNIT ( * ) SI_UNIT ( $, .METRE. ) );
#43 = ADVANCED_FACE ( 'NONE', ( #70 ), #14, .T. ) ;
#44 = ORIENTED_EDGE ( 'NONE', *, *, #121, .F. ) ;
#45 = CARTESIAN_POINT ( 'NONE',  ( 0.0000000000000000000, 0.0000000000000000000, 2.500000000000000000 ) ) ;
#46 = ORIENTED_EDGE ( 'NONE', *, *, #237, .F. ) ;
#47 = ORIENTED_EDGE ( 'NONE', *, *, #36, .F. ) ;
#48 = MANIFOLD_SOLID_BREP ( 'Cut-Revolve1', #168 ) ;
#49 =( GEOMETRIC_REPRESENTATION_CONTEXT ( 3 ) GLOBAL_UNCERTAINTY_ASSIGNED_CONTEXT ( ( #241 ) ) GLOBAL_UNIT_ASSIGNED_CONTEXT ( ( #222, #107, #83 ) ) REPRESENTATION_CONTEXT ( 'NONE', 'WORKASPACE' ) );
#50 = CARTESIAN_POINT ( 'NONE',  ( 0.2187500000000000000, 2.678914873134835064E-17, 2.500000000000000000 ) ) ;
#51 = CARTESIAN_POINT ( 'NONE',  ( 0.1951046999999999920, 2.389343463536045978E-17, 0.0000000000000000000 ) ) ;
#52 = DIRECTION ( 'NONE',  ( 1.224646799147353207E-16, 0.0000000000000000000, 1.000000000000000000 ) ) ;
#53 = DIMENSIONAL_EXPONENTS ( 1.000000000000000000, 0.0000000000000000000, 0.0000000000000000000, 0.0000000000000000000, 0.0000000000000000000, 0.0000000000000000000, 0.0000000000000000000 ) ;
#54 = MECHANICAL_DESIGN_GEOMETRIC_PRESENTATION_REPRESENTATION (  '', ( #137 ), #49 ) ;
#55 = CARTESIAN_POINT ( 'NONE',  ( 7.654042494670957853E-17, 0.0000000000000000000, 0.6250000000000000000 ) ) ;
#56 = DIRECTION ( 'NONE',  ( 0.0000000000000000000, 0.0000000000000000000, 1.000000000000000000 ) ) ;
#57 = FILL_AREA_STYLE_COLOUR ( '', #113 ) ;
#58 =( GEOMETRIC_REPRESENTATION_CONTEXT ( 3 ) GLOBAL_UNCERTAINTY_ASSIGNED_CONTEXT ( ( #30 ) ) GLOBAL_UNIT_ASSIGNED_CONTEXT ( ( #12, #112, #223 ) ) REPRESENTATION_CONTEXT ( 'NONE', 'WORKASPACE' ) );
#59 = APPLICATION_PROTOCOL_DEFINITION ( 'draft international standard', 'automotive_design', 1998, #178 ) ;
#60 = ORIENTED_EDGE ( 'NONE', *, *, #82, .T. ) ;
#61 = CARTESIAN_POINT ( 'NONE',  ( -0.1951046999999999920, 0.0000000000000000000, 2.389343463536045978E-17 ) ) ;
#62 = MECHANICAL_DESIGN_GEOMETRIC_PRESENTATION_REPRESENTATION (  '', ( #196 ), #58 ) ;
#63 = EDGE_CURVE ( 'NONE', #40, #291, #189, .T. ) ;
#64 = AXIS2_PLACEMENT_3D ( 'NONE', #254, #299, #101 ) ;
#65 = DIRECTION ( 'NONE',  ( 1.000000000000000000, 0.0000000000000000000, 0.0000000000000000000 ) ) ;
#66 = VERTEX_POINT ( 'NONE', #162 ) ;
#67 = ADVANCED_FACE ( 'NONE', ( #39 ), #226, .T. ) ;
#68 = VERTEX_POINT ( 'NONE', #51 ) ;
#69 = CIRCLE ( 'NONE', #64, 0.2187500000000000000 ) ;
#70 = FACE_OUTER_BOUND ( 'NONE', #20, .T. ) ;
#71 = ORIENTED_EDGE ( 'NONE', *, *, #78, .F. ) ;
#72 = CARTESIAN_POINT ( 'NONE',  ( 9.296283565409630188E-17, 0.0000000000000000000, 0.7590991600094056935 ) ) ;
#73 = PRODUCT_RELATED_PRODUCT_CATEGORY ( 'part', '', ( #139 ) ) ;
#74 = AXIS2_PLACEMENT_3D ( 'NONE', #72, #277, #75 ) ;
#75 = DIRECTION ( 'NONE',  ( 1.000000000000000000, 0.0000000000000000000, 0.0000000000000000000 ) ) ;
#76 = FACE_OUTER_BOUND ( 'NONE', #94, .T. ) ;
#77 = DIMENSIONAL_EXPONENTS ( 1.000000000000000000, 0.0000000000000000000, 0.0000000000000000000, 0.0000000000000000000, 0.0000000000000000000, 0.0000000000000000000, 0.0000000000000000000 ) ;
#78 = EDGE_CURVE ( 'NONE', #166, #186, #224, .T. ) ;
#79 = DIRECTION ( 'NONE',  ( -1.224646799147353207E-16, -0.0000000000000000000, -1.000000000000000000 ) ) ;
#80 = AXIS2_PLACEMENT_3D ( 'NONE', #273, #140, #65 ) ;
#81 = CARTESIAN_POINT ( 'NONE',  ( -0.2187500000000000000, 0.0000000000000000000, 2.484999999999999876 ) ) ;
#82 = EDGE_CURVE ( 'NONE', #17, #160, #209, .T. ) ;
#83 =( NAMED_UNIT ( * ) SI_UNIT ( $, .STERADIAN. ) SOLID_ANGLE_UNIT ( ) );
#84 = AXIS2_PLACEMENT_3D ( 'NONE', #45, #205, #142 ) ;
#85 = VECTOR ( 'NONE', #7, 39.37007874015748143 ) ;
#86 =( LENGTH_UNIT ( ) NAMED_UNIT ( * ) SI_UNIT ( $, .METRE. ) );
#87 = CARTESIAN_POINT ( 'NONE',  ( 0.0000000000000000000, 0.0000000000000000000, 0.0000000000000000000 ) ) ;
#88 = DIRECTION ( 'NONE',  ( -0.0000000000000000000, -0.0000000000000000000, -1.000000000000000000 ) ) ;
#89 = VECTOR ( 'NONE', #122, 39.37007874015747433 ) ;
#90 = ORIENTED_EDGE ( 'NONE', *, *, #121, .T. ) ;
#91 = SURFACE_STYLE_FILL_AREA ( #292 ) ;
#92 = EDGE_LOOP ( 'NONE', ( #252, #117, #114, #207 ) ) ;
#93 = DIRECTION ( 'NONE',  ( -1.224646799147353207E-16, -0.0000000000000000000, -1.000000000000000000 ) ) ;
#94 = EDGE_LOOP ( 'NONE', ( #203, #246, #210, #90 ) ) ;
#95 = VECTOR ( 'NONE', #24, 39.37007874015748143 ) ;
#96 = DIRECTION ( 'NONE',  ( -1.000000000000000000, 0.0000000000000000000, 0.0000000000000000000 ) ) ;
#97 = EDGE_LOOP ( 'NONE', ( #60, #119, #289, #185 ) ) ;
#98 = LINE ( 'NONE', #22, #89 ) ;
#99 = EDGE_CURVE ( 'NONE', #160, #68, #100, .T. ) ;
#100 = LINE ( 'NONE', #172, #298 ) ;
#101 = DIRECTION ( 'NONE',  ( 1.000000000000000000, 0.0000000000000000000, 0.0000000000000000000 ) ) ;
#102 = DIRECTION ( 'NONE',  ( -0.7071067811865621167, 0.0000000000000000000, -0.7071067811865330288 ) ) ;
#103 = DIRECTION ( 'NONE',  ( 1.000000000000000000, 0.0000000000000000000, 0.0000000000000000000 ) ) ;
#104 = FACE_OUTER_BOUND ( 'NONE', #138, .T. ) ;
#105 = DIRECTION ( 'NONE',  ( 0.0000000000000000000, 0.0000000000000000000, -1.000000000000000000 ) ) ;
#106 = EDGE_CURVE ( 'NONE', #166, #176, #279, .T. ) ;
#107 =( NAMED_UNIT ( * ) PLANE_ANGLE_UNIT ( ) SI_UNIT ( $, .RADIAN. ) );
#108 = PRODUCT_DEFINITION_CONTEXT ( 'detailed design', #178, 'design' ) ;
#109 = SURFACE_STYLE_FILL_AREA ( #10 ) ;
#110 = AXIS2_PLACEMENT_3D ( 'NONE', #213, #216, #152 ) ;
#111 = CARTESIAN_POINT ( 'NONE',  ( 0.0000000000000000000, 0.0000000000000000000, 0.0000000000000000000 ) ) ;
#112 =( NAMED_UNIT ( * ) PLANE_ANGLE_UNIT ( ) SI_UNIT ( $, .RADIAN. ) );
#113 = COLOUR_RGB ( '',0.7921568627450980005, 0.8196078431372548767, 0.9333333333333333481 ) ;
#114 = ORIENTED_EDGE ( 'NONE', *, *, #143, .F. ) ;
#115 = ORIENTED_EDGE ( 'NONE', *, *, #143, .T. ) ;
#116 = LINE ( 'NONE', #271, #269 ) ;
#117 = ORIENTED_EDGE ( 'NONE', *, *, #171, .T. ) ;
#118 = DIRECTION ( 'NONE',  ( 0.0000000000000000000, 0.0000000000000000000, 1.000000000000000000 ) ) ;
#119 = ORIENTED_EDGE ( 'NONE', *, *, #99, .T. ) ;
#120 = CIRCLE ( 'NONE', #74, 0.2187500000000000000 ) ;
#121 = EDGE_CURVE ( 'NONE', #141, #176, #120, .T. ) ;
#122 = DIRECTION ( 'NONE',  ( 0.7071067811865621167, 8.659560562355110352E-17, -0.7071067811865330288 ) ) ;
#123 = ORIENTED_EDGE ( 'NONE', *, *, #278, .T. ) ;
#124 = FACE_OUTER_BOUND ( 'NONE', #244, .T. ) ;
#125 = CARTESIAN_POINT ( 'NONE',  ( 2.926101824683069354E-33, 0.0000000000000000000, 2.389343463536045978E-17 ) ) ;
#126 = EDGE_CURVE ( 'NONE', #68, #66, #161, .T. ) ;
#127 = DIRECTION ( 'NONE',  ( -1.000000000000000000, 0.0000000000000000000, 1.224646799147353207E-16 ) ) ;
#128 = DIMENSIONAL_EXPONENTS ( 1.000000000000000000, 0.0000000000000000000, 0.0000000000000000000, 0.0000000000000000000, 0.0000000000000000000, 0.0000000000000000000, 0.0000000000000000000 ) ;
#129 = DIRECTION ( 'NONE',  ( 0.0000000000000000000, 0.0000000000000000000, 1.000000000000000000 ) ) ;
#130 = DIRECTION ( 'NONE',  ( -1.000000000000000000, 0.0000000000000000000, 0.0000000000000000000 ) ) ;
#131 = AXIS2_PLACEMENT_3D ( 'NONE', #27, #79, #127 ) ;
#132 =( CONVERSION_BASED_UNIT ( 'INCH', #195 ) LENGTH_UNIT ( ) NAMED_UNIT ( #53 ) );
#133 = ORIENTED_EDGE ( 'NONE', *, *, #32, .T. ) ;
#134 = AXIS2_PLACEMENT_3D ( 'NONE', #28, #129, #150 ) ;
#135 = AXIS2_PLACEMENT_3D ( 'NONE', #19, #93, #96 ) ;
#136 = CARTESIAN_POINT ( 'NONE',  ( 0.0000000000000000000, 0.0000000000000000000, 2.500000000000000000 ) ) ;
#137 = STYLED_ITEM ( 'NONE', ( #159 ), #217 ) ;
#138 = EDGE_LOOP ( 'NONE', ( #46, #201, #23, #248 ) ) ;
#139 = PRODUCT ( 'Micro_SEM-390-04X', 'Micro_SEM-390-04X', '', ( #220 ) ) ;
#140 = DIRECTION ( 'NONE',  ( 0.0000000000000000000, 0.0000000000000000000, 1.000000000000000000 ) ) ;
#141 = VERTEX_POINT ( 'NONE', #167 ) ;
#142 = DIRECTION ( 'NONE',  ( -1.000000000000000000, 0.0000000000000000000, 0.0000000000000000000 ) ) ;
#143 = EDGE_CURVE ( 'NONE', #176, #141, #69, .T. ) ;
#144 = ORIENTED_EDGE ( 'NONE', *, *, #82, .F. ) ;
#145 = ADVANCED_FACE ( 'NONE', ( #76 ), #21, .T. ) ;
#146 = PLANE ( 'NONE',  #134 ) ;
#147 = ORIENTED_EDGE ( 'NONE', *, *, #264, .T. ) ;
#148 = AXIS2_PLACEMENT_3D ( 'NONE', #257, #52, #103 ) ;
#149 = AXIS2_PLACEMENT_3D ( 'NONE', #191, #281, #173 ) ;
#150 = DIRECTION ( 'NONE',  ( 1.000000000000000000, 0.0000000000000000000, -0.0000000000000000000 ) ) ;
#151 = LINE ( 'NONE', #50, #95 ) ;
#152 = DIRECTION ( 'NONE',  ( 1.000000000000000000, 0.0000000000000000000, 0.0000000000000000000 ) ) ;
#153 = PRESENTATION_LAYER_ASSIGNMENT (  '', '', ( #196 ) ) ;
#154 = AXIS2_PLACEMENT_3D ( 'NONE', #111, #219, #265 ) ;
#155 = CARTESIAN_POINT ( 'NONE',  ( 0.1951047000000001030, 0.0000000000000000000, 0.6250000000000000000 ) ) ;
#156 = LENGTH_MEASURE_WITH_UNIT ( LENGTH_MEASURE( 0.02539999999999999897 ), #4 );
#157 = APPLICATION_PROTOCOL_DEFINITION ( 'draft international standard', 'automotive_design', 1998, #280 ) ;
#158 = COLOUR_RGB ( '',0.7921568627450980005, 0.8196078431372548767, 0.9333333333333333481 ) ;
#159 = PRESENTATION_STYLE_ASSIGNMENT (( #8 ) ) ;
#160 = VERTEX_POINT ( 'NONE', #155 ) ;
#161 = CIRCLE ( 'NONE', #197, 0.1951046999999999920 ) ;
#162 = CARTESIAN_POINT ( 'NONE',  ( -0.1951046999999999920, 0.0000000000000000000, 4.778686927072091956E-17 ) ) ;
#163 = CARTESIAN_POINT ( 'NONE',  ( 0.0000000000000000000, 0.0000000000000000000, 2.500000000000000000 ) ) ;
#164 = CARTESIAN_POINT ( 'NONE',  ( 0.2037499999999991263, 2.587066363198777614E-17, 2.500000000000000000 ) ) ;
#165 = ORIENTED_EDGE ( 'NONE', *, *, #239, .T. ) ;
#166 = VERTEX_POINT ( 'NONE', #81 ) ;
#167 = CARTESIAN_POINT ( 'NONE',  ( 0.2187500000000000833, 2.678914873134836296E-17, 0.7590991600094056935 ) ) ;
#168 = CLOSED_SHELL ( 'NONE', ( #218, #229, #43, #3, #18, #227, #285, #145, #67, #256 ) ) ;
#169 = VECTOR ( 'NONE', #234, 39.37007874015748143 ) ;
#170 = CARTESIAN_POINT ( 'NONE',  ( -0.2187499999999998890, 0.0000000000000000000, 0.7590991600094056935 ) ) ;
#171 = EDGE_CURVE ( 'NONE', #186, #141, #151, .T. ) ;
#172 = CARTESIAN_POINT ( 'NONE',  ( 0.1951046999999999920, 2.389343463536045978E-17, -2.389343463536045978E-17 ) ) ;
#173 = DIRECTION ( 'NONE',  ( -1.000000000000000000, 0.0000000000000000000, 1.224646799147353207E-16 ) ) ;
#174 = FACE_OUTER_BOUND ( 'NONE', #268, .T. ) ;
#175 = DIRECTION ( 'NONE',  ( 0.0000000000000000000, 0.0000000000000000000, -1.000000000000000000 ) ) ;
#176 = VERTEX_POINT ( 'NONE', #170 ) ;
#177 = PRODUCT_DEFINITION ( 'UNKNOWN', '', #243, #108 ) ;
#178 = APPLICATION_CONTEXT ( 'automotive_design' ) ;
#179 = FILL_AREA_STYLE_COLOUR ( '', #158 ) ;
#180 = PRESENTATION_STYLE_ASSIGNMENT (( #208 ) ) ;
#181 = FACE_OUTER_BOUND ( 'NONE', #92, .T. ) ;
#182 = SHAPE_DEFINITION_REPRESENTATION ( #206, #217 ) ;
#183 = ORIENTED_EDGE ( 'NONE', *, *, #225, .T. ) ;
#184 = CARTESIAN_POINT ( 'NONE',  ( -0.1951046999999999643, 2.534129168335440367E-17, 0.6250000000000000000 ) ) ;
#185 = ORIENTED_EDGE ( 'NONE', *, *, #278, .F. ) ;
#186 = VERTEX_POINT ( 'NONE', #236 ) ;
#187 = DIRECTION ( 'NONE',  ( -1.000000000000000000, 0.0000000000000000000, 1.224646799147353207E-16 ) ) ;
#188 = DIRECTION ( 'NONE',  ( -1.224646799147353207E-16, -0.0000000000000000000, -1.000000000000000000 ) ) ;
#189 = CIRCLE ( 'NONE', #80, 0.2037499999999991263 ) ;
#190 = DIRECTION ( 'NONE',  ( -1.224646799147353207E-16, -0.0000000000000000000, -1.000000000000000000 ) ) ;
#191 = CARTESIAN_POINT ( 'NONE',  ( 2.926101824683069354E-33, 0.0000000000000000000, 2.389343463536045978E-17 ) ) ;
#192 = CARTESIAN_POINT ( 'NONE',  ( -0.2037499999999991263, 0.0000000000000000000, 2.500000000000000000 ) ) ;
#193 = CIRCLE ( 'NONE', #135, 0.1951047000000000198 ) ;
#194 = AXIS2_PLACEMENT_3D ( 'NONE', #55, #25, #275 ) ;
#195 = LENGTH_MEASURE_WITH_UNIT ( LENGTH_MEASURE( 0.02539999999999999897 ), #86 );
#196 = STYLED_ITEM ( 'NONE', ( #180 ), #48 ) ;
#197 = AXIS2_PLACEMENT_3D ( 'NONE', #125, #215, #2 ) ;
#198 = DIRECTION ( 'NONE',  ( 1.000000000000000000, 0.0000000000000000000, 0.0000000000000000000 ) ) ;
#199 = DIRECTION ( 'NONE',  ( -1.000000000000000000, 0.0000000000000000000, 0.0000000000000000000 ) ) ;
#200 = AXIS2_PLACEMENT_3D ( 'NONE', #87, #56, #38 ) ;
#201 = ORIENTED_EDGE ( 'NONE', *, *, #32, .F. ) ;
#202 = CARTESIAN_POINT ( 'NONE',  ( 0.0000000000000000000, 0.0000000000000000000, 0.0000000000000000000 ) ) ;
#203 = ORIENTED_EDGE ( 'NONE', *, *, #239, .F. ) ;
#204 = EDGE_CURVE ( 'NONE', #291, #166, #1, .T. ) ;
#205 = DIRECTION ( 'NONE',  ( 0.0000000000000000000, 0.0000000000000000000, -1.000000000000000000 ) ) ;
#206 = PRODUCT_DEFINITION_SHAPE ( 'NONE', 'NONE',  #177 ) ;
#207 = ORIENTED_EDGE ( 'NONE', *, *, #106, .F. ) ;
#208 = SURFACE_STYLE_USAGE ( .BOTH. , #230 ) ;
#209 = CIRCLE ( 'NONE', #194, 0.1951047000000000198 ) ;
#210 = ORIENTED_EDGE ( 'NONE', *, *, #36, .T. ) ;
#211 = CARTESIAN_POINT ( 'NONE',  ( -0.1951046999999999643, 2.389343463536046286E-17, 0.6250000000000000000 ) ) ;
#212 = PLANE ( 'NONE',  #154 ) ;
#213 = CARTESIAN_POINT ( 'NONE',  ( 0.0000000000000000000, 0.0000000000000000000, 2.484999999999999876 ) ) ;
#214 = DIRECTION ( 'NONE',  ( -0.0000000000000000000, -0.0000000000000000000, -1.000000000000000000 ) ) ;
#215 = DIRECTION ( 'NONE',  ( -1.224646799147353207E-16, -0.0000000000000000000, -1.000000000000000000 ) ) ;
#216 = DIRECTION ( 'NONE',  ( 0.0000000000000000000, 0.0000000000000000000, -1.000000000000000000 ) ) ;
#217 = ADVANCED_BREP_SHAPE_REPRESENTATION ( 'Micro_SEM-390-04X', ( #48, #200 ), #6 ) ;
#218 = ADVANCED_FACE ( 'NONE', ( #235 ), #258, .T. ) ;
#219 = DIRECTION ( 'NONE',  ( 0.0000000000000000000, 0.0000000000000000000, 1.000000000000000000 ) ) ;
#220 = PRODUCT_CONTEXT ( 'NONE', #280, 'mechanical' ) ;
#221 = VECTOR ( 'NONE', #102, 39.37007874015747433 ) ;
#222 =( CONVERSION_BASED_UNIT ( 'INCH', #156 ) LENGTH_UNIT ( ) NAMED_UNIT ( #128 ) );
#223 =( NAMED_UNIT ( * ) SI_UNIT ( $, .STERADIAN. ) SOLID_ANGLE_UNIT ( ) );
#224 = CIRCLE ( 'NONE', #110, 0.2187500000000000000 ) ;
#225 = EDGE_CURVE ( 'NONE', #66, #68, #11, .T. ) ;
#226 = CYLINDRICAL_SURFACE ( 'NONE', #283, 0.1951046999999999920 ) ;
#227 = ADVANCED_FACE ( 'NONE', ( #282 ), #146, .T. ) ;
#228 = ORIENTED_EDGE ( 'NONE', *, *, #63, .T. ) ;
#229 = ADVANCED_FACE ( 'NONE', ( #174 ), #287, .T. ) ;
#230 = SURFACE_SIDE_STYLE ('',( #91 ) ) ;
#231 = ORIENTED_EDGE ( 'NONE', *, *, #204, .F. ) ;
#232 = DIRECTION ( 'NONE',  ( 1.000000000000000000, 0.0000000000000000000, 0.0000000000000000000 ) ) ;
#233 = EDGE_LOOP ( 'NONE', ( #133, #228 ) ) ;
#234 = DIRECTION ( 'NONE',  ( -0.1736481776669312471, 2.126576849575783933E-17, 0.9848077530122077983 ) ) ;
#235 = FACE_OUTER_BOUND ( 'NONE', #97, .T. ) ;
#236 = CARTESIAN_POINT ( 'NONE',  ( 0.2187500000000000000, 2.678914873134835064E-17, 2.484999999999999876 ) ) ;
#237 = EDGE_CURVE ( 'NONE', #40, #186, #98, .T. ) ;
#238 = AXIS2_PLACEMENT_3D ( 'NONE', #136, #88, #199 ) ;
#239 = EDGE_CURVE ( 'NONE', #17, #176, #255, .T. ) ;
#240 = DIRECTION ( 'NONE',  ( -0.0000000000000000000, -0.0000000000000000000, -1.000000000000000000 ) ) ;
#241 = UNCERTAINTY_MEASURE_WITH_UNIT (LENGTH_MEASURE( 1.000000000000000082E-05 ), #222, 'distance_accuracy_value', 'NONE');
#242 = AXIS2_PLACEMENT_3D ( 'NONE', #247, #118, #288 ) ;
#243 = PRODUCT_DEFINITION_FORMATION_WITH_SPECIFIED_SOURCE ( 'ANY', '', #139, .NOT_KNOWN. ) ;
#244 = EDGE_LOOP ( 'NONE', ( #183, #294 ) ) ;
#245 = VECTOR ( 'NONE', #240, 39.37007874015748143 ) ;
#246 = ORIENTED_EDGE ( 'NONE', *, *, #9, .F. ) ;
#247 = CARTESIAN_POINT ( 'NONE',  ( 0.0000000000000000000, 0.0000000000000000000, 2.500000000000000000 ) ) ;
#248 = ORIENTED_EDGE ( 'NONE', *, *, #264, .F. ) ;
#249 = CYLINDRICAL_SURFACE ( 'NONE', #238, 0.2187500000000000000 ) ;
#250 = ORIENTED_EDGE ( 'NONE', *, *, #106, .T. ) ;
#251 = LENGTH_MEASURE_WITH_UNIT ( LENGTH_MEASURE( 0.02539999999999999897 ), #42 );
#252 = ORIENTED_EDGE ( 'NONE', *, *, #78, .T. ) ;
#253 = CIRCLE ( 'NONE', #270, 0.2187500000000000000 ) ;
#254 = CARTESIAN_POINT ( 'NONE',  ( 9.296283565409630188E-17, 0.0000000000000000000, 0.7590991600094056935 ) ) ;
#255 = LINE ( 'NONE', #211, #169 ) ;
#256 = ADVANCED_FACE ( 'NONE', ( #124 ), #212, .F. ) ;
#257 = CARTESIAN_POINT ( 'NONE',  ( 7.654042494670957853E-17, 0.0000000000000000000, 0.6250000000000000000 ) ) ;
#258 = CYLINDRICAL_SURFACE ( 'NONE', #131, 0.1951046999999999920 ) ;
#259 = CARTESIAN_POINT ( 'NONE',  ( 7.654042494670957853E-17, 0.0000000000000000000, 0.6250000000000000000 ) ) ;
#260 = SURFACE_SIDE_STYLE ('',( #109 ) ) ;
#261 = CARTESIAN_POINT ( 'NONE',  ( -0.2037499999999991263, 0.0000000000000000000, 2.500000000000000000 ) ) ;
#262 = AXIS2_PLACEMENT_3D ( 'NONE', #259, #295, #232 ) ;
#263 = ORIENTED_EDGE ( 'NONE', *, *, #237, .T. ) ;
#264 = EDGE_CURVE ( 'NONE', #186, #166, #253, .T. ) ;
#265 = DIRECTION ( 'NONE',  ( 1.000000000000000000, 0.0000000000000000000, -0.0000000000000000000 ) ) ;
#266 = CONICAL_SURFACE ( 'NONE', #26, 0.2037499999999991263, 0.7853981633974688181 ) ;
#267 = CYLINDRICAL_SURFACE ( 'NONE', #41, 0.2187500000000000000 ) ;
#268 = EDGE_LOOP ( 'NONE', ( #144, #165, #115, #47 ) ) ;
#269 = VECTOR ( 'NONE', #290, 39.37007874015748143 ) ;
#270 = AXIS2_PLACEMENT_3D ( 'NONE', #29, #105, #198 ) ;
#271 = CARTESIAN_POINT ( 'NONE',  ( 0.1951047000000001030, 0.0000000000000000000, 0.6250000000000000000 ) ) ;
#272 = ORIENTED_EDGE ( 'NONE', *, *, #99, .F. ) ;
#273 = CARTESIAN_POINT ( 'NONE',  ( 0.0000000000000000000, 0.0000000000000000000, 2.500000000000000000 ) ) ;
#274 = ORIENTED_EDGE ( 'NONE', *, *, #171, .F. ) ;
#275 = DIRECTION ( 'NONE',  ( -1.000000000000000000, 0.0000000000000000000, 0.0000000000000000000 ) ) ;
#276 = CIRCLE ( 'NONE', #242, 0.2037499999999991263 ) ;
#277 = DIRECTION ( 'NONE',  ( -1.224646799147353207E-16, -0.0000000000000000000, -1.000000000000000000 ) ) ;
#278 = EDGE_CURVE ( 'NONE', #17, #66, #286, .T. ) ;
#279 = LINE ( 'NONE', #297, #245 ) ;
#280 = APPLICATION_CONTEXT ( 'automotive_design' ) ;
#281 = DIRECTION ( 'NONE',  ( -1.224646799147353207E-16, -0.0000000000000000000, -1.000000000000000000 ) ) ;
#282 = FACE_OUTER_BOUND ( 'NONE', #233, .T. ) ;
#283 = AXIS2_PLACEMENT_3D ( 'NONE', #202, #190, #187 ) ;
#284 = CARTESIAN_POINT ( 'NONE',  ( 0.0000000000000000000, 0.0000000000000000000, 2.500000000000000000 ) ) ;
#285 = ADVANCED_FACE ( 'NONE', ( #104 ), #266, .T. ) ;
#286 = LINE ( 'NONE', #61, #85 ) ;
#287 = CONICAL_SURFACE ( 'NONE', #262, 0.1951047000000000198, 0.1745329251994339748 ) ;
#288 = DIRECTION ( 'NONE',  ( 1.000000000000000000, 0.0000000000000000000, 0.0000000000000000000 ) ) ;
#289 = ORIENTED_EDGE ( 'NONE', *, *, #225, .F. ) ;
#290 = DIRECTION ( 'NONE',  ( 0.1736481776669314692, 0.0000000000000000000, 0.9848077530122077983 ) ) ;
#291 = VERTEX_POINT ( 'NONE', #261 ) ;
#292 = FILL_AREA_STYLE ('',( #179 ) ) ;
#293 = EDGE_LOOP ( 'NONE', ( #274, #147, #250, #44 ) ) ;
#294 = ORIENTED_EDGE ( 'NONE', *, *, #126, .T. ) ;
#295 = DIRECTION ( 'NONE',  ( 1.224646799147353207E-16, 0.0000000000000000000, 1.000000000000000000 ) ) ;
#296 = ORIENTED_EDGE ( 'NONE', *, *, #126, .F. ) ;
#297 = CARTESIAN_POINT ( 'NONE',  ( -0.2187500000000000000, 0.0000000000000000000, 2.500000000000000000 ) ) ;
#298 = VECTOR ( 'NONE', #188, 39.37007874015748143 ) ;
#299 = DIRECTION ( 'NONE',  ( -1.224646799147353207E-16, -0.0000000000000000000, -1.000000000000000000 ) ) ;
ENDSEC;
END-ISO-10303-21;
