ISO-10303-21;
HEADER;
FILE_DESCRIPTION (( 'STEP AP214' ),
    '1' );
FILE_NAME ('Micro_SME-019-2.STEP',
    '2021-09-02T10:42:14',
    ( '' ),
    ( '' ),
    'SwSTEP 2.0',
    'SolidWorks 2020',
    '' );
FILE_SCHEMA (( 'AUTOMOTIVE_DESIGN' ));
ENDSEC;

DATA;
#1 =( NAMED_UNIT ( * ) SI_UNIT ( $, .STERADIAN. ) SOLID_ANGLE_UNIT ( ) );
#2 = VECTOR ( 'NONE', #118, 39.37007874015748143 ) ;
#3 = SURFACE_STYLE_USAGE ( .BOTH. , #138 ) ;
#4 = CARTESIAN_POINT ( 'NONE',  ( 0.009490499999999998937, 1.162251044730795327E-18, 0.0000000000000000000 ) ) ;
#5 = DIRECTION ( 'NONE',  ( -1.224646799147353700E-16, -0.0000000000000000000, -1.000000000000000000 ) ) ;
#6 = EDGE_CURVE ( 'NONE', #205, #102, #159, .T. ) ;
#7 = AXIS2_PLACEMENT_3D ( 'NONE', #261, #171, #94 ) ;
#8 = DIRECTION ( 'NONE',  ( -1.000000000000000000, 0.0000000000000000000, 1.224646799147353700E-16 ) ) ;
#9 = CARTESIAN_POINT ( 'NONE',  ( 0.0000000000000000000, 0.0000000000000000000, 0.0000000000000000000 ) ) ;
#10 = DIRECTION ( 'NONE',  ( 0.0000000000000000000, 0.0000000000000000000, -1.000000000000000000 ) ) ;
#11 = PLANE ( 'NONE',  #277 ) ;
#12 = SURFACE_STYLE_FILL_AREA ( #268 ) ;
#13 = VERTEX_POINT ( 'NONE', #155 ) ;
#14 = PRODUCT_DEFINITION_FORMATION_WITH_SPECIFIED_SOURCE ( 'ANY', '', #181, .NOT_KNOWN. ) ;
#15 = VERTEX_POINT ( 'NONE', #4 ) ;
#16 = EDGE_LOOP ( 'NONE', ( #226, #20 ) ) ;
#17 = EDGE_LOOP ( 'NONE', ( #247, #42 ) ) ;
#18 =( GEOMETRIC_REPRESENTATION_CONTEXT ( 3 ) GLOBAL_UNCERTAINTY_ASSIGNED_CONTEXT ( ( #54 ) ) GLOBAL_UNIT_ASSIGNED_CONTEXT ( ( #90, #68, #1 ) ) REPRESENTATION_CONTEXT ( 'NONE', 'WORKASPACE' ) );
#19 = AXIS2_PLACEMENT_3D ( 'NONE', #193, #289, #93 ) ;
#20 = ORIENTED_EDGE ( 'NONE', *, *, #249, .T. ) ;
#21 = FILL_AREA_STYLE_COLOUR ( '', #108 ) ;
#22 = COLOUR_RGB ( '',0.7921568627450980005, 0.8196078431372548767, 0.9333333333333333481 ) ;
#23 = DIRECTION ( 'NONE',  ( -0.0000000000000000000, -0.0000000000000000000, -1.000000000000000000 ) ) ;
#24 = PLANE ( 'NONE',  #292 ) ;
#25 = ADVANCED_FACE ( 'NONE', ( #255 ), #137, .T. ) ;
#26 = LINE ( 'NONE', #276, #156 ) ;
#27 = UNCERTAINTY_MEASURE_WITH_UNIT (LENGTH_MEASURE( 1.000000000000000082E-05 ), #234, 'distance_accuracy_value', 'NONE');
#28 = DIRECTION ( 'NONE',  ( 1.000000000000000000, 0.0000000000000000000, 0.0000000000000000000 ) ) ;
#29 = CIRCLE ( 'NONE', #147, 0.06250000000000002776 ) ;
#30 = DIRECTION ( 'NONE',  ( -1.224646799147353700E-16, -0.0000000000000000000, -1.000000000000000000 ) ) ;
#31 = ADVANCED_FACE ( 'NONE', ( #184 ), #172, .T. ) ;
#32 = LINE ( 'NONE', #57, #2 ) ;
#33 = CARTESIAN_POINT ( 'NONE',  ( 3.429011037612590632E-18, 0.0000000000000000000, 0.02800000000000000405 ) ) ;
#34 = MECHANICAL_DESIGN_GEOMETRIC_PRESENTATION_REPRESENTATION (  '', ( #120 ), #71 ) ;
#35 = EDGE_CURVE ( 'NONE', #15, #83, #114, .T. ) ;
#36 =( NAMED_UNIT ( * ) PLANE_ANGLE_UNIT ( ) SI_UNIT ( $, .RADIAN. ) );
#37 = VERTEX_POINT ( 'NONE', #46 ) ;
#38 = DIRECTION ( 'NONE',  ( -0.0000000000000000000, -0.0000000000000000000, -1.000000000000000000 ) ) ;
#39 = ORIENTED_EDGE ( 'NONE', *, *, #35, .F. ) ;
#40 = CIRCLE ( 'NONE', #283, 0.009490499999999998937 ) ;
#41 = DIRECTION ( 'NONE',  ( 1.000000000000000000, 0.0000000000000000000, 0.0000000000000000000 ) ) ;
#42 = ORIENTED_EDGE ( 'NONE', *, *, #35, .T. ) ;
#43 = ORIENTED_EDGE ( 'NONE', *, *, #168, .T. ) ;
#44 = VECTOR ( 'NONE', #186, 39.37007874015748143 ) ;
#45 = ORIENTED_EDGE ( 'NONE', *, *, #224, .F. ) ;
#46 = CARTESIAN_POINT ( 'NONE',  ( 0.009490500000000002406, 0.0000000000000000000, 0.02800000000000000405 ) ) ;
#47 =( NAMED_UNIT ( * ) PLANE_ANGLE_UNIT ( ) SI_UNIT ( $, .RADIAN. ) );
#48 = CARTESIAN_POINT ( 'NONE',  ( -0.009490499999999998937, 0.0000000000000000000, 1.162251044730795904E-18 ) ) ;
#49 = PRESENTATION_LAYER_ASSIGNMENT (  '', '', ( #120 ) ) ;
#50 = CARTESIAN_POINT ( 'NONE',  ( 1.423347021735236990E-34, 0.0000000000000000000, 1.162251044730795904E-18 ) ) ;
#51 = EDGE_CURVE ( 'NONE', #102, #80, #26, .T. ) ;
#52 = DIRECTION ( 'NONE',  ( -1.224646799147353700E-16, -0.0000000000000000000, -1.000000000000000000 ) ) ;
#53 = DIRECTION ( 'NONE',  ( 1.000000000000000000, 0.0000000000000000000, -0.0000000000000000000 ) ) ;
#54 = UNCERTAINTY_MEASURE_WITH_UNIT (LENGTH_MEASURE( 1.000000000000000082E-05 ), #90, 'distance_accuracy_value', 'NONE');
#55 = DIRECTION ( 'NONE',  ( -1.224646799147353700E-16, -0.0000000000000000000, -1.000000000000000000 ) ) ;
#56 = AXIS2_PLACEMENT_3D ( 'NONE', #134, #52, #206 ) ;
#57 = CARTESIAN_POINT ( 'NONE',  ( 0.06250000000000002776, 7.654042494670959086E-18, 1.500000000000000222 ) ) ;
#58 = FACE_OUTER_BOUND ( 'NONE', #176, .T. ) ;
#59 = DIRECTION ( 'NONE',  ( -1.000000000000000000, 0.0000000000000000000, 0.0000000000000000000 ) ) ;
#60 = CONICAL_SURFACE ( 'NONE', #194, 0.009490500000000000672, 0.1745329251994338637 ) ;
#61 = EDGE_LOOP ( 'NONE', ( #132, #248, #212, #174 ) ) ;
#62 = ORIENTED_EDGE ( 'NONE', *, *, #241, .T. ) ;
#63 = ORIENTED_EDGE ( 'NONE', *, *, #279, .T. ) ;
#64 = MANIFOLD_SOLID_BREP ( 'Cut-Revolve1', #256 ) ;
#65 = ORIENTED_EDGE ( 'NONE', *, *, #6, .F. ) ;
#66 = CARTESIAN_POINT ( 'NONE',  ( 0.0000000000000000000, 0.0000000000000000000, 1.500000000000000222 ) ) ;
#67 = PRODUCT_CONTEXT ( 'NONE', #203, 'mechanical' ) ;
#68 =( NAMED_UNIT ( * ) PLANE_ANGLE_UNIT ( ) SI_UNIT ( $, .RADIAN. ) );
#69 = CARTESIAN_POINT ( 'NONE',  ( 0.009490500000000002406, 0.0000000000000000000, 0.02800000000000000405 ) ) ;
#70 = CARTESIAN_POINT ( 'NONE',  ( 0.0000000000000000000, 0.0000000000000000000, 0.0000000000000000000 ) ) ;
#71 =( GEOMETRIC_REPRESENTATION_CONTEXT ( 3 ) GLOBAL_UNCERTAINTY_ASSIGNED_CONTEXT ( ( #27 ) ) GLOBAL_UNIT_ASSIGNED_CONTEXT ( ( #234, #47, #162 ) ) REPRESENTATION_CONTEXT ( 'NONE', 'WORKASPACE' ) );
#72 = CYLINDRICAL_SURFACE ( 'NONE', #260, 0.009490499999999998937 ) ;
#73 = PRODUCT_DEFINITION_CONTEXT ( 'detailed design', #262, 'design' ) ;
#74 = CARTESIAN_POINT ( 'NONE',  ( 3.429011037612590632E-18, 0.0000000000000000000, 0.02800000000000000405 ) ) ;
#75 = LINE ( 'NONE', #259, #81 ) ;
#76 = CARTESIAN_POINT ( 'NONE',  ( 0.0000000000000000000, 0.0000000000000000000, 1.500000000000000222 ) ) ;
#77 = DIRECTION ( 'NONE',  ( 1.224646799147353700E-16, 0.0000000000000000000, 1.000000000000000000 ) ) ;
#78 = LINE ( 'NONE', #220, #190 ) ;
#79 = FILL_AREA_STYLE_COLOUR ( '', #22 ) ;
#80 = VERTEX_POINT ( 'NONE', #250 ) ;
#81 = VECTOR ( 'NONE', #5, 39.37007874015748143 ) ;
#82 =( NAMED_UNIT ( * ) SI_UNIT ( $, .STERADIAN. ) SOLID_ANGLE_UNIT ( ) );
#83 = VERTEX_POINT ( 'NONE', #160 ) ;
#84 = ORIENTED_EDGE ( 'NONE', *, *, #279, .F. ) ;
#85 = EDGE_LOOP ( 'NONE', ( #152, #269, #84, #87 ) ) ;
#86 = CIRCLE ( 'NONE', #19, 0.06250000000000002776 ) ;
#87 = ORIENTED_EDGE ( 'NONE', *, *, #51, .F. ) ;
#88 = EDGE_CURVE ( 'NONE', #154, #83, #253, .T. ) ;
#89 = DIRECTION ( 'NONE',  ( -1.000000000000000000, 0.0000000000000000000, 1.224646799147353700E-16 ) ) ;
#90 =( CONVERSION_BASED_UNIT ( 'INCH', #113 ) LENGTH_UNIT ( ) NAMED_UNIT ( #189 ) );
#91 = SHAPE_DEFINITION_REPRESENTATION ( #252, #218 ) ;
#92 = DIRECTION ( 'NONE',  ( 1.000000000000000000, 0.0000000000000000000, -0.0000000000000000000 ) ) ;
#93 = DIRECTION ( 'NONE',  ( 1.000000000000000000, 0.0000000000000000000, 0.0000000000000000000 ) ) ;
#94 = DIRECTION ( 'NONE',  ( -1.000000000000000000, 0.0000000000000000000, 0.0000000000000000000 ) ) ;
#95 = DIRECTION ( 'NONE',  ( -1.224646799147353700E-16, -0.0000000000000000000, -1.000000000000000000 ) ) ;
#96 = DIRECTION ( 'NONE',  ( 1.000000000000000000, 0.0000000000000000000, 0.0000000000000000000 ) ) ;
#97 = EDGE_CURVE ( 'NONE', #37, #163, #281, .T. ) ;
#98 = CARTESIAN_POINT ( 'NONE',  ( 3.429011037612590632E-18, 0.0000000000000000000, 0.02800000000000000405 ) ) ;
#99 = DIMENSIONAL_EXPONENTS ( 1.000000000000000000, 0.0000000000000000000, 0.0000000000000000000, 0.0000000000000000000, 0.0000000000000000000, 0.0000000000000000000, 0.0000000000000000000 ) ;
#100 = SURFACE_SIDE_STYLE ('',( #12 ) ) ;
#101 =( LENGTH_UNIT ( ) NAMED_UNIT ( * ) SI_UNIT ( $, .METRE. ) );
#102 = VERTEX_POINT ( 'NONE', #161 ) ;
#103 = CIRCLE ( 'NONE', #200, 0.04750000000000064587 ) ;
#104 = PRODUCT_RELATED_PRODUCT_CATEGORY ( 'part', '', ( #181 ) ) ;
#105 =( LENGTH_UNIT ( ) NAMED_UNIT ( * ) SI_UNIT ( $, .METRE. ) );
#106 = ORIENTED_EDGE ( 'NONE', *, *, #88, .F. ) ;
#107 = ORIENTED_EDGE ( 'NONE', *, *, #258, .T. ) ;
#108 = COLOUR_RGB ( '',0.7921568627450980005, 0.8196078431372548767, 0.9333333333333333481 ) ;
#109 = CIRCLE ( 'NONE', #293, 0.009490500000000000672 ) ;
#110 = ADVANCED_FACE ( 'NONE', ( #233 ), #24, .F. ) ;
#111 = EDGE_LOOP ( 'NONE', ( #107, #43, #299, #106 ) ) ;
#112 = SURFACE_STYLE_FILL_AREA ( #133 ) ;
#113 = LENGTH_MEASURE_WITH_UNIT ( LENGTH_MEASURE( 0.02539999999999999897 ), #210 );
#114 = CIRCLE ( 'NONE', #240, 0.009490499999999998937 ) ;
#115 =( GEOMETRIC_REPRESENTATION_CONTEXT ( 3 ) GLOBAL_UNCERTAINTY_ASSIGNED_CONTEXT ( ( #236 ) ) GLOBAL_UNIT_ASSIGNED_CONTEXT ( ( #290, #36, #82 ) ) REPRESENTATION_CONTEXT ( 'NONE', 'WORKASPACE' ) );
#116 = DIRECTION ( 'NONE',  ( 1.000000000000000000, 0.0000000000000000000, 0.0000000000000000000 ) ) ;
#117 = CARTESIAN_POINT ( 'NONE',  ( 0.0000000000000000000, 0.0000000000000000000, 0.0000000000000000000 ) ) ;
#118 = DIRECTION ( 'NONE',  ( -0.0000000000000000000, -0.0000000000000000000, -1.000000000000000000 ) ) ;
#119 = VECTOR ( 'NONE', #254, 39.37007874015748143 ) ;
#120 = STYLED_ITEM ( 'NONE', ( #198 ), #218 ) ;
#121 = CARTESIAN_POINT ( 'NONE',  ( 0.0000000000000000000, 0.0000000000000000000, 1.500000000000000222 ) ) ;
#122 = CARTESIAN_POINT ( 'NONE',  ( 0.04750000000000064587, 5.817072295950006528E-18, 1.500000000000000222 ) ) ;
#123 = CARTESIAN_POINT ( 'NONE',  ( 0.06250000000000002776, 7.654042494670959086E-18, 1.485000000000000764 ) ) ;
#124 = CARTESIAN_POINT ( 'NONE',  ( -0.009490499999999997202, 4.408146769700877784E-18, 0.02800000000000000405 ) ) ;
#125 = CONICAL_SURFACE ( 'NONE', #297, 0.04750000000000064587, 0.7853981633974466137 ) ;
#126 = DIRECTION ( 'NONE',  ( -1.000000000000000000, 0.0000000000000000000, 0.0000000000000000000 ) ) ;
#127 = CONICAL_SURFACE ( 'NONE', #173, 0.009490500000000000672, 0.1745329251994338637 ) ;
#128 = ORIENTED_EDGE ( 'NONE', *, *, #6, .T. ) ;
#129 = ORIENTED_EDGE ( 'NONE', *, *, #188, .F. ) ;
#130 = ADVANCED_FACE ( 'NONE', ( #282 ), #72, .T. ) ;
#131 = EDGE_LOOP ( 'NONE', ( #272, #178, #244, #65 ) ) ;
#132 = ORIENTED_EDGE ( 'NONE', *, *, #241, .F. ) ;
#133 = FILL_AREA_STYLE ('',( #21 ) ) ;
#134 = CARTESIAN_POINT ( 'NONE',  ( 0.0000000000000000000, 0.0000000000000000000, 0.0000000000000000000 ) ) ;
#135 = AXIS2_PLACEMENT_3D ( 'NONE', #66, #280, #187 ) ;
#136 = CIRCLE ( 'NONE', #211, 0.009490500000000000672 ) ;
#137 = CYLINDRICAL_SURFACE ( 'NONE', #56, 0.009490499999999998937 ) ;
#138 = SURFACE_SIDE_STYLE ('',( #112 ) ) ;
#139 = ADVANCED_FACE ( 'NONE', ( #140 ), #237, .T. ) ;
#140 = FACE_OUTER_BOUND ( 'NONE', #245, .T. ) ;
#141 = AXIS2_PLACEMENT_3D ( 'NONE', #243, #38, #126 ) ;
#142 = DIRECTION ( 'NONE',  ( -0.1736481776669311639, 2.126576849575783008E-17, 0.9848077530122080203 ) ) ;
#143 = DIRECTION ( 'NONE',  ( -1.224646799147353700E-16, -0.0000000000000000000, -1.000000000000000000 ) ) ;
#144 = FACE_OUTER_BOUND ( 'NONE', #16, .T. ) ;
#145 = MECHANICAL_DESIGN_GEOMETRIC_PRESENTATION_REPRESENTATION (  '', ( #296 ), #18 ) ;
#146 = FACE_OUTER_BOUND ( 'NONE', #131, .T. ) ;
#147 = AXIS2_PLACEMENT_3D ( 'NONE', #288, #10, #96 ) ;
#148 = DIRECTION ( 'NONE',  ( 1.000000000000000000, 0.0000000000000000000, 0.0000000000000000000 ) ) ;
#149 = SURFACE_STYLE_USAGE ( .BOTH. , #100 ) ;
#150 = ORIENTED_EDGE ( 'NONE', *, *, #199, .F. ) ;
#151 = CARTESIAN_POINT ( 'NONE',  ( 4.024578986440775949E-17, 0.0000000000000000000, 0.3286318136170235382 ) ) ;
#152 = ORIENTED_EDGE ( 'NONE', *, *, #188, .T. ) ;
#153 = EDGE_CURVE ( 'NONE', #13, #205, #166, .T. ) ;
#154 = VERTEX_POINT ( 'NONE', #124 ) ;
#155 = CARTESIAN_POINT ( 'NONE',  ( 0.04750000000000064587, 6.735557395310483192E-18, 1.500000000000000222 ) ) ;
#156 = VECTOR ( 'NONE', #23, 39.37007874015748143 ) ;
#157 = AXIS2_PLACEMENT_3D ( 'NONE', #70, #185, #275 ) ;
#158 = EDGE_CURVE ( 'NONE', #246, #102, #192, .T. ) ;
#159 = CIRCLE ( 'NONE', #209, 0.06250000000000002776 ) ;
#160 = CARTESIAN_POINT ( 'NONE',  ( -0.009490499999999998937, 0.0000000000000000000, 2.324502089461591809E-18 ) ) ;
#161 = CARTESIAN_POINT ( 'NONE',  ( -0.06250000000000002776, 0.0000000000000000000, 1.485000000000000764 ) ) ;
#162 =( NAMED_UNIT ( * ) SI_UNIT ( $, .STERADIAN. ) SOLID_ANGLE_UNIT ( ) );
#163 = VERTEX_POINT ( 'NONE', #195 ) ;
#164 = EDGE_CURVE ( 'NONE', #83, #15, #40, .T. ) ;
#165 = CARTESIAN_POINT ( 'NONE',  ( -0.04750000000000064587, 0.0000000000000000000, 1.500000000000000222 ) ) ;
#166 = LINE ( 'NONE', #122, #217 ) ;
#167 = AXIS2_PLACEMENT_3D ( 'NONE', #121, #219, #41 ) ;
#168 = EDGE_CURVE ( 'NONE', #37, #15, #75, .T. ) ;
#169 = CARTESIAN_POINT ( 'NONE',  ( 0.0000000000000000000, 0.0000000000000000000, 1.500000000000000222 ) ) ;
#170 = DIRECTION ( 'NONE',  ( -1.000000000000000000, 0.0000000000000000000, 0.0000000000000000000 ) ) ;
#171 = DIRECTION ( 'NONE',  ( -0.0000000000000000000, -0.0000000000000000000, -1.000000000000000000 ) ) ;
#172 = CONICAL_SURFACE ( 'NONE', #135, 0.04750000000000064587, 0.7853981633974466137 ) ;
#173 = AXIS2_PLACEMENT_3D ( 'NONE', #74, #77, #223 ) ;
#174 = ORIENTED_EDGE ( 'NONE', *, *, #199, .T. ) ;
#175 = APPLICATION_PROTOCOL_DEFINITION ( 'draft international standard', 'automotive_design', 1998, #203 ) ;
#176 = EDGE_LOOP ( 'NONE', ( #227, #62, #63, #229 ) ) ;
#177 = LENGTH_MEASURE_WITH_UNIT ( LENGTH_MEASURE( 0.02539999999999999897 ), #101 );
#178 = ORIENTED_EDGE ( 'NONE', *, *, #273, .F. ) ;
#179 = EDGE_CURVE ( 'NONE', #37, #154, #109, .T. ) ;
#180 = CIRCLE ( 'NONE', #266, 0.06250000000000002776 ) ;
#181 = PRODUCT ( 'Micro_SME-019-2', 'Micro_SME-019-2', '', ( #67 ) ) ;
#182 = ORIENTED_EDGE ( 'NONE', *, *, #88, .T. ) ;
#183 = DIRECTION ( 'NONE',  ( 0.0000000000000000000, 0.0000000000000000000, -1.000000000000000000 ) ) ;
#184 = FACE_OUTER_BOUND ( 'NONE', #204, .T. ) ;
#185 = DIRECTION ( 'NONE',  ( 0.0000000000000000000, 0.0000000000000000000, 1.000000000000000000 ) ) ;
#186 = DIRECTION ( 'NONE',  ( -1.224646799147353700E-16, -0.0000000000000000000, -1.000000000000000000 ) ) ;
#187 = DIRECTION ( 'NONE',  ( -1.000000000000000000, 0.0000000000000000000, 0.0000000000000000000 ) ) ;
#188 = EDGE_CURVE ( 'NONE', #102, #205, #29, .T. ) ;
#189 = DIMENSIONAL_EXPONENTS ( 1.000000000000000000, 0.0000000000000000000, 0.0000000000000000000, 0.0000000000000000000, 0.0000000000000000000, 0.0000000000000000000, 0.0000000000000000000 ) ;
#190 = VECTOR ( 'NONE', #142, 39.37007874015747433 ) ;
#191 = DIRECTION ( 'NONE',  ( 0.7071067811865462405, 8.659560562354916834E-17, -0.7071067811865486830 ) ) ;
#192 = LINE ( 'NONE', #265, #222 ) ;
#193 = CARTESIAN_POINT ( 'NONE',  ( 4.024578986440775949E-17, 0.0000000000000000000, 0.3286318136170235382 ) ) ;
#194 = AXIS2_PLACEMENT_3D ( 'NONE', #33, #235, #28 ) ;
#195 = CARTESIAN_POINT ( 'NONE',  ( 0.06250000000000006939, 7.654042494670963708E-18, 0.3286318136170235382 ) ) ;
#196 = DIMENSIONAL_EXPONENTS ( 1.000000000000000000, 0.0000000000000000000, 0.0000000000000000000, 0.0000000000000000000, 0.0000000000000000000, 0.0000000000000000000, 0.0000000000000000000 ) ;
#197 = DIRECTION ( 'NONE',  ( -0.7071067811865462405, 0.0000000000000000000, -0.7071067811865486830 ) ) ;
#198 = PRESENTATION_STYLE_ASSIGNMENT (( #149 ) ) ;
#199 = EDGE_CURVE ( 'NONE', #163, #80, #86, .T. ) ;
#200 = AXIS2_PLACEMENT_3D ( 'NONE', #242, #215, #238 ) ;
#201 = ORIENTED_EDGE ( 'NONE', *, *, #179, .T. ) ;
#202 = ORIENTED_EDGE ( 'NONE', *, *, #153, .T. ) ;
#203 = APPLICATION_CONTEXT ( 'automotive_design' ) ;
#204 = EDGE_LOOP ( 'NONE', ( #230, #202, #129, #295 ) ) ;
#205 = VERTEX_POINT ( 'NONE', #123 ) ;
#206 = DIRECTION ( 'NONE',  ( -1.000000000000000000, 0.0000000000000000000, 1.224646799147353700E-16 ) ) ;
#207 = APPLICATION_PROTOCOL_DEFINITION ( 'draft international standard', 'automotive_design', 1998, #262 ) ;
#208 = ADVANCED_FACE ( 'NONE', ( #146 ), #125, .T. ) ;
#209 = AXIS2_PLACEMENT_3D ( 'NONE', #231, #183, #116 ) ;
#210 =( LENGTH_UNIT ( ) NAMED_UNIT ( * ) SI_UNIT ( $, .METRE. ) );
#211 = AXIS2_PLACEMENT_3D ( 'NONE', #257, #95, #287 ) ;
#212 = ORIENTED_EDGE ( 'NONE', *, *, #97, .T. ) ;
#213 = ADVANCED_FACE ( 'NONE', ( #58 ), #127, .T. ) ;
#214 = DIRECTION ( 'NONE',  ( 0.0000000000000000000, 0.0000000000000000000, 1.000000000000000000 ) ) ;
#215 = DIRECTION ( 'NONE',  ( 0.0000000000000000000, 0.0000000000000000000, 1.000000000000000000 ) ) ;
#216 = PRESENTATION_LAYER_ASSIGNMENT (  '', '', ( #296 ) ) ;
#217 = VECTOR ( 'NONE', #191, 39.37007874015748854 ) ;
#218 = ADVANCED_BREP_SHAPE_REPRESENTATION ( 'Micro_SME-019-2', ( #64, #157 ), #115 ) ;
#219 = DIRECTION ( 'NONE',  ( 0.0000000000000000000, 0.0000000000000000000, 1.000000000000000000 ) ) ;
#220 = CARTESIAN_POINT ( 'NONE',  ( -0.009490499999999997202, 1.162251044730795519E-18, 0.02800000000000000405 ) ) ;
#221 = DIRECTION ( 'NONE',  ( 0.0000000000000000000, 0.0000000000000000000, 1.000000000000000000 ) ) ;
#222 = VECTOR ( 'NONE', #197, 39.37007874015748854 ) ;
#223 = DIRECTION ( 'NONE',  ( 1.000000000000000000, 0.0000000000000000000, 0.0000000000000000000 ) ) ;
#224 = EDGE_CURVE ( 'NONE', #205, #163, #32, .T. ) ;
#225 = FACE_OUTER_BOUND ( 'NONE', #85, .T. ) ;
#226 = ORIENTED_EDGE ( 'NONE', *, *, #273, .T. ) ;
#227 = ORIENTED_EDGE ( 'NONE', *, *, #258, .F. ) ;
#228 = EDGE_LOOP ( 'NONE', ( #271, #201, #182, #39 ) ) ;
#229 = ORIENTED_EDGE ( 'NONE', *, *, #97, .F. ) ;
#230 = ORIENTED_EDGE ( 'NONE', *, *, #249, .F. ) ;
#231 = CARTESIAN_POINT ( 'NONE',  ( 0.0000000000000000000, 0.0000000000000000000, 1.485000000000000764 ) ) ;
#232 = DIRECTION ( 'NONE',  ( -1.224646799147353700E-16, -0.0000000000000000000, -1.000000000000000000 ) ) ;
#233 = FACE_OUTER_BOUND ( 'NONE', #17, .T. ) ;
#234 =( CONVERSION_BASED_UNIT ( 'INCH', #278 ) LENGTH_UNIT ( ) NAMED_UNIT ( #196 ) );
#235 = DIRECTION ( 'NONE',  ( 1.224646799147353700E-16, 0.0000000000000000000, 1.000000000000000000 ) ) ;
#236 = UNCERTAINTY_MEASURE_WITH_UNIT (LENGTH_MEASURE( 1.000000000000000082E-05 ), #290, 'distance_accuracy_value', 'NONE');
#237 = CYLINDRICAL_SURFACE ( 'NONE', #7, 0.06250000000000002776 ) ;
#238 = DIRECTION ( 'NONE',  ( 1.000000000000000000, 0.0000000000000000000, 0.0000000000000000000 ) ) ;
#239 = FACE_OUTER_BOUND ( 'NONE', #61, .T. ) ;
#240 = AXIS2_PLACEMENT_3D ( 'NONE', #50, #232, #89 ) ;
#241 = EDGE_CURVE ( 'NONE', #154, #80, #78, .T. ) ;
#242 = CARTESIAN_POINT ( 'NONE',  ( 0.0000000000000000000, 0.0000000000000000000, 1.500000000000000222 ) ) ;
#243 = CARTESIAN_POINT ( 'NONE',  ( 0.0000000000000000000, 0.0000000000000000000, 1.500000000000000222 ) ) ;
#244 = ORIENTED_EDGE ( 'NONE', *, *, #158, .T. ) ;
#245 = EDGE_LOOP ( 'NONE', ( #45, #128, #291, #150 ) ) ;
#246 = VERTEX_POINT ( 'NONE', #165 ) ;
#247 = ORIENTED_EDGE ( 'NONE', *, *, #164, .T. ) ;
#248 = ORIENTED_EDGE ( 'NONE', *, *, #179, .F. ) ;
#249 = EDGE_CURVE ( 'NONE', #13, #246, #103, .T. ) ;
#250 = CARTESIAN_POINT ( 'NONE',  ( -0.06249999999999997918, 0.0000000000000000000, 0.3286318136170235382 ) ) ;
#251 = CIRCLE ( 'NONE', #167, 0.04750000000000064587 ) ;
#252 = PRODUCT_DEFINITION_SHAPE ( 'NONE', 'NONE',  #285 ) ;
#253 = LINE ( 'NONE', #48, #44 ) ;
#254 = DIRECTION ( 'NONE',  ( 0.1736481776669313581, 0.0000000000000000000, 0.9848077530122077983 ) ) ;
#255 = FACE_OUTER_BOUND ( 'NONE', #228, .T. ) ;
#256 = CLOSED_SHELL ( 'NONE', ( #130, #213, #31, #298, #139, #264, #208, #267, #25, #110 ) ) ;
#257 = CARTESIAN_POINT ( 'NONE',  ( 3.429011037612590632E-18, 0.0000000000000000000, 0.02800000000000000405 ) ) ;
#258 = EDGE_CURVE ( 'NONE', #154, #37, #136, .T. ) ;
#259 = CARTESIAN_POINT ( 'NONE',  ( 0.009490499999999998937, 1.162251044730795327E-18, -1.162251044730795904E-18 ) ) ;
#260 = AXIS2_PLACEMENT_3D ( 'NONE', #9, #30, #286 ) ;
#261 = CARTESIAN_POINT ( 'NONE',  ( 0.0000000000000000000, 0.0000000000000000000, 1.500000000000000222 ) ) ;
#262 = APPLICATION_CONTEXT ( 'automotive_design' ) ;
#263 = CARTESIAN_POINT ( 'NONE',  ( 1.423347021735236990E-34, 0.0000000000000000000, 1.162251044730795904E-18 ) ) ;
#264 = ADVANCED_FACE ( 'NONE', ( #144 ), #11, .T. ) ;
#265 = CARTESIAN_POINT ( 'NONE',  ( -0.04750000000000064587, 0.0000000000000000000, 1.500000000000000222 ) ) ;
#266 = AXIS2_PLACEMENT_3D ( 'NONE', #151, #270, #148 ) ;
#267 = ADVANCED_FACE ( 'NONE', ( #239 ), #60, .T. ) ;
#268 = FILL_AREA_STYLE ('',( #79 ) ) ;
#269 = ORIENTED_EDGE ( 'NONE', *, *, #224, .T. ) ;
#270 = DIRECTION ( 'NONE',  ( -1.224646799147353700E-16, -0.0000000000000000000, -1.000000000000000000 ) ) ;
#271 = ORIENTED_EDGE ( 'NONE', *, *, #168, .F. ) ;
#272 = ORIENTED_EDGE ( 'NONE', *, *, #153, .F. ) ;
#273 = EDGE_CURVE ( 'NONE', #246, #13, #251, .T. ) ;
#274 = PRESENTATION_STYLE_ASSIGNMENT (( #3 ) ) ;
#275 = DIRECTION ( 'NONE',  ( 1.000000000000000000, 0.0000000000000000000, 0.0000000000000000000 ) ) ;
#276 = CARTESIAN_POINT ( 'NONE',  ( -0.06250000000000002776, 0.0000000000000000000, 1.500000000000000222 ) ) ;
#277 = AXIS2_PLACEMENT_3D ( 'NONE', #76, #221, #53 ) ;
#278 = LENGTH_MEASURE_WITH_UNIT ( LENGTH_MEASURE( 0.02539999999999999897 ), #105 );
#279 = EDGE_CURVE ( 'NONE', #80, #163, #180, .T. ) ;
#280 = DIRECTION ( 'NONE',  ( 0.0000000000000000000, 0.0000000000000000000, -1.000000000000000000 ) ) ;
#281 = LINE ( 'NONE', #69, #119 ) ;
#282 = FACE_OUTER_BOUND ( 'NONE', #111, .T. ) ;
#283 = AXIS2_PLACEMENT_3D ( 'NONE', #263, #143, #8 ) ;
#284 = DIRECTION ( 'NONE',  ( 0.0000000000000000000, 0.0000000000000000000, -1.000000000000000000 ) ) ;
#285 = PRODUCT_DEFINITION ( 'UNKNOWN', '', #14, #73 ) ;
#286 = DIRECTION ( 'NONE',  ( -1.000000000000000000, 0.0000000000000000000, 1.224646799147353700E-16 ) ) ;
#287 = DIRECTION ( 'NONE',  ( -1.000000000000000000, 0.0000000000000000000, 0.0000000000000000000 ) ) ;
#288 = CARTESIAN_POINT ( 'NONE',  ( 0.0000000000000000000, 0.0000000000000000000, 1.485000000000000764 ) ) ;
#289 = DIRECTION ( 'NONE',  ( -1.224646799147353700E-16, -0.0000000000000000000, -1.000000000000000000 ) ) ;
#290 =( CONVERSION_BASED_UNIT ( 'INCH', #177 ) LENGTH_UNIT ( ) NAMED_UNIT ( #99 ) );
#291 = ORIENTED_EDGE ( 'NONE', *, *, #51, .T. ) ;
#292 = AXIS2_PLACEMENT_3D ( 'NONE', #117, #214, #92 ) ;
#293 = AXIS2_PLACEMENT_3D ( 'NONE', #98, #55, #59 ) ;
#294 = CYLINDRICAL_SURFACE ( 'NONE', #141, 0.06250000000000002776 ) ;
#295 = ORIENTED_EDGE ( 'NONE', *, *, #158, .F. ) ;
#296 = STYLED_ITEM ( 'NONE', ( #274 ), #64 ) ;
#297 = AXIS2_PLACEMENT_3D ( 'NONE', #169, #284, #170 ) ;
#298 = ADVANCED_FACE ( 'NONE', ( #225 ), #294, .T. ) ;
#299 = ORIENTED_EDGE ( 'NONE', *, *, #164, .F. ) ;
ENDSEC;
END-ISO-10303-21;
