ISO-10303-21;
HEADER;
FILE_DESCRIPTION (( 'STEP AP214' ),
    '1' );
FILE_NAME ('59763.STEP',
    '2023-07-24T15:56:43',
    ( '' ),
    ( '' ),
    'SwSTEP 2.0',
    'SolidWorks 2023',
    '' );
FILE_SCHEMA (( 'AUTOMOTIVE_DESIGN' ));
ENDSEC;

DATA;
#1 = VERTEX_POINT ( 'NONE', #257 ) ;
#2 = PRESENTATION_LAYER_ASSIGNMENT (  '', '', ( #122 ) ) ;
#3 = ORIENTED_EDGE ( 'NONE', *, *, #17, .T. ) ;
#4 = FILL_AREA_STYLE_COLOUR ( '', #258 ) ;
#5 = CYLINDRICAL_SURFACE ( 'NONE', #98, 12.50000000000000000 ) ;
#6 = MECHANICAL_DESIGN_GEOMETRIC_PRESENTATION_REPRESENTATION (  '', ( #72 ), #273 ) ;
#7 = PRODUCT_DEFINITION_FORMATION_WITH_SPECIFIED_SOURCE ( 'ANY', '', #110, .NOT_KNOWN. ) ;
#8 = EDGE_CURVE ( 'NONE', #195, #166, #54, .T. ) ;
#9 = CARTESIAN_POINT ( 'NONE',  ( 0.000000000000000000, 50.00000000000000000, 0.000000000000000000 ) ) ;
#10 = DIRECTION ( 'NONE',  ( -1.000000000000000000, -4.082155997157840121E-17, 0.000000000000000000 ) ) ;
#11 = FILL_AREA_STYLE ('',( #277 ) ) ;
#12 = ORIENTED_EDGE ( 'NONE', *, *, #112, .T. ) ;
#13 = CARTESIAN_POINT ( 'NONE',  ( 0.000000000000000000, 50.00000000000000000, 0.000000000000000000 ) ) ;
#14 = CARTESIAN_POINT ( 'NONE',  ( -3.061616997868379493E-15, 124.9999999999999858, 0.000000000000000000 ) ) ;
#15 =( NAMED_UNIT ( * ) SI_UNIT ( $, .STERADIAN. ) SOLID_ANGLE_UNIT ( ) );
#16 = DIRECTION ( 'NONE',  ( -0.000000000000000000, -1.000000000000000000, -0.000000000000000000 ) ) ;
#17 = EDGE_CURVE ( 'NONE', #126, #70, #129, .T. ) ;
#18 = CIRCLE ( 'NONE', #113, 12.50000000000000355 ) ;
#19 = APPLICATION_PROTOCOL_DEFINITION ( 'draft international standard', 'automotive_design', 1998, #252 ) ;
#20 = EDGE_LOOP ( 'NONE', ( #163, #283, #104, #288 ) ) ;
#21 = PLANE ( 'NONE',  #237 ) ;
#22 = PRESENTATION_STYLE_ASSIGNMENT (( #211 ) ) ;
#23 = CARTESIAN_POINT ( 'NONE',  ( -3.061616997868379493E-15, 124.9999999999999858, 0.000000000000000000 ) ) ;
#25 = SURFACE_STYLE_USAGE ( .BOTH. , #225 ) ;
#24 = AXIS2_PLACEMENT_3D ( 'NONE', #155, #69, #90 ) ;
#26 = SURFACE_SIDE_STYLE ('',( #247 ) ) ;
#27 = PRODUCT_DEFINITION ( 'UNKNOWN', '', #7, #120 ) ;
#28 = AXIS2_PLACEMENT_3D ( 'NONE', #244, #214, #238 ) ;
#29 = PRESENTATION_STYLE_ASSIGNMENT (( #25 ) ) ;
#30 = CARTESIAN_POINT ( 'NONE',  ( 0.000000000000000000, 50.00000000000000000, 0.000000000000000000 ) ) ;
#31 = EDGE_LOOP ( 'NONE', ( #117, #284 ) ) ;
#32 = PRESENTATION_LAYER_ASSIGNMENT (  '', '', ( #86 ) ) ;
#33 = DIRECTION ( 'NONE',  ( -1.000000000000000000, 0.000000000000000000, 0.000000000000000000 ) ) ;
#34 = ORIENTED_EDGE ( 'NONE', *, *, #267, .F. ) ;
#35 =( LENGTH_UNIT ( ) NAMED_UNIT ( * ) SI_UNIT ( .MILLI., .METRE. ) );
#36 = DIRECTION ( 'NONE',  ( 1.000000000000000000, 4.082155997157840121E-17, 0.000000000000000000 ) ) ;
#37 =( LENGTH_UNIT ( ) NAMED_UNIT ( * ) SI_UNIT ( .MILLI., .METRE. ) );
#38 = CARTESIAN_POINT ( 'NONE',  ( 0.000000000000000000, 0.000000000000000000, 0.000000000000000000 ) ) ;
#39 = CARTESIAN_POINT ( 'NONE',  ( 0.000000000000000000, 50.00000000000000000, 0.000000000000000000 ) ) ;
#40 = AXIS2_PLACEMENT_3D ( 'NONE', #13, #53, #96 ) ;
#41 = LINE ( 'NONE', #215, #228 ) ;
#42 = FILL_AREA_STYLE ('',( #102 ) ) ;
#43 = DIRECTION ( 'NONE',  ( 0.000000000000000000, 0.000000000000000000, -1.000000000000000000 ) ) ;
#44 =( LENGTH_UNIT ( ) NAMED_UNIT ( * ) SI_UNIT ( .MILLI., .METRE. ) );
#45 = EDGE_CURVE ( 'NONE', #160, #166, #18, .T. ) ;
#46 = FILL_AREA_STYLE ('',( #89 ) ) ;
#47 = CARTESIAN_POINT ( 'NONE',  ( 12.50000000000000000, 50.00000000000000000, 1.530808498934191719E-15 ) ) ;
#48 = PRESENTATION_LAYER_ASSIGNMENT (  '', '', ( #199 ) ) ;
#49 = PLANE ( 'NONE',  #249 ) ;
#50 = COLOUR_RGB ( '',0.7921568627450980005, 0.8196078431372548767, 0.9333333333333333481 ) ;
#51 = AXIS2_PLACEMENT_3D ( 'NONE', #208, #260, #59 ) ;
#52 = ORIENTED_EDGE ( 'NONE', *, *, #210, .F. ) ;
#53 = DIRECTION ( 'NONE',  ( 0.000000000000000000, 1.000000000000000000, 0.000000000000000000 ) ) ;
#54 = LINE ( 'NONE', #285, #106 ) ;
#55 = VECTOR ( 'NONE', #88, 1000.000000000000000 ) ;
#56 = SURFACE_STYLE_FILL_AREA ( #42 ) ;
#57 = APPLICATION_PROTOCOL_DEFINITION ( 'draft international standard', 'automotive_design', 1998, #239 ) ;
#58 = ORIENTED_EDGE ( 'NONE', *, *, #45, .F. ) ;
#59 = DIRECTION ( 'NONE',  ( 1.000000000000000000, 0.000000000000000000, 0.000000000000000000 ) ) ;
#60 = DIRECTION ( 'NONE',  ( -1.000000000000000000, 0.000000000000000000, 0.000000000000000000 ) ) ;
#61 = CYLINDRICAL_SURFACE ( 'NONE', #28, 12.50000000000000178 ) ;
#62 = CARTESIAN_POINT ( 'NONE',  ( 1.530808498934191521E-15, 50.00000000000000000, 12.50000000000000000 ) ) ;
#63 = SURFACE_STYLE_FILL_AREA ( #46 ) ;
#64 = COLOUR_RGB ( '',1.000000000000000000, 0.000000000000000000, 0.000000000000000000 ) ;
#65 = CARTESIAN_POINT ( 'NONE',  ( 0.000000000000000000, 50.00000000000000000, 0.000000000000000000 ) ) ;
#66 =( NAMED_UNIT ( * ) SI_UNIT ( $, .STERADIAN. ) SOLID_ANGLE_UNIT ( ) );
#67 = CARTESIAN_POINT ( 'NONE',  ( 0.000000000000000000, 0.000000000000000000, 0.000000000000000000 ) ) ;
#68 = UNCERTAINTY_MEASURE_WITH_UNIT (LENGTH_MEASURE( 1.000000000000000082E-05 ), #37, 'distance_accuracy_value', 'NONE');
#69 = DIRECTION ( 'NONE',  ( -0.000000000000000000, -1.000000000000000000, -0.000000000000000000 ) ) ;
#70 = VERTEX_POINT ( 'NONE', #218 ) ;
#71 = SURFACE_SIDE_STYLE ('',( #232 ) ) ;
#73 = ORIENTED_EDGE ( 'NONE', *, *, #255, .F. ) ;
#72 = STYLED_ITEM ( 'NONE', ( #22 ), #82 ) ;
#74 = UNCERTAINTY_MEASURE_WITH_UNIT (LENGTH_MEASURE( 1.000000000000000082E-05 ), #187, 'distance_accuracy_value', 'NONE');
#75 = ADVANCED_FACE ( 'NONE', ( #145 ), #61, .T. ) ;
#76 =( LENGTH_UNIT ( ) NAMED_UNIT ( * ) SI_UNIT ( .MILLI., .METRE. ) );
#77 = MANIFOLD_SOLID_BREP ( 'Revolve - Cutting Edge', #270 ) ;
#78 = ORIENTED_EDGE ( 'NONE', *, *, #8, .T. ) ;
#79 = DIRECTION ( 'NONE',  ( -0.000000000000000000, -1.000000000000000000, -0.000000000000000000 ) ) ;
#80 = EDGE_LOOP ( 'NONE', ( #73, #83 ) ) ;
#81 = AXIS2_PLACEMENT_3D ( 'NONE', #14, #278, #33 ) ;
#82 = MANIFOLD_SOLID_BREP ( 'Revolve - Tool Body (Straight Shanked)', #136 ) ;
#83 = ORIENTED_EDGE ( 'NONE', *, *, #222, .F. ) ;
#84 = ORIENTED_EDGE ( 'NONE', *, *, #262, .T. ) ;
#85 =( GEOMETRIC_REPRESENTATION_CONTEXT ( 3 ) GLOBAL_UNCERTAINTY_ASSIGNED_CONTEXT ( ( #68 ) ) GLOBAL_UNIT_ASSIGNED_CONTEXT ( ( #37, #123, #15 ) ) REPRESENTATION_CONTEXT ( 'NONE', 'WORKASPACE' ) );
#86 = STYLED_ITEM ( 'NONE', ( #174 ), #234 ) ;
#87 = FILL_AREA_STYLE ('',( #4 ) ) ;
#88 = DIRECTION ( 'NONE',  ( -0.000000000000000000, -1.000000000000000000, -0.000000000000000000 ) ) ;
#89 = FILL_AREA_STYLE_COLOUR ( '', #177 ) ;
#90 = DIRECTION ( 'NONE',  ( 0.000000000000000000, 0.000000000000000000, -1.000000000000000000 ) ) ;
#91 = AXIS2_PLACEMENT_3D ( 'NONE', #65, #168, #111 ) ;
#92 = DIRECTION ( 'NONE',  ( 0.000000000000000000, 0.000000000000000000, -1.000000000000000000 ) ) ;
#93 = VECTOR ( 'NONE', #233, 1000.000000000000000 ) ;
#94 = ORIENTED_EDGE ( 'NONE', *, *, #222, .T. ) ;
#95 = FILL_AREA_STYLE_COLOUR ( '', #197 ) ;
#96 = DIRECTION ( 'NONE',  ( 0.000000000000000000, -0.000000000000000000, 1.000000000000000000 ) ) ;
#97 = LINE ( 'NONE', #152, #93 ) ;
#98 = AXIS2_PLACEMENT_3D ( 'NONE', #67, #227, #92 ) ;
#99 = ORIENTED_EDGE ( 'NONE', *, *, #262, .F. ) ;
#100 = DIRECTION ( 'NONE',  ( -4.082155997157840121E-17, 1.000000000000000000, -0.000000000000000000 ) ) ;
#101 = AXIS2_PLACEMENT_3D ( 'NONE', #30, #144, #242 ) ;
#102 = FILL_AREA_STYLE_COLOUR ( '', #162 ) ;
#103 = DIRECTION ( 'NONE',  ( -4.082155997157840121E-17, 1.000000000000000000, -0.000000000000000000 ) ) ;
#104 = ORIENTED_EDGE ( 'NONE', *, *, #17, .F. ) ;
#105 = FACE_OUTER_BOUND ( 'NONE', #186, .T. ) ;
#106 = VECTOR ( 'NONE', #165, 1000.000000000000000 ) ;
#107 = PRESENTATION_LAYER_ASSIGNMENT (  '', '', ( #280 ) ) ;
#108 = ADVANCED_FACE ( 'NONE', ( #105 ), #188, .T. ) ;
#109 = DIRECTION ( 'NONE',  ( 0.000000000000000000, -1.000000000000000000, -0.000000000000000000 ) ) ;
#110 = PRODUCT ( '59763', '59763', '', ( #236 ) ) ;
#111 = DIRECTION ( 'NONE',  ( -1.000000000000000000, 0.000000000000000000, 0.000000000000000000 ) ) ;
#112 = EDGE_CURVE ( 'NONE', #1, #126, #223, .T. ) ;
#113 = AXIS2_PLACEMENT_3D ( 'NONE', #23, #263, #265 ) ;
#114 = AXIS2_PLACEMENT_3D ( 'NONE', #287, #246, #60 ) ;
#115 = UNCERTAINTY_MEASURE_WITH_UNIT (LENGTH_MEASURE( 1.000000000000000082E-05 ), #253, 'distance_accuracy_value', 'NONE');
#116 = DIRECTION ( 'NONE',  ( -0.000000000000000000, -1.000000000000000000, -0.000000000000000000 ) ) ;
#117 = ORIENTED_EDGE ( 'NONE', *, *, #45, .T. ) ;
#118 =( NAMED_UNIT ( * ) PLANE_ANGLE_UNIT ( ) SI_UNIT ( $, .RADIAN. ) );
#119 = AXIS2_PLACEMENT_3D ( 'NONE', #9, #116, #229 ) ;
#120 = PRODUCT_DEFINITION_CONTEXT ( 'detailed design', #252, 'design' ) ;
#121 = EDGE_CURVE ( 'NONE', #182, #195, #219, .T. ) ;
#122 = STYLED_ITEM ( 'NONE', ( #29 ), #108 ) ;
#123 =( NAMED_UNIT ( * ) PLANE_ANGLE_UNIT ( ) SI_UNIT ( $, .RADIAN. ) );
#124 =( NAMED_UNIT ( * ) PLANE_ANGLE_UNIT ( ) SI_UNIT ( $, .RADIAN. ) );
#125 = SURFACE_SIDE_STYLE ('',( #240 ) ) ;
#126 = VERTEX_POINT ( 'NONE', #266 ) ;
#127 = AXIS2_PLACEMENT_3D ( 'NONE', #212, #79, #189 ) ;
#128 = EDGE_LOOP ( 'NONE', ( #230, #204, #84, #259 ) ) ;
#129 = CIRCLE ( 'NONE', #146, 12.50000000000000000 ) ;
#130 = MECHANICAL_DESIGN_GEOMETRIC_PRESENTATION_REPRESENTATION (  '', ( #280 ), #150 ) ;
#131 =( NAMED_UNIT ( * ) PLANE_ANGLE_UNIT ( ) SI_UNIT ( $, .RADIAN. ) );
#132 = CARTESIAN_POINT ( 'NONE',  ( 0.000000000000000000, 0.000000000000000000, 0.000000000000000000 ) ) ;
#133 =( GEOMETRIC_REPRESENTATION_CONTEXT ( 3 ) GLOBAL_UNCERTAINTY_ASSIGNED_CONTEXT ( ( #176 ) ) GLOBAL_UNIT_ASSIGNED_CONTEXT ( ( #200, #170, #151 ) ) REPRESENTATION_CONTEXT ( 'NONE', 'WORKASPACE' ) );
#134 = CIRCLE ( 'NONE', #101, 12.50000000000000000 ) ;
#135 = EDGE_LOOP ( 'NONE', ( #180, #206 ) ) ;
#136 = CLOSED_SHELL ( 'NONE', ( #286, #217, #75, #276 ) ) ;
#137 = DIRECTION ( 'NONE',  ( -4.082155997157840121E-17, 1.000000000000000000, 0.000000000000000000 ) ) ;
#138 = MECHANICAL_DESIGN_GEOMETRIC_PRESENTATION_REPRESENTATION (  '', ( #86 ), #274 ) ;
#139 = SURFACE_STYLE_USAGE ( .BOTH. , #71 ) ;
#140 =( NAMED_UNIT ( * ) SI_UNIT ( $, .STERADIAN. ) SOLID_ANGLE_UNIT ( ) );
#141 = EDGE_LOOP ( 'NONE', ( #279, #78, #58, #99 ) ) ;
#142 = PRESENTATION_STYLE_ASSIGNMENT (( #261 ) ) ;
#143 = PRODUCT_DEFINITION_SHAPE ( 'NONE', 'NONE',  #27 ) ;
#144 = DIRECTION ( 'NONE',  ( -0.000000000000000000, -1.000000000000000000, -0.000000000000000000 ) ) ;
#145 = FACE_OUTER_BOUND ( 'NONE', #128, .T. ) ;
#146 = AXIS2_PLACEMENT_3D ( 'NONE', #38, #16, #43 ) ;
#147 =( GEOMETRIC_REPRESENTATION_CONTEXT ( 3 ) GLOBAL_UNCERTAINTY_ASSIGNED_CONTEXT ( ( #231 ) ) GLOBAL_UNIT_ASSIGNED_CONTEXT ( ( #76, #118, #157 ) ) REPRESENTATION_CONTEXT ( 'NONE', 'WORKASPACE' ) );
#148 = DIRECTION ( 'NONE',  ( -1.000000000000000000, 0.000000000000000000, 0.000000000000000000 ) ) ;
#149 = CARTESIAN_POINT ( 'NONE',  ( -12.50000000000000000, 50.00000000000000000, 0.000000000000000000 ) ) ;
#150 =( GEOMETRIC_REPRESENTATION_CONTEXT ( 3 ) GLOBAL_UNCERTAINTY_ASSIGNED_CONTEXT ( ( #256 ) ) GLOBAL_UNIT_ASSIGNED_CONTEXT ( ( #44, #172, #66 ) ) REPRESENTATION_CONTEXT ( 'NONE', 'WORKASPACE' ) );
#151 =( NAMED_UNIT ( * ) SI_UNIT ( $, .STERADIAN. ) SOLID_ANGLE_UNIT ( ) );
#152 = CARTESIAN_POINT ( 'NONE',  ( 1.530808498934191521E-15, 0.000000000000000000, 12.50000000000000000 ) ) ;
#153 = FILL_AREA_STYLE ('',( #95 ) ) ;
#154 = UNCERTAINTY_MEASURE_WITH_UNIT (LENGTH_MEASURE( 1.000000000000000082E-05 ), #35, 'distance_accuracy_value', 'NONE');
#155 = CARTESIAN_POINT ( 'NONE',  ( 0.000000000000000000, 0.000000000000000000, 0.000000000000000000 ) ) ;
#156 = VERTEX_POINT ( 'NONE', #62 ) ;
#157 =( NAMED_UNIT ( * ) SI_UNIT ( $, .STERADIAN. ) SOLID_ANGLE_UNIT ( ) );
#158 = ADVANCED_BREP_SHAPE_REPRESENTATION ( '59763', ( #77, #82, #51 ), #185 ) ;
#159 = FACE_OUTER_BOUND ( 'NONE', #31, .T. ) ;
#160 = VERTEX_POINT ( 'NONE', #250 ) ;
#161 = SHAPE_DEFINITION_REPRESENTATION ( #143, #158 ) ;
#162 = COLOUR_RGB ( '',0.7921568627450980005, 0.8196078431372548767, 0.9333333333333333481 ) ;
#163 = ORIENTED_EDGE ( 'NONE', *, *, #255, .T. ) ;
#164 = EDGE_LOOP ( 'NONE', ( #52, #94, #12, #34 ) ) ;
#165 = DIRECTION ( 'NONE',  ( -4.082155997157840121E-17, 1.000000000000000000, -0.000000000000000000 ) ) ;
#166 = VERTEX_POINT ( 'NONE', #169 ) ;
#167 = MECHANICAL_DESIGN_GEOMETRIC_PRESENTATION_REPRESENTATION (  '', ( #235 ), #85 ) ;
#168 = DIRECTION ( 'NONE',  ( -4.082155997157840121E-17, 1.000000000000000000, -0.000000000000000000 ) ) ;
#169 = CARTESIAN_POINT ( 'NONE',  ( 12.50000000000000000, 124.9999999999999858, 1.530808498934191719E-15 ) ) ;
#170 =( NAMED_UNIT ( * ) PLANE_ANGLE_UNIT ( ) SI_UNIT ( $, .RADIAN. ) );
#171 = PRESENTATION_LAYER_ASSIGNMENT (  '', '', ( #235 ) ) ;
#172 =( NAMED_UNIT ( * ) PLANE_ANGLE_UNIT ( ) SI_UNIT ( $, .RADIAN. ) );
#173 = PRESENTATION_STYLE_ASSIGNMENT (( #268 ) ) ;
#174 = PRESENTATION_STYLE_ASSIGNMENT (( #139 ) ) ;
#175 = PRODUCT_RELATED_PRODUCT_CATEGORY ( 'part', '', ( #110 ) ) ;
#176 = UNCERTAINTY_MEASURE_WITH_UNIT (LENGTH_MEASURE( 1.000000000000000082E-05 ), #200, 'distance_accuracy_value', 'NONE');
#177 = COLOUR_RGB ( '',1.000000000000000000, 0.000000000000000000, 0.000000000000000000 ) ;
#178 = AXIS2_PLACEMENT_3D ( 'NONE', #132, #109, #224 ) ;
#179 =( NAMED_UNIT ( * ) PLANE_ANGLE_UNIT ( ) SI_UNIT ( $, .RADIAN. ) );
#180 = ORIENTED_EDGE ( 'NONE', *, *, #121, .F. ) ;
#181 = SURFACE_STYLE_FILL_AREA ( #153 ) ;
#182 = VERTEX_POINT ( 'NONE', #149 ) ;
#183 = FACE_OUTER_BOUND ( 'NONE', #164, .T. ) ;
#184 = SURFACE_STYLE_USAGE ( .BOTH. , #272 ) ;
#185 =( GEOMETRIC_REPRESENTATION_CONTEXT ( 3 ) GLOBAL_UNCERTAINTY_ASSIGNED_CONTEXT ( ( #74 ) ) GLOBAL_UNIT_ASSIGNED_CONTEXT ( ( #187, #124, #194 ) ) REPRESENTATION_CONTEXT ( 'NONE', 'WORKASPACE' ) );
#186 = EDGE_LOOP ( 'NONE', ( #3, #191 ) ) ;
#187 =( LENGTH_UNIT ( ) NAMED_UNIT ( * ) SI_UNIT ( .MILLI., .METRE. ) );
#188 = PLANE ( 'NONE',  #178 ) ;
#189 = DIRECTION ( 'NONE',  ( 0.000000000000000000, 0.000000000000000000, -1.000000000000000000 ) ) ;
#191 = ORIENTED_EDGE ( 'NONE', *, *, #267, .T. ) ;
#190 = CIRCLE ( 'NONE', #220, 12.50000000000000000 ) ;
#192 = CARTESIAN_POINT ( 'NONE',  ( 12.50000000000000000, 124.9999999999999858, 0.000000000000000000 ) ) ;
#193 = FILL_AREA_STYLE ('',( #216 ) ) ;
#194 =( NAMED_UNIT ( * ) SI_UNIT ( $, .STERADIAN. ) SOLID_ANGLE_UNIT ( ) );
#195 = VERTEX_POINT ( 'NONE', #47 ) ;
#196 = SURFACE_SIDE_STYLE ('',( #56 ) ) ;
#197 = COLOUR_RGB ( '',1.000000000000000000, 0.000000000000000000, 0.000000000000000000 ) ;
#198 = ADVANCED_FACE ( 'NONE', ( #248 ), #5, .T. ) ;
#199 = STYLED_ITEM ( 'NONE', ( #207 ), #245 ) ;
#200 =( LENGTH_UNIT ( ) NAMED_UNIT ( * ) SI_UNIT ( .MILLI., .METRE. ) );
#201 = EDGE_CURVE ( 'NONE', #166, #160, #209, .T. ) ;
#202 = FACE_OUTER_BOUND ( 'NONE', #80, .T. ) ;
#203 = CIRCLE ( 'NONE', #119, 12.50000000000000000 ) ;
#204 = ORIENTED_EDGE ( 'NONE', *, *, #281, .T. ) ;
#205 = PLANE ( 'NONE',  #40 ) ;
#206 = ORIENTED_EDGE ( 'NONE', *, *, #281, .F. ) ;
#207 = PRESENTATION_STYLE_ASSIGNMENT (( #184 ) ) ;
#208 = CARTESIAN_POINT ( 'NONE',  ( 0.000000000000000000, 0.000000000000000000, 0.000000000000000000 ) ) ;
#209 = CIRCLE ( 'NONE', #81, 12.50000000000000355 ) ;
#210 = EDGE_CURVE ( 'NONE', #156, #70, #97, .T. ) ;
#211 = SURFACE_STYLE_USAGE ( .BOTH. , #125 ) ;
#212 = CARTESIAN_POINT ( 'NONE',  ( 0.000000000000000000, 0.000000000000000000, 0.000000000000000000 ) ) ;
#213 = PRESENTATION_LAYER_ASSIGNMENT (  '', '', ( #72 ) ) ;
#214 = DIRECTION ( 'NONE',  ( -4.082155997157840121E-17, 1.000000000000000000, -0.000000000000000000 ) ) ;
#215 = CARTESIAN_POINT ( 'NONE',  ( -12.50000000000000533, 124.9999999999999858, 0.000000000000000000 ) ) ;
#216 = FILL_AREA_STYLE_COLOUR ( '', #50 ) ;
#217 = ADVANCED_FACE ( 'NONE', ( #254 ), #49, .F. ) ;
#218 = CARTESIAN_POINT ( 'NONE',  ( 1.530808498934191521E-15, 0.000000000000000000, 12.50000000000000000 ) ) ;
#219 = CIRCLE ( 'NONE', #91, 12.50000000000000000 ) ;
#220 = AXIS2_PLACEMENT_3D ( 'NONE', #39, #103, #148 ) ;
#221 = MECHANICAL_DESIGN_GEOMETRIC_PRESENTATION_REPRESENTATION (  '', ( #199 ), #147 ) ;
#222 = EDGE_CURVE ( 'NONE', #156, #1, #203, .T. ) ;
#223 = LINE ( 'NONE', #251, #55 ) ;
#224 = DIRECTION ( 'NONE',  ( 0.000000000000000000, 0.000000000000000000, -1.000000000000000000 ) ) ;
#225 = SURFACE_SIDE_STYLE ('',( #63 ) ) ;
#226 = CARTESIAN_POINT ( 'NONE',  ( 1.041499849070732488E-32, 50.00000000000000000, 0.000000000000000000 ) ) ;
#227 = DIRECTION ( 'NONE',  ( -0.000000000000000000, -1.000000000000000000, -0.000000000000000000 ) ) ;
#228 = VECTOR ( 'NONE', #100, 1000.000000000000000 ) ;
#229 = DIRECTION ( 'NONE',  ( 0.000000000000000000, 0.000000000000000000, -1.000000000000000000 ) ) ;
#230 = ORIENTED_EDGE ( 'NONE', *, *, #8, .F. ) ;
#231 = UNCERTAINTY_MEASURE_WITH_UNIT (LENGTH_MEASURE( 1.000000000000000082E-05 ), #76, 'distance_accuracy_value', 'NONE');
#232 = SURFACE_STYLE_FILL_AREA ( #11 ) ;
#233 = DIRECTION ( 'NONE',  ( -0.000000000000000000, -1.000000000000000000, -0.000000000000000000 ) ) ;
#234 = ADVANCED_FACE ( 'NONE', ( #183 ), #275, .T. ) ;
#235 = STYLED_ITEM ( 'NONE', ( #142 ), #77 ) ;
#236 = PRODUCT_CONTEXT ( 'NONE', #239, 'mechanical' ) ;
#237 = AXIS2_PLACEMENT_3D ( 'NONE', #192, #241, #36 ) ;
#238 = DIRECTION ( 'NONE',  ( -1.000000000000000000, 0.000000000000000000, 0.000000000000000000 ) ) ;
#239 = APPLICATION_CONTEXT ( 'automotive_design' ) ;
#240 = SURFACE_STYLE_FILL_AREA ( #193 ) ;
#241 = DIRECTION ( 'NONE',  ( 4.082155997157840121E-17, -1.000000000000000000, 0.000000000000000000 ) ) ;
#242 = DIRECTION ( 'NONE',  ( 0.000000000000000000, 0.000000000000000000, -1.000000000000000000 ) ) ;
#243 = MECHANICAL_DESIGN_GEOMETRIC_PRESENTATION_REPRESENTATION (  '', ( #122 ), #133 ) ;
#244 = CARTESIAN_POINT ( 'NONE',  ( -3.061616997868379493E-15, 124.9999999999999858, 0.000000000000000000 ) ) ;
#245 = ADVANCED_FACE ( 'NONE', ( #202 ), #205, .T. ) ;
#246 = DIRECTION ( 'NONE',  ( -4.082155997157840121E-17, 1.000000000000000000, -0.000000000000000000 ) ) ;
#247 = SURFACE_STYLE_FILL_AREA ( #87 ) ;
#248 = FACE_OUTER_BOUND ( 'NONE', #20, .T. ) ;
#249 = AXIS2_PLACEMENT_3D ( 'NONE', #226, #137, #10 ) ;
#250 = CARTESIAN_POINT ( 'NONE',  ( -12.50000000000000711, 124.9999999999999858, 0.000000000000000000 ) ) ;
#251 = CARTESIAN_POINT ( 'NONE',  ( 0.000000000000000000, 0.000000000000000000, -12.50000000000000000 ) ) ;
#252 = APPLICATION_CONTEXT ( 'automotive_design' ) ;
#253 =( LENGTH_UNIT ( ) NAMED_UNIT ( * ) SI_UNIT ( .MILLI., .METRE. ) );
#254 = FACE_OUTER_BOUND ( 'NONE', #135, .T. ) ;
#255 = EDGE_CURVE ( 'NONE', #1, #156, #134, .T. ) ;
#256 = UNCERTAINTY_MEASURE_WITH_UNIT (LENGTH_MEASURE( 1.000000000000000082E-05 ), #44, 'distance_accuracy_value', 'NONE');
#257 = CARTESIAN_POINT ( 'NONE',  ( 0.000000000000000000, 50.00000000000000000, -12.50000000000000000 ) ) ;
#258 = COLOUR_RGB ( '',1.000000000000000000, 0.000000000000000000, 0.000000000000000000 ) ;
#259 = ORIENTED_EDGE ( 'NONE', *, *, #201, .F. ) ;
#260 = DIRECTION ( 'NONE',  ( 0.000000000000000000, 0.000000000000000000, 1.000000000000000000 ) ) ;
#261 = SURFACE_STYLE_USAGE ( .BOTH. , #196 ) ;
#262 = EDGE_CURVE ( 'NONE', #182, #160, #41, .T. ) ;
#263 = DIRECTION ( 'NONE',  ( -4.082155997157840121E-17, 1.000000000000000000, -0.000000000000000000 ) ) ;
#264 = FACE_OUTER_BOUND ( 'NONE', #141, .T. ) ;
#265 = DIRECTION ( 'NONE',  ( -1.000000000000000000, 0.000000000000000000, 0.000000000000000000 ) ) ;
#266 = CARTESIAN_POINT ( 'NONE',  ( 0.000000000000000000, 0.000000000000000000, -12.50000000000000000 ) ) ;
#267 = EDGE_CURVE ( 'NONE', #70, #126, #271, .T. ) ;
#268 = SURFACE_STYLE_USAGE ( .BOTH. , #26 ) ;
#269 =( NAMED_UNIT ( * ) SI_UNIT ( $, .STERADIAN. ) SOLID_ANGLE_UNIT ( ) );
#270 = CLOSED_SHELL ( 'NONE', ( #198, #245, #234, #108 ) ) ;
#271 = CIRCLE ( 'NONE', #127, 12.50000000000000000 ) ;
#272 = SURFACE_SIDE_STYLE ('',( #181 ) ) ;
#273 =( GEOMETRIC_REPRESENTATION_CONTEXT ( 3 ) GLOBAL_UNCERTAINTY_ASSIGNED_CONTEXT ( ( #115 ) ) GLOBAL_UNIT_ASSIGNED_CONTEXT ( ( #253, #131, #269 ) ) REPRESENTATION_CONTEXT ( 'NONE', 'WORKASPACE' ) );
#274 =( GEOMETRIC_REPRESENTATION_CONTEXT ( 3 ) GLOBAL_UNCERTAINTY_ASSIGNED_CONTEXT ( ( #154 ) ) GLOBAL_UNIT_ASSIGNED_CONTEXT ( ( #35, #179, #140 ) ) REPRESENTATION_CONTEXT ( 'NONE', 'WORKASPACE' ) );
#275 = CYLINDRICAL_SURFACE ( 'NONE', #24, 12.50000000000000000 ) ;
#276 = ADVANCED_FACE ( 'NONE', ( #159 ), #21, .F. ) ;
#277 = FILL_AREA_STYLE_COLOUR ( '', #64 ) ;
#278 = DIRECTION ( 'NONE',  ( -4.082155997157840121E-17, 1.000000000000000000, -0.000000000000000000 ) ) ;
#279 = ORIENTED_EDGE ( 'NONE', *, *, #121, .T. ) ;
#280 = STYLED_ITEM ( 'NONE', ( #173 ), #198 ) ;
#281 = EDGE_CURVE ( 'NONE', #195, #182, #190, .T. ) ;
#282 = CYLINDRICAL_SURFACE ( 'NONE', #114, 12.50000000000000178 ) ;
#283 = ORIENTED_EDGE ( 'NONE', *, *, #210, .T. ) ;
#284 = ORIENTED_EDGE ( 'NONE', *, *, #201, .T. ) ;
#285 = CARTESIAN_POINT ( 'NONE',  ( 12.49999999999999822, 124.9999999999999858, 1.530808498934191719E-15 ) ) ;
#286 = ADVANCED_FACE ( 'NONE', ( #264 ), #282, .T. ) ;
#287 = CARTESIAN_POINT ( 'NONE',  ( -3.061616997868379493E-15, 124.9999999999999858, 0.000000000000000000 ) ) ;
#288 = ORIENTED_EDGE ( 'NONE', *, *, #112, .F. ) ;
ENDSEC;
END-ISO-10303-21;
