ISO-10303-21;
HEADER;
FILE_DESCRIPTION (( 'STEP AP214' ),
    '1' );
FILE_NAME ('30632.STEP',
    '2023-06-22T18:51:08',
    ( '' ),
    ( '' ),
    'SwSTEP 2.0',
    'SolidWorks 2023',
    '' );
FILE_SCHEMA (( 'AUTOMOTIVE_DESIGN' ));
ENDSEC;

DATA;
#1 = FACE_OUTER_BOUND ( 'NONE', #7, .T. ) ;
#2 = DIRECTION ( 'NONE',  ( 0.000000000000000000, 0.000000000000000000, -1.000000000000000000 ) ) ;
#3 = SURFACE_STYLE_USAGE ( .BOTH. , #74 ) ;
#4 = DIMENSIONAL_EXPONENTS ( 1.000000000000000000, 0.000000000000000000, 0.000000000000000000, 0.000000000000000000, 0.000000000000000000, 0.000000000000000000, 0.000000000000000000 ) ;
#5 = ORIENTED_EDGE ( 'NONE', *, *, #223, .T. ) ;
#6 = DIRECTION ( 'NONE',  ( -0.000000000000000000, -1.000000000000000000, -0.000000000000000000 ) ) ;
#7 = EDGE_LOOP ( 'NONE', ( #147, #53, #197, #170 ) ) ;
#8 = EDGE_CURVE ( 'NONE', #234, #256, #33, .T. ) ;
#9 =( NAMED_UNIT ( * ) SI_UNIT ( $, .STERADIAN. ) SOLID_ANGLE_UNIT ( ) );
#10 = CIRCLE ( 'NONE', #293, 0.3750000000000000555 ) ;
#11 =( GEOMETRIC_REPRESENTATION_CONTEXT ( 3 ) GLOBAL_UNCERTAINTY_ASSIGNED_CONTEXT ( ( #134 ) ) GLOBAL_UNIT_ASSIGNED_CONTEXT ( ( #81, #104, #230 ) ) REPRESENTATION_CONTEXT ( 'NONE', 'WORKASPACE' ) );
#12 = DIRECTION ( 'NONE',  ( 1.728913128208028057E-16, 1.000000000000000000, -0.000000000000000000 ) ) ;
#13 =( LENGTH_UNIT ( ) NAMED_UNIT ( * ) SI_UNIT ( $, .METRE. ) );
#14 = DIMENSIONAL_EXPONENTS ( 1.000000000000000000, 0.000000000000000000, 0.000000000000000000, 0.000000000000000000, 0.000000000000000000, 0.000000000000000000, 0.000000000000000000 ) ;
#15 = DIRECTION ( 'NONE',  ( 0.000000000000000000, 0.000000000000000000, -1.000000000000000000 ) ) ;
#16 = FILL_AREA_STYLE ('',( #18 ) ) ;
#17 = CYLINDRICAL_SURFACE ( 'NONE', #90, 0.3749999999999998335 ) ;
#18 = FILL_AREA_STYLE_COLOUR ( '', #267 ) ;
#19 =( CONVERSION_BASED_UNIT ( 'INCH', #65 ) LENGTH_UNIT ( ) NAMED_UNIT ( #106 ) );
#20 =( NAMED_UNIT ( * ) SI_UNIT ( $, .STERADIAN. ) SOLID_ANGLE_UNIT ( ) );
#21 = PRESENTATION_LAYER_ASSIGNMENT (  '', '', ( #251 ) ) ;
#22 = CIRCLE ( 'NONE', #196, 0.3750000000000000555 ) ;
#23 = EDGE_CURVE ( 'NONE', #28, #49, #186, .T. ) ;
#24 = LENGTH_MEASURE_WITH_UNIT ( LENGTH_MEASURE( 0.02539999999999999897 ), #252 );
#25 = DIRECTION ( 'NONE',  ( 0.000000000000000000, 1.000000000000000000, 0.000000000000000000 ) ) ;
#26 = ORIENTED_EDGE ( 'NONE', *, *, #202, .T. ) ;
#27 = AXIS2_PLACEMENT_3D ( 'NONE', #194, #75, #235 ) ;
#28 = VERTEX_POINT ( 'NONE', #185 ) ;
#29 = SHAPE_DEFINITION_REPRESENTATION ( #73, #208 ) ;
#30 = ADVANCED_FACE ( 'NONE', ( #218 ), #57, .F. ) ;
#31 = EDGE_LOOP ( 'NONE', ( #121, #126 ) ) ;
#32 = PRESENTATION_LAYER_ASSIGNMENT (  '', '', ( #271 ) ) ;
#33 = LINE ( 'NONE', #40, #108 ) ;
#34 =( NAMED_UNIT ( * ) PLANE_ANGLE_UNIT ( ) SI_UNIT ( $, .RADIAN. ) );
#35 =( CONVERSION_BASED_UNIT ( 'INCH', #244 ) LENGTH_UNIT ( ) NAMED_UNIT ( #14 ) );
#36 = DIRECTION ( 'NONE',  ( 0.000000000000000000, 0.000000000000000000, -1.000000000000000000 ) ) ;
#37 = AXIS2_PLACEMENT_3D ( 'NONE', #216, #131, #220 ) ;
#38 = DIRECTION ( 'NONE',  ( -0.000000000000000000, -1.000000000000000000, -0.000000000000000000 ) ) ;
#39 = PRODUCT_RELATED_PRODUCT_CATEGORY ( 'part', '', ( #265 ) ) ;
#40 = CARTESIAN_POINT ( 'NONE',  ( -0.3749999999999995004, 3.000000000000000444, 0.000000000000000000 ) ) ;
#41 = MECHANICAL_DESIGN_GEOMETRIC_PRESENTATION_REPRESENTATION (  '', ( #222 ), #299 ) ;
#42 = SURFACE_STYLE_USAGE ( .BOTH. , #151 ) ;
#43 = AXIS2_PLACEMENT_3D ( 'NONE', #201, #160, #15 ) ;
#44 = AXIS2_PLACEMENT_3D ( 'NONE', #259, #25, #305 ) ;
#45 = CARTESIAN_POINT ( 'NONE',  ( 0.000000000000000000, 0.000000000000000000, -0.3750000000000000555 ) ) ;
#46 = CARTESIAN_POINT ( 'NONE',  ( -0.3750000000000000555, 0.8749999999999997780, 0.000000000000000000 ) ) ;
#47 =( NAMED_UNIT ( * ) SI_UNIT ( $, .STERADIAN. ) SOLID_ANGLE_UNIT ( ) );
#48 = APPLICATION_PROTOCOL_DEFINITION ( 'draft international standard', 'automotive_design', 1998, #88 ) ;
#49 = VERTEX_POINT ( 'NONE', #198 ) ;
#50 = AXIS2_PLACEMENT_3D ( 'NONE', #93, #188, #166 ) ;
#51 = EDGE_CURVE ( 'NONE', #234, #152, #22, .T. ) ;
#52 = DIMENSIONAL_EXPONENTS ( 1.000000000000000000, 0.000000000000000000, 0.000000000000000000, 0.000000000000000000, 0.000000000000000000, 0.000000000000000000, 0.000000000000000000 ) ;
#53 = ORIENTED_EDGE ( 'NONE', *, *, #226, .T. ) ;
#54 = LENGTH_MEASURE_WITH_UNIT ( LENGTH_MEASURE( 0.02539999999999999897 ), #236 );
#55 = DIMENSIONAL_EXPONENTS ( 1.000000000000000000, 0.000000000000000000, 0.000000000000000000, 0.000000000000000000, 0.000000000000000000, 0.000000000000000000, 0.000000000000000000 ) ;
#56 = EDGE_LOOP ( 'NONE', ( #281, #26, #101, #237 ) ) ;
#57 = PLANE ( 'NONE',  #212 ) ;
#58 = DIMENSIONAL_EXPONENTS ( 1.000000000000000000, 0.000000000000000000, 0.000000000000000000, 0.000000000000000000, 0.000000000000000000, 0.000000000000000000, 0.000000000000000000 ) ;
#59 = AXIS2_PLACEMENT_3D ( 'NONE', #286, #257, #304 ) ;
#60 = PRESENTATION_STYLE_ASSIGNMENT (( #3 ) ) ;
#61 =( LENGTH_UNIT ( ) NAMED_UNIT ( * ) SI_UNIT ( $, .METRE. ) );
#62 = EDGE_CURVE ( 'NONE', #256, #176, #149, .T. ) ;
#63 = PRESENTATION_LAYER_ASSIGNMENT (  '', '', ( #219 ) ) ;
#64 = DIRECTION ( 'NONE',  ( 1.728913128208028057E-16, 1.000000000000000000, -0.000000000000000000 ) ) ;
#65 = LENGTH_MEASURE_WITH_UNIT ( LENGTH_MEASURE( 0.02539999999999999897 ), #136 );
#66 = SURFACE_SIDE_STYLE ('',( #142 ) ) ;
#67 = COLOUR_RGB ( '',0.7921568627450980005, 0.8196078431372548767, 0.9333333333333333481 ) ;
#68 = EDGE_CURVE ( 'NONE', #152, #176, #86, .T. ) ;
#69 = DIRECTION ( 'NONE',  ( -1.000000000000000000, 0.000000000000000000, 0.000000000000000000 ) ) ;
#70 =( CONVERSION_BASED_UNIT ( 'INCH', #191 ) LENGTH_UNIT ( ) NAMED_UNIT ( #199 ) );
#71 = PLANE ( 'NONE',  #44 ) ;
#72 = ORIENTED_EDGE ( 'NONE', *, *, #245, .F. ) ;
#73 = PRODUCT_DEFINITION_SHAPE ( 'NONE', 'NONE',  #130 ) ;
#74 = SURFACE_SIDE_STYLE ('',( #228 ) ) ;
#75 = DIRECTION ( 'NONE',  ( -1.728913128208028057E-16, -1.000000000000000000, 0.000000000000000000 ) ) ;
#76 = FILL_AREA_STYLE ('',( #103 ) ) ;
#77 = CARTESIAN_POINT ( 'NONE',  ( 0.000000000000000000, 0.000000000000000000, 0.000000000000000000 ) ) ;
#78 = VERTEX_POINT ( 'NONE', #162 ) ;
#79 = FACE_OUTER_BOUND ( 'NONE', #127, .T. ) ;
#80 = AXIS2_PLACEMENT_3D ( 'NONE', #122, #303, #146 ) ;
#81 =( CONVERSION_BASED_UNIT ( 'INCH', #54 ) LENGTH_UNIT ( ) NAMED_UNIT ( #55 ) );
#82 = LENGTH_MEASURE_WITH_UNIT ( LENGTH_MEASURE( 0.02539999999999999897 ), #61 );
#83 = UNCERTAINTY_MEASURE_WITH_UNIT (LENGTH_MEASURE( 1.000000000000000082E-05 ), #70, 'distance_accuracy_value', 'NONE');
#84 = CIRCLE ( 'NONE', #124, 0.3749999999999996669 ) ;
#85 = STYLED_ITEM ( 'NONE', ( #89 ), #301 ) ;
#86 = LINE ( 'NONE', #114, #213 ) ;
#87 = DIRECTION ( 'NONE',  ( -1.000000000000000000, 0.000000000000000000, 0.000000000000000000 ) ) ;
#88 = APPLICATION_CONTEXT ( 'automotive_design' ) ;
#89 = PRESENTATION_STYLE_ASSIGNMENT (( #295 ) ) ;
#90 = AXIS2_PLACEMENT_3D ( 'NONE', #200, #296, #87 ) ;
#91 = PRODUCT_DEFINITION_CONTEXT ( 'detailed design', #242, 'design' ) ;
#92 = UNCERTAINTY_MEASURE_WITH_UNIT (LENGTH_MEASURE( 1.000000000000000082E-05 ), #269, 'distance_accuracy_value', 'NONE');
#93 = CARTESIAN_POINT ( 'NONE',  ( 0.000000000000000000, 0.000000000000000000, 0.000000000000000000 ) ) ;
#94 = CLOSED_SHELL ( 'NONE', ( #301, #187, #210, #105 ) ) ;
#95 = COLOUR_RGB ( '',0.7921568627450980005, 0.8196078431372548767, 0.9333333333333333481 ) ;
#96 = ADVANCED_FACE ( 'NONE', ( #155 ), #159, .T. ) ;
#97 = SURFACE_STYLE_FILL_AREA ( #204 ) ;
#98 = ORIENTED_EDGE ( 'NONE', *, *, #223, .F. ) ;
#99 = MECHANICAL_DESIGN_GEOMETRIC_PRESENTATION_REPRESENTATION (  '', ( #112 ), #157 ) ;
#100 =( NAMED_UNIT ( * ) PLANE_ANGLE_UNIT ( ) SI_UNIT ( $, .RADIAN. ) );
#101 = ORIENTED_EDGE ( 'NONE', *, *, #23, .F. ) ;
#102 = CARTESIAN_POINT ( 'NONE',  ( -6.065921084684207584E-32, 0.8749999999999997780, 0.000000000000000000 ) ) ;
#103 = FILL_AREA_STYLE_COLOUR ( '', #205 ) ;
#104 =( NAMED_UNIT ( * ) PLANE_ANGLE_UNIT ( ) SI_UNIT ( $, .RADIAN. ) );
#105 = ADVANCED_FACE ( 'NONE', ( #113 ), #179, .T. ) ;
#106 = DIMENSIONAL_EXPONENTS ( 1.000000000000000000, 0.000000000000000000, 0.000000000000000000, 0.000000000000000000, 0.000000000000000000, 0.000000000000000000, 0.000000000000000000 ) ;
#107 = CARTESIAN_POINT ( 'NONE',  ( 0.3750000000000000555, 3.000000000000000444, 4.592425496802572986E-17 ) ) ;
#108 = VECTOR ( 'NONE', #132, 39.37007874015748143 ) ;
#109 = EDGE_LOOP ( 'NONE', ( #254, #238, #289, #174 ) ) ;
#110 = DIRECTION ( 'NONE',  ( -1.000000000000000000, 0.000000000000000000, 0.000000000000000000 ) ) ;
#111 = DIRECTION ( 'NONE',  ( -1.000000000000000000, 1.728913128208028057E-16, 0.000000000000000000 ) ) ;
#112 = STYLED_ITEM ( 'NONE', ( #180 ), #291 ) ;
#113 = FACE_OUTER_BOUND ( 'NONE', #129, .T. ) ;
#114 = CARTESIAN_POINT ( 'NONE',  ( 0.3750000000000001665, 3.000000000000000444, 4.592425496802572370E-17 ) ) ;
#115 = CIRCLE ( 'NONE', #232, 0.3750000000000000555 ) ;
#116 =( GEOMETRIC_REPRESENTATION_CONTEXT ( 3 ) GLOBAL_UNCERTAINTY_ASSIGNED_CONTEXT ( ( #221 ) ) GLOBAL_UNIT_ASSIGNED_CONTEXT ( ( #19, #298, #300 ) ) REPRESENTATION_CONTEXT ( 'NONE', 'WORKASPACE' ) );
#117 = DIRECTION ( 'NONE',  ( 0.000000000000000000, 0.000000000000000000, -1.000000000000000000 ) ) ;
#118 = ADVANCED_FACE ( 'NONE', ( #135 ), #17, .T. ) ;
#119 = CYLINDRICAL_SURFACE ( 'NONE', #80, 0.3750000000000000555 ) ;
#120 =( CONVERSION_BASED_UNIT ( 'INCH', #258 ) LENGTH_UNIT ( ) NAMED_UNIT ( #4 ) );
#121 = ORIENTED_EDGE ( 'NONE', *, *, #154, .F. ) ;
#122 = CARTESIAN_POINT ( 'NONE',  ( 0.000000000000000000, 0.000000000000000000, 0.000000000000000000 ) ) ;
#123 =( CONVERSION_BASED_UNIT ( 'INCH', #24 ) LENGTH_UNIT ( ) NAMED_UNIT ( #52 ) );
#124 = AXIS2_PLACEMENT_3D ( 'NONE', #276, #306, #172 ) ;
#125 = CARTESIAN_POINT ( 'NONE',  ( 4.592425496802575451E-17, 0.8749999999999997780, 0.3750000000000000555 ) ) ;
#126 = ORIENTED_EDGE ( 'NONE', *, *, #226, .F. ) ;
#127 = EDGE_LOOP ( 'NONE', ( #229, #5 ) ) ;
#128 = SURFACE_STYLE_USAGE ( .BOTH. , #292 ) ;
#129 = EDGE_LOOP ( 'NONE', ( #308, #262 ) ) ;
#130 = PRODUCT_DEFINITION ( 'UNKNOWN', '', #206, #91 ) ;
#131 = DIRECTION ( 'NONE',  ( 1.728913128208028057E-16, 1.000000000000000000, -0.000000000000000000 ) ) ;
#132 = DIRECTION ( 'NONE',  ( 1.728913128208028057E-16, 1.000000000000000000, -0.000000000000000000 ) ) ;
#133 = DIRECTION ( 'NONE',  ( -0.000000000000000000, -1.000000000000000000, -0.000000000000000000 ) ) ;
#134 = UNCERTAINTY_MEASURE_WITH_UNIT (LENGTH_MEASURE( 1.000000000000000082E-05 ), #81, 'distance_accuracy_value', 'NONE');
#135 = FACE_OUTER_BOUND ( 'NONE', #109, .T. ) ;
#136 =( LENGTH_UNIT ( ) NAMED_UNIT ( * ) SI_UNIT ( $, .METRE. ) );
#137 = FILL_AREA_STYLE ('',( #263 ) ) ;
#138 = CLOSED_SHELL ( 'NONE', ( #118, #30, #96, #248 ) ) ;
#139 = CIRCLE ( 'NONE', #59, 0.3750000000000000555 ) ;
#140 = AXIS2_PLACEMENT_3D ( 'NONE', #77, #175, #287 ) ;
#141 = DIRECTION ( 'NONE',  ( -1.000000000000000000, 0.000000000000000000, 0.000000000000000000 ) ) ;
#142 = SURFACE_STYLE_FILL_AREA ( #137 ) ;
#143 = CARTESIAN_POINT ( 'NONE',  ( 5.604638634168880319E-33, 0.8749999999999997780, 0.000000000000000000 ) ) ;
#144 =( GEOMETRIC_REPRESENTATION_CONTEXT ( 3 ) GLOBAL_UNCERTAINTY_ASSIGNED_CONTEXT ( ( #247 ) ) GLOBAL_UNIT_ASSIGNED_CONTEXT ( ( #123, #231, #9 ) ) REPRESENTATION_CONTEXT ( 'NONE', 'WORKASPACE' ) );
#145 = COLOUR_RGB ( '',1.000000000000000000, 0.000000000000000000, 0.000000000000000000 ) ;
#146 = DIRECTION ( 'NONE',  ( 0.000000000000000000, 0.000000000000000000, -1.000000000000000000 ) ) ;
#147 = ORIENTED_EDGE ( 'NONE', *, *, #202, .F. ) ;
#148 = PRODUCT_CONTEXT ( 'NONE', #88, 'mechanical' ) ;
#149 = CIRCLE ( 'NONE', #189, 0.3749999999999996669 ) ;
#150 = ORIENTED_EDGE ( 'NONE', *, *, #8, .T. ) ;
#151 = SURFACE_SIDE_STYLE ('',( #97 ) ) ;
#152 = VERTEX_POINT ( 'NONE', #183 ) ;
#153 =( LENGTH_UNIT ( ) NAMED_UNIT ( * ) SI_UNIT ( $, .METRE. ) );
#154 = EDGE_CURVE ( 'NONE', #78, #193, #10, .T. ) ;
#155 = FACE_OUTER_BOUND ( 'NONE', #211, .T. ) ;
#156 = PRESENTATION_LAYER_ASSIGNMENT (  '', '', ( #112 ) ) ;
#157 =( GEOMETRIC_REPRESENTATION_CONTEXT ( 3 ) GLOBAL_UNCERTAINTY_ASSIGNED_CONTEXT ( ( #164 ) ) GLOBAL_UNIT_ASSIGNED_CONTEXT ( ( #35, #217, #20 ) ) REPRESENTATION_CONTEXT ( 'NONE', 'WORKASPACE' ) );
#158 = CARTESIAN_POINT ( 'NONE',  ( 0.000000000000000000, 0.000000000000000000, 0.000000000000000000 ) ) ;
#159 = CYLINDRICAL_SURFACE ( 'NONE', #37, 0.3749999999999998335 ) ;
#160 = DIRECTION ( 'NONE',  ( -0.000000000000000000, -1.000000000000000000, -0.000000000000000000 ) ) ;
#161 = MECHANICAL_DESIGN_GEOMETRIC_PRESENTATION_REPRESENTATION (  '', ( #219 ), #249 ) ;
#162 = CARTESIAN_POINT ( 'NONE',  ( 0.000000000000000000, 0.8749999999999997780, -0.3750000000000000555 ) ) ;
#163 = PRESENTATION_LAYER_ASSIGNMENT (  '', '', ( #85 ) ) ;
#164 = UNCERTAINTY_MEASURE_WITH_UNIT (LENGTH_MEASURE( 1.000000000000000082E-05 ), #35, 'distance_accuracy_value', 'NONE');
#165 = EDGE_CURVE ( 'NONE', #49, #28, #224, .T. ) ;
#166 = DIRECTION ( 'NONE',  ( 0.000000000000000000, 0.000000000000000000, -1.000000000000000000 ) ) ;
#167 = SURFACE_STYLE_USAGE ( .BOTH. , #275 ) ;
#168 =( NAMED_UNIT ( * ) SI_UNIT ( $, .STERADIAN. ) SOLID_ANGLE_UNIT ( ) );
#169 = VECTOR ( 'NONE', #6, 39.37007874015748143 ) ;
#170 = ORIENTED_EDGE ( 'NONE', *, *, #165, .F. ) ;
#171 = ORIENTED_EDGE ( 'NONE', *, *, #68, .F. ) ;
#172 = DIRECTION ( 'NONE',  ( -1.000000000000000000, 0.000000000000000000, 0.000000000000000000 ) ) ;
#173 = PRESENTATION_STYLE_ASSIGNMENT (( #42 ) ) ;
#174 = ORIENTED_EDGE ( 'NONE', *, *, #8, .F. ) ;
#175 = DIRECTION ( 'NONE',  ( 0.000000000000000000, 0.000000000000000000, 1.000000000000000000 ) ) ;
#176 = VERTEX_POINT ( 'NONE', #107 ) ;
#177 = CARTESIAN_POINT ( 'NONE',  ( -0.3749999999999993339, 3.000000000000000444, 0.000000000000000000 ) ) ;
#178 = EDGE_LOOP ( 'NONE', ( #279, #72 ) ) ;
#179 = PLANE ( 'NONE',  #240 ) ;
#180 = PRESENTATION_STYLE_ASSIGNMENT (( #128 ) ) ;
#181 = DIRECTION ( 'NONE',  ( 1.728913128208028057E-16, 1.000000000000000000, -0.000000000000000000 ) ) ;
#182 = SURFACE_STYLE_FILL_AREA ( #16 ) ;
#183 = CARTESIAN_POINT ( 'NONE',  ( 0.3750000000000000555, 0.8749999999999997780, 4.592425496802572986E-17 ) ) ;
#184 = FILL_AREA_STYLE ('',( #264 ) ) ;
#185 = CARTESIAN_POINT ( 'NONE',  ( 0.000000000000000000, 0.000000000000000000, -0.3750000000000000555 ) ) ;
#186 = CIRCLE ( 'NONE', #43, 0.3750000000000000555 ) ;
#187 = ADVANCED_FACE ( 'NONE', ( #278 ), #71, .T. ) ;
#188 = DIRECTION ( 'NONE',  ( -0.000000000000000000, -1.000000000000000000, -0.000000000000000000 ) ) ;
#189 = AXIS2_PLACEMENT_3D ( 'NONE', #294, #181, #110 ) ;
#190 = MANIFOLD_SOLID_BREP ( 'Revolve - Tool Body (Straight Shanked)', #138 ) ;
#191 = LENGTH_MEASURE_WITH_UNIT ( LENGTH_MEASURE( 0.02539999999999999897 ), #153 );
#192 = LINE ( 'NONE', #284, #169 ) ;
#193 = VERTEX_POINT ( 'NONE', #125 ) ;
#194 = CARTESIAN_POINT ( 'NONE',  ( 0.3750000000000000555, 3.000000000000000444, 0.000000000000000000 ) ) ;
#195 = CARTESIAN_POINT ( 'NONE',  ( 0.000000000000000000, 0.000000000000000000, 0.000000000000000000 ) ) ;
#196 = AXIS2_PLACEMENT_3D ( 'NONE', #266, #272, #141 ) ;
#197 = ORIENTED_EDGE ( 'NONE', *, *, #307, .T. ) ;
#198 = CARTESIAN_POINT ( 'NONE',  ( 4.592425496802575451E-17, 0.000000000000000000, 0.3750000000000000555 ) ) ;
#199 = DIMENSIONAL_EXPONENTS ( 1.000000000000000000, 0.000000000000000000, 0.000000000000000000, 0.000000000000000000, 0.000000000000000000, 0.000000000000000000, 0.000000000000000000 ) ;
#200 = CARTESIAN_POINT ( 'NONE',  ( 3.673940397442059375E-16, 3.000000000000000444, 0.000000000000000000 ) ) ;
#201 = CARTESIAN_POINT ( 'NONE',  ( 0.000000000000000000, 0.000000000000000000, 0.000000000000000000 ) ) ;
#202 = EDGE_CURVE ( 'NONE', #193, #49, #192, .T. ) ;
#203 = MECHANICAL_DESIGN_GEOMETRIC_PRESENTATION_REPRESENTATION (  '', ( #271 ), #144 ) ;
#204 = FILL_AREA_STYLE ('',( #282 ) ) ;
#205 = COLOUR_RGB ( '',1.000000000000000000, 0.000000000000000000, 0.000000000000000000 ) ;
#206 = PRODUCT_DEFINITION_FORMATION_WITH_SPECIFIED_SOURCE ( 'ANY', '', #265, .NOT_KNOWN. ) ;
#207 = DIRECTION ( 'NONE',  ( 1.728913128208028057E-16, 1.000000000000000000, -0.000000000000000000 ) ) ;
#208 = ADVANCED_BREP_SHAPE_REPRESENTATION ( '30632', ( #291, #190, #140 ), #11 ) ;
#209 = FILL_AREA_STYLE_COLOUR ( '', #288 ) ;
#210 = ADVANCED_FACE ( 'NONE', ( #1 ), #119, .T. ) ;
#211 = EDGE_LOOP ( 'NONE', ( #171, #214, #150, #98 ) ) ;
#212 = AXIS2_PLACEMENT_3D ( 'NONE', #143, #12, #111 ) ;
#213 = VECTOR ( 'NONE', #64, 39.37007874015748143 ) ;
#214 = ORIENTED_EDGE ( 'NONE', *, *, #245, .T. ) ;
#215 = SURFACE_SIDE_STYLE ('',( #182 ) ) ;
#216 = CARTESIAN_POINT ( 'NONE',  ( 3.673940397442059375E-16, 3.000000000000000444, 0.000000000000000000 ) ) ;
#217 =( NAMED_UNIT ( * ) PLANE_ANGLE_UNIT ( ) SI_UNIT ( $, .RADIAN. ) );
#218 = FACE_OUTER_BOUND ( 'NONE', #178, .T. ) ;
#219 = STYLED_ITEM ( 'NONE', ( #60 ), #187 ) ;
#220 = DIRECTION ( 'NONE',  ( -1.000000000000000000, 0.000000000000000000, 0.000000000000000000 ) ) ;
#221 = UNCERTAINTY_MEASURE_WITH_UNIT (LENGTH_MEASURE( 1.000000000000000082E-05 ), #19, 'distance_accuracy_value', 'NONE');
#222 = STYLED_ITEM ( 'NONE', ( #173 ), #190 ) ;
#223 = EDGE_CURVE ( 'NONE', #176, #256, #84, .T. ) ;
#224 = CIRCLE ( 'NONE', #50, 0.3750000000000000555 ) ;
#225 = PRESENTATION_STYLE_ASSIGNMENT (( #167 ) ) ;
#226 = EDGE_CURVE ( 'NONE', #193, #78, #139, .T. ) ;
#227 = SURFACE_STYLE_FILL_AREA ( #76 ) ;
#228 = SURFACE_STYLE_FILL_AREA ( #255 ) ;
#229 = ORIENTED_EDGE ( 'NONE', *, *, #62, .T. ) ;
#230 =( NAMED_UNIT ( * ) SI_UNIT ( $, .STERADIAN. ) SOLID_ANGLE_UNIT ( ) );
#231 =( NAMED_UNIT ( * ) PLANE_ANGLE_UNIT ( ) SI_UNIT ( $, .RADIAN. ) );
#232 = AXIS2_PLACEMENT_3D ( 'NONE', #102, #207, #69 ) ;
#233 = AXIS2_PLACEMENT_3D ( 'NONE', #195, #133, #2 ) ;
#234 = VERTEX_POINT ( 'NONE', #46 ) ;
#235 = DIRECTION ( 'NONE',  ( 1.000000000000000000, -1.728913128208028057E-16, 0.000000000000000000 ) ) ;
#236 =( LENGTH_UNIT ( ) NAMED_UNIT ( * ) SI_UNIT ( $, .METRE. ) );
#237 = ORIENTED_EDGE ( 'NONE', *, *, #307, .F. ) ;
#238 = ORIENTED_EDGE ( 'NONE', *, *, #68, .T. ) ;
#239 = SURFACE_STYLE_FILL_AREA ( #184 ) ;
#240 = AXIS2_PLACEMENT_3D ( 'NONE', #158, #243, #36 ) ;
#241 = FACE_OUTER_BOUND ( 'NONE', #56, .T. ) ;
#242 = APPLICATION_CONTEXT ( 'automotive_design' ) ;
#243 = DIRECTION ( 'NONE',  ( 0.000000000000000000, -1.000000000000000000, -0.000000000000000000 ) ) ;
#244 = LENGTH_MEASURE_WITH_UNIT ( LENGTH_MEASURE( 0.02539999999999999897 ), #13 );
#245 = EDGE_CURVE ( 'NONE', #152, #234, #115, .T. ) ;
#246 =( GEOMETRIC_REPRESENTATION_CONTEXT ( 3 ) GLOBAL_UNCERTAINTY_ASSIGNED_CONTEXT ( ( #92 ) ) GLOBAL_UNIT_ASSIGNED_CONTEXT ( ( #269, #34, #290 ) ) REPRESENTATION_CONTEXT ( 'NONE', 'WORKASPACE' ) );
#247 = UNCERTAINTY_MEASURE_WITH_UNIT (LENGTH_MEASURE( 1.000000000000000082E-05 ), #123, 'distance_accuracy_value', 'NONE');
#248 = ADVANCED_FACE ( 'NONE', ( #79 ), #309, .F. ) ;
#249 =( GEOMETRIC_REPRESENTATION_CONTEXT ( 3 ) GLOBAL_UNCERTAINTY_ASSIGNED_CONTEXT ( ( #83 ) ) GLOBAL_UNIT_ASSIGNED_CONTEXT ( ( #70, #100, #47 ) ) REPRESENTATION_CONTEXT ( 'NONE', 'WORKASPACE' ) );
#250 = CYLINDRICAL_SURFACE ( 'NONE', #233, 0.3750000000000000555 ) ;
#251 = STYLED_ITEM ( 'NONE', ( #297 ), #105 ) ;
#252 =( LENGTH_UNIT ( ) NAMED_UNIT ( * ) SI_UNIT ( $, .METRE. ) );
#253 = MECHANICAL_DESIGN_GEOMETRIC_PRESENTATION_REPRESENTATION (  '', ( #85 ), #116 ) ;
#254 = ORIENTED_EDGE ( 'NONE', *, *, #51, .T. ) ;
#255 = FILL_AREA_STYLE ('',( #209 ) ) ;
#256 = VERTEX_POINT ( 'NONE', #177 ) ;
#257 = DIRECTION ( 'NONE',  ( -0.000000000000000000, -1.000000000000000000, -0.000000000000000000 ) ) ;
#258 = LENGTH_MEASURE_WITH_UNIT ( LENGTH_MEASURE( 0.02539999999999999897 ), #280 );
#259 = CARTESIAN_POINT ( 'NONE',  ( 0.000000000000000000, 0.8749999999999997780, 0.000000000000000000 ) ) ;
#260 = APPLICATION_PROTOCOL_DEFINITION ( 'draft international standard', 'automotive_design', 1998, #242 ) ;
#261 = MECHANICAL_DESIGN_GEOMETRIC_PRESENTATION_REPRESENTATION (  '', ( #251 ), #246 ) ;
#262 = ORIENTED_EDGE ( 'NONE', *, *, #165, .T. ) ;
#263 = FILL_AREA_STYLE_COLOUR ( '', #145 ) ;
#264 = FILL_AREA_STYLE_COLOUR ( '', #67 ) ;
#265 = PRODUCT ( '30632', '30632', '', ( #148 ) ) ;
#266 = CARTESIAN_POINT ( 'NONE',  ( -6.065921084684207584E-32, 0.8749999999999997780, 0.000000000000000000 ) ) ;
#267 = COLOUR_RGB ( '',1.000000000000000000, 0.000000000000000000, 0.000000000000000000 ) ;
#268 = SURFACE_STYLE_USAGE ( .BOTH. , #215 ) ;
#269 =( CONVERSION_BASED_UNIT ( 'INCH', #82 ) LENGTH_UNIT ( ) NAMED_UNIT ( #58 ) );
#270 = CARTESIAN_POINT ( 'NONE',  ( 0.000000000000000000, 0.8749999999999997780, 0.000000000000000000 ) ) ;
#271 = STYLED_ITEM ( 'NONE', ( #225 ), #210 ) ;
#272 = DIRECTION ( 'NONE',  ( 1.728913128208028057E-16, 1.000000000000000000, -0.000000000000000000 ) ) ;
#273 = UNCERTAINTY_MEASURE_WITH_UNIT (LENGTH_MEASURE( 1.000000000000000082E-05 ), #120, 'distance_accuracy_value', 'NONE');
#274 = PRESENTATION_LAYER_ASSIGNMENT (  '', '', ( #222 ) ) ;
#275 = SURFACE_SIDE_STYLE ('',( #227 ) ) ;
#276 = CARTESIAN_POINT ( 'NONE',  ( 3.673940397442059375E-16, 3.000000000000000444, 0.000000000000000000 ) ) ;
#277 =( NAMED_UNIT ( * ) PLANE_ANGLE_UNIT ( ) SI_UNIT ( $, .RADIAN. ) );
#278 = FACE_OUTER_BOUND ( 'NONE', #31, .T. ) ;
#279 = ORIENTED_EDGE ( 'NONE', *, *, #51, .F. ) ;
#280 =( LENGTH_UNIT ( ) NAMED_UNIT ( * ) SI_UNIT ( $, .METRE. ) );
#281 = ORIENTED_EDGE ( 'NONE', *, *, #154, .T. ) ;
#282 = FILL_AREA_STYLE_COLOUR ( '', #95 ) ;
#283 = DIRECTION ( 'NONE',  ( -0.000000000000000000, -1.000000000000000000, -0.000000000000000000 ) ) ;
#284 = CARTESIAN_POINT ( 'NONE',  ( 4.592425496802575451E-17, 0.000000000000000000, 0.3750000000000000555 ) ) ;
#285 = LINE ( 'NONE', #45, #302 ) ;
#286 = CARTESIAN_POINT ( 'NONE',  ( 0.000000000000000000, 0.8749999999999997780, 0.000000000000000000 ) ) ;
#287 = DIRECTION ( 'NONE',  ( 1.000000000000000000, 0.000000000000000000, 0.000000000000000000 ) ) ;
#288 = COLOUR_RGB ( '',1.000000000000000000, 0.000000000000000000, 0.000000000000000000 ) ;
#289 = ORIENTED_EDGE ( 'NONE', *, *, #62, .F. ) ;
#290 =( NAMED_UNIT ( * ) SI_UNIT ( $, .STERADIAN. ) SOLID_ANGLE_UNIT ( ) );
#291 = MANIFOLD_SOLID_BREP ( 'Revolve - Cutting Edge', #94 ) ;
#292 = SURFACE_SIDE_STYLE ('',( #239 ) ) ;
#293 = AXIS2_PLACEMENT_3D ( 'NONE', #270, #38, #117 ) ;
#294 = CARTESIAN_POINT ( 'NONE',  ( 3.673940397442059375E-16, 3.000000000000000444, 0.000000000000000000 ) ) ;
#295 = SURFACE_STYLE_USAGE ( .BOTH. , #66 ) ;
#296 = DIRECTION ( 'NONE',  ( 1.728913128208028057E-16, 1.000000000000000000, -0.000000000000000000 ) ) ;
#297 = PRESENTATION_STYLE_ASSIGNMENT (( #268 ) ) ;
#298 =( NAMED_UNIT ( * ) PLANE_ANGLE_UNIT ( ) SI_UNIT ( $, .RADIAN. ) );
#299 =( GEOMETRIC_REPRESENTATION_CONTEXT ( 3 ) GLOBAL_UNCERTAINTY_ASSIGNED_CONTEXT ( ( #273 ) ) GLOBAL_UNIT_ASSIGNED_CONTEXT ( ( #120, #277, #168 ) ) REPRESENTATION_CONTEXT ( 'NONE', 'WORKASPACE' ) );
#300 =( NAMED_UNIT ( * ) SI_UNIT ( $, .STERADIAN. ) SOLID_ANGLE_UNIT ( ) );
#301 = ADVANCED_FACE ( 'NONE', ( #241 ), #250, .T. ) ;
#302 = VECTOR ( 'NONE', #283, 39.37007874015748143 ) ;
#303 = DIRECTION ( 'NONE',  ( -0.000000000000000000, -1.000000000000000000, -0.000000000000000000 ) ) ;
#304 = DIRECTION ( 'NONE',  ( 0.000000000000000000, 0.000000000000000000, -1.000000000000000000 ) ) ;
#305 = DIRECTION ( 'NONE',  ( 0.000000000000000000, -0.000000000000000000, 1.000000000000000000 ) ) ;
#306 = DIRECTION ( 'NONE',  ( 1.728913128208028057E-16, 1.000000000000000000, -0.000000000000000000 ) ) ;
#307 = EDGE_CURVE ( 'NONE', #78, #28, #285, .T. ) ;
#308 = ORIENTED_EDGE ( 'NONE', *, *, #23, .T. ) ;
#309 = PLANE ( 'NONE',  #27 ) ;
ENDSEC;
END-ISO-10303-21;
