ISO-10303-21;
HEADER;
FILE_DESCRIPTION (( 'STEP AP214' ),
    '1' );
FILE_NAME ('Micro_SFA-250-410.STEP',
    '2021-09-02T03:56:09',
    ( '' ),
    ( '' ),
    'SwSTEP 2.0',
    'SolidWorks 2020',
    '' );
FILE_SCHEMA (( 'AUTOMOTIVE_DESIGN' ));
ENDSEC;

DATA;
#1 = FILL_AREA_STYLE_COLOUR ( '', #232 ) ;
#2 = CARTESIAN_POINT ( 'NONE',  ( -0.1248749999999998472, 1.529277690435257475E-17, 1.250000000000000000 ) ) ;
#3 = CARTESIAN_POINT ( 'NONE',  ( 0.0000000000000000000, 0.0000000000000000000, 0.0000000000000000000 ) ) ;
#4 = ORIENTED_EDGE ( 'NONE', *, *, #157, .T. ) ;
#5 = AXIS2_PLACEMENT_3D ( 'NONE', #133, #288, #275 ) ;
#6 = VERTEX_POINT ( 'NONE', #261 ) ;
#7 = PRESENTATION_STYLE_ASSIGNMENT (( #73 ) ) ;
#8 = ORIENTED_EDGE ( 'NONE', *, *, #238, .F. ) ;
#9 = EDGE_CURVE ( 'NONE', #6, #106, #170, .T. ) ;
#10 = CARTESIAN_POINT ( 'NONE',  ( 0.0000000000000000000, 0.0000000000000000000, 3.000000000000000444 ) ) ;
#11 = APPLICATION_CONTEXT ( 'automotive_design' ) ;
#12 = CARTESIAN_POINT ( 'NONE',  ( 0.0000000000000000000, 0.0000000000000000000, 0.0000000000000000000 ) ) ;
#13 = AXIS2_PLACEMENT_3D ( 'NONE', #90, #22, #115 ) ;
#14 = VECTOR ( 'NONE', #156, 39.37007874015748143 ) ;
#15 = CARTESIAN_POINT ( 'NONE',  ( -0.1100000000000004446, 0.0000000000000000000, 3.000000000000000444 ) ) ;
#16 = CARTESIAN_POINT ( 'NONE',  ( 0.0000000000000000000, 0.0000000000000000000, 3.000000000000000444 ) ) ;
#17 = DIRECTION ( 'NONE',  ( -0.0000000000000000000, -0.0000000000000000000, -1.000000000000000000 ) ) ;
#18 = PRESENTATION_LAYER_ASSIGNMENT (  '', '', ( #180 ) ) ;
#19 = LINE ( 'NONE', #194, #94 ) ;
#20 = CARTESIAN_POINT ( 'NONE',  ( 0.0000000000000000000, 0.0000000000000000000, 2.985000000000001208 ) ) ;
#21 = EDGE_CURVE ( 'NONE', #253, #96, #206, .T. ) ;
#22 = DIRECTION ( 'NONE',  ( -1.224646799147353454E-16, -0.0000000000000000000, -1.000000000000000000 ) ) ;
#23 = CIRCLE ( 'NONE', #146, 0.1250000000000000000 ) ;
#24 = ORIENTED_EDGE ( 'NONE', *, *, #255, .T. ) ;
#25 = PRODUCT_DEFINITION ( 'UNKNOWN', '', #91, #120 ) ;
#26 = FACE_OUTER_BOUND ( 'NONE', #63, .T. ) ;
#27 = AXIS2_PLACEMENT_3D ( 'NONE', #28, #43, #48 ) ;
#28 = CARTESIAN_POINT ( 'NONE',  ( 1.531676663575124064E-16, 0.0000000000000000000, 1.250708910227452009 ) ) ;
#29 = CARTESIAN_POINT ( 'NONE',  ( 0.0000000000000000000, 0.0000000000000000000, 2.985000000000001208 ) ) ;
#30 = ADVANCED_FACE ( 'NONE', ( #242 ), #36, .T. ) ;
#31 = CARTESIAN_POINT ( 'NONE',  ( -0.1100000000000004446, 0.0000000000000000000, 3.000000000000000444 ) ) ;
#32 = DIRECTION ( 'NONE',  ( -1.000000000000000000, 0.0000000000000000000, 0.0000000000000000000 ) ) ;
#33 =( NAMED_UNIT ( * ) SI_UNIT ( $, .STERADIAN. ) SOLID_ANGLE_UNIT ( ) );
#34 = ORIENTED_EDGE ( 'NONE', *, *, #282, .F. ) ;
#35 = ADVANCED_FACE ( 'NONE', ( #172 ), #211, .F. ) ;
#36 = CYLINDRICAL_SURFACE ( 'NONE', #85, 0.1250000000000000000 ) ;
#37 =( NAMED_UNIT ( * ) PLANE_ANGLE_UNIT ( ) SI_UNIT ( $, .RADIAN. ) );
#38 = AXIS2_PLACEMENT_3D ( 'NONE', #182, #278, #203 ) ;
#39 = DIRECTION ( 'NONE',  ( -1.000000000000000000, 0.0000000000000000000, 0.0000000000000000000 ) ) ;
#40 = CONICAL_SURFACE ( 'NONE', #191, 0.1100000000000004446, 0.7853981633974613796 ) ;
#41 = ORIENTED_EDGE ( 'NONE', *, *, #210, .F. ) ;
#42 = CARTESIAN_POINT ( 'NONE',  ( 1.530808498934191817E-16, 0.0000000000000000000, 1.250000000000000000 ) ) ;
#43 = DIRECTION ( 'NONE',  ( -1.224646799147353454E-16, -0.0000000000000000000, -1.000000000000000000 ) ) ;
#44 = VERTEX_POINT ( 'NONE', #31 ) ;
#45 = FILL_AREA_STYLE ('',( #1 ) ) ;
#46 = EDGE_CURVE ( 'NONE', #106, #6, #221, .T. ) ;
#47 = PLANE ( 'NONE',  #297 ) ;
#48 = DIRECTION ( 'NONE',  ( 1.000000000000000000, 0.0000000000000000000, 0.0000000000000000000 ) ) ;
#49 = CONICAL_SURFACE ( 'NONE', #268, 0.1100000000000004446, 0.7853981633974613796 ) ;
#50 = ORIENTED_EDGE ( 'NONE', *, *, #107, .F. ) ;
#51 = CARTESIAN_POINT ( 'NONE',  ( 1.530808498934191817E-16, 0.0000000000000000000, 1.250000000000000000 ) ) ;
#52 = ORIENTED_EDGE ( 'NONE', *, *, #238, .T. ) ;
#53 = CONICAL_SURFACE ( 'NONE', #159, 0.1248749999999999999, 0.1745329251994337805 ) ;
#54 = SHAPE_DEFINITION_REPRESENTATION ( #284, #271 ) ;
#55 = CARTESIAN_POINT ( 'NONE',  ( 1.531676663575124064E-16, 0.0000000000000000000, 1.250708910227452009 ) ) ;
#56 = ADVANCED_FACE ( 'NONE', ( #269 ), #151, .T. ) ;
#57 = CARTESIAN_POINT ( 'NONE',  ( -0.1250000000000000000, 0.0000000000000000000, 3.000000000000000444 ) ) ;
#58 = ADVANCED_FACE ( 'NONE', ( #273 ), #197, .T. ) ;
#59 = VERTEX_POINT ( 'NONE', #222 ) ;
#60 = DIRECTION ( 'NONE',  ( 1.000000000000000000, 0.0000000000000000000, 0.0000000000000000000 ) ) ;
#61 = AXIS2_PLACEMENT_3D ( 'NONE', #55, #132, #80 ) ;
#62 = DIRECTION ( 'NONE',  ( -0.1736481776669310528, 2.126576849575781776E-17, 0.9848077530122080203 ) ) ;
#63 = EDGE_LOOP ( 'NONE', ( #169, #72, #141, #192 ) ) ;
#64 =( CONVERSION_BASED_UNIT ( 'INCH', #280 ) LENGTH_UNIT ( ) NAMED_UNIT ( #71 ) );
#65 =( GEOMETRIC_REPRESENTATION_CONTEXT ( 3 ) GLOBAL_UNCERTAINTY_ASSIGNED_CONTEXT ( ( #205 ) ) GLOBAL_UNIT_ASSIGNED_CONTEXT ( ( #183, #298, #136 ) ) REPRESENTATION_CONTEXT ( 'NONE', 'WORKASPACE' ) );
#66 = DIRECTION ( 'NONE',  ( -1.224646799147353454E-16, -0.0000000000000000000, -1.000000000000000000 ) ) ;
#67 = DIRECTION ( 'NONE',  ( -1.000000000000000000, 0.0000000000000000000, 1.224646799147353700E-16 ) ) ;
#68 = EDGE_CURVE ( 'NONE', #6, #110, #19, .T. ) ;
#69 = STYLED_ITEM ( 'NONE', ( #7 ), #271 ) ;
#70 = DIRECTION ( 'NONE',  ( 0.0000000000000000000, 0.0000000000000000000, -1.000000000000000000 ) ) ;
#71 = DIMENSIONAL_EXPONENTS ( 1.000000000000000000, 0.0000000000000000000, 0.0000000000000000000, 0.0000000000000000000, 0.0000000000000000000, 0.0000000000000000000, 0.0000000000000000000 ) ;
#72 = ORIENTED_EDGE ( 'NONE', *, *, #198, .T. ) ;
#73 = SURFACE_STYLE_USAGE ( .BOTH. , #97 ) ;
#74 = ORIENTED_EDGE ( 'NONE', *, *, #100, .T. ) ;
#75 = ORIENTED_EDGE ( 'NONE', *, *, #68, .T. ) ;
#76 = AXIS2_PLACEMENT_3D ( 'NONE', #29, #70, #260 ) ;
#77 = MECHANICAL_DESIGN_GEOMETRIC_PRESENTATION_REPRESENTATION (  '', ( #180 ), #65 ) ;
#78 = APPLICATION_PROTOCOL_DEFINITION ( 'draft international standard', 'automotive_design', 1998, #193 ) ;
#79 = DIRECTION ( 'NONE',  ( -1.000000000000000000, 0.0000000000000000000, 0.0000000000000000000 ) ) ;
#80 = DIRECTION ( 'NONE',  ( 1.000000000000000000, 0.0000000000000000000, 0.0000000000000000000 ) ) ;
#81 = LINE ( 'NONE', #57, #14 ) ;
#82 = ADVANCED_FACE ( 'NONE', ( #195 ), #40, .T. ) ;
#83 = EDGE_LOOP ( 'NONE', ( #220, #127 ) ) ;
#84 = DIRECTION ( 'NONE',  ( -1.000000000000000000, 0.0000000000000000000, 0.0000000000000000000 ) ) ;
#85 = AXIS2_PLACEMENT_3D ( 'NONE', #10, #290, #79 ) ;
#86 = ORIENTED_EDGE ( 'NONE', *, *, #198, .F. ) ;
#87 = CARTESIAN_POINT ( 'NONE',  ( -0.1248749999999999999, 0.0000000000000000000, 3.058555380870515566E-17 ) ) ;
#88 = AXIS2_PLACEMENT_3D ( 'NONE', #281, #66, #67 ) ;
#89 = DIRECTION ( 'NONE',  ( -1.224646799147353454E-16, -0.0000000000000000000, -1.000000000000000000 ) ) ;
#90 = CARTESIAN_POINT ( 'NONE',  ( 1.872825028598995495E-33, 0.0000000000000000000, 1.529277690435257783E-17 ) ) ;
#91 = PRODUCT_DEFINITION_FORMATION_WITH_SPECIFIED_SOURCE ( 'ANY', '', #200, .NOT_KNOWN. ) ;
#92 =( LENGTH_UNIT ( ) NAMED_UNIT ( * ) SI_UNIT ( $, .METRE. ) );
#93 = ORIENTED_EDGE ( 'NONE', *, *, #277, .T. ) ;
#94 = VECTOR ( 'NONE', #135, 39.37007874015748143 ) ;
#95 = CIRCLE ( 'NONE', #237, 0.1100000000000004446 ) ;
#96 = VERTEX_POINT ( 'NONE', #291 ) ;
#97 = SURFACE_SIDE_STYLE ('',( #287 ) ) ;
#98 = EDGE_LOOP ( 'NONE', ( #86, #279, #75, #74 ) ) ;
#99 = DIRECTION ( 'NONE',  ( 1.000000000000000000, 0.0000000000000000000, 0.0000000000000000000 ) ) ;
#100 = EDGE_CURVE ( 'NONE', #110, #59, #243, .T. ) ;
#101 = ORIENTED_EDGE ( 'NONE', *, *, #100, .F. ) ;
#102 = LENGTH_MEASURE_WITH_UNIT ( LENGTH_MEASURE( 0.02539999999999999897 ), #125 );
#103 = EDGE_LOOP ( 'NONE', ( #119, #216, #171, #150 ) ) ;
#104 = AXIS2_PLACEMENT_3D ( 'NONE', #42, #111, #199 ) ;
#105 = LINE ( 'NONE', #196, #147 ) ;
#106 = VERTEX_POINT ( 'NONE', #251 ) ;
#107 = EDGE_CURVE ( 'NONE', #44, #253, #176, .T. ) ;
#108 = DIRECTION ( 'NONE',  ( -1.000000000000000000, 0.0000000000000000000, 1.224646799147353700E-16 ) ) ;
#109 = ORIENTED_EDGE ( 'NONE', *, *, #204, .F. ) ;
#110 = VERTEX_POINT ( 'NONE', #270 ) ;
#111 = DIRECTION ( 'NONE',  ( 1.224646799147353454E-16, 0.0000000000000000000, 1.000000000000000000 ) ) ;
#112 = AXIS2_PLACEMENT_3D ( 'NONE', #121, #213, #32 ) ;
#113 = CARTESIAN_POINT ( 'NONE',  ( -0.1250000000000000000, 0.0000000000000000000, 2.985000000000001208 ) ) ;
#114 = MECHANICAL_DESIGN_GEOMETRIC_PRESENTATION_REPRESENTATION (  '', ( #69 ), #175 ) ;
#115 = DIRECTION ( 'NONE',  ( -1.000000000000000000, 0.0000000000000000000, 1.224646799147353700E-16 ) ) ;
#116 = LINE ( 'NONE', #2, #252 ) ;
#117 = EDGE_CURVE ( 'NONE', #96, #110, #105, .T. ) ;
#118 = PRESENTATION_STYLE_ASSIGNMENT (( #142 ) ) ;
#119 = ORIENTED_EDGE ( 'NONE', *, *, #277, .F. ) ;
#120 = PRODUCT_DEFINITION_CONTEXT ( 'detailed design', #11, 'design' ) ;
#121 = CARTESIAN_POINT ( 'NONE',  ( 1.530808498934191817E-16, 0.0000000000000000000, 1.250000000000000000 ) ) ;
#122 = DIMENSIONAL_EXPONENTS ( 1.000000000000000000, 0.0000000000000000000, 0.0000000000000000000, 0.0000000000000000000, 0.0000000000000000000, 0.0000000000000000000, 0.0000000000000000000 ) ;
#123 = EDGE_LOOP ( 'NONE', ( #227, #24 ) ) ;
#124 = ADVANCED_FACE ( 'NONE', ( #131 ), #224, .T. ) ;
#125 =( LENGTH_UNIT ( ) NAMED_UNIT ( * ) SI_UNIT ( $, .METRE. ) );
#126 = DIRECTION ( 'NONE',  ( -1.224646799147353454E-16, -0.0000000000000000000, -1.000000000000000000 ) ) ;
#127 = ORIENTED_EDGE ( 'NONE', *, *, #128, .T. ) ;
#128 = EDGE_CURVE ( 'NONE', #190, #44, #95, .T. ) ;
#129 = CONICAL_SURFACE ( 'NONE', #104, 0.1248749999999999999, 0.1745329251994337805 ) ;
#130 = DIRECTION ( 'NONE',  ( -0.7071067811865566766, 0.0000000000000000000, -0.7071067811865382469 ) ) ;
#131 = FACE_OUTER_BOUND ( 'NONE', #138, .T. ) ;
#132 = DIRECTION ( 'NONE',  ( -1.224646799147353454E-16, -0.0000000000000000000, -1.000000000000000000 ) ) ;
#133 = CARTESIAN_POINT ( 'NONE',  ( 0.0000000000000000000, 0.0000000000000000000, 0.0000000000000000000 ) ) ;
#134 = DIRECTION ( 'NONE',  ( 1.000000000000000000, 0.0000000000000000000, 0.0000000000000000000 ) ) ;
#135 = DIRECTION ( 'NONE',  ( 0.1736481776669312749, 0.0000000000000000000, 0.9848077530122077983 ) ) ;
#136 =( NAMED_UNIT ( * ) SI_UNIT ( $, .STERADIAN. ) SOLID_ANGLE_UNIT ( ) );
#137 = ADVANCED_FACE ( 'NONE', ( #254 ), #49, .T. ) ;
#138 = EDGE_LOOP ( 'NONE', ( #266, #4, #153, #101 ) ) ;
#139 =( LENGTH_UNIT ( ) NAMED_UNIT ( * ) SI_UNIT ( $, .METRE. ) );
#140 = VECTOR ( 'NONE', #257, 39.37007874015748854 ) ;
#141 = ORIENTED_EDGE ( 'NONE', *, *, #210, .T. ) ;
#142 = SURFACE_STYLE_USAGE ( .BOTH. , #202 ) ;
#143 = EDGE_CURVE ( 'NONE', #253, #59, #81, .T. ) ;
#144 = CARTESIAN_POINT ( 'NONE',  ( 0.1248749999999999999, 1.529277690435257475E-17, 0.0000000000000000000 ) ) ;
#145 = SURFACE_STYLE_FILL_AREA ( #45 ) ;
#146 = AXIS2_PLACEMENT_3D ( 'NONE', #20, #272, #60 ) ;
#147 = VECTOR ( 'NONE', #155, 39.37007874015748143 ) ;
#148 = DIRECTION ( 'NONE',  ( 0.0000000000000000000, 0.0000000000000000000, 1.000000000000000000 ) ) ;
#149 = EDGE_CURVE ( 'NONE', #106, #189, #249, .T. ) ;
#150 = ORIENTED_EDGE ( 'NONE', *, *, #255, .F. ) ;
#151 = CYLINDRICAL_SURFACE ( 'NONE', #5, 0.1248749999999999999 ) ;
#152 = VECTOR ( 'NONE', #177, 39.37007874015748143 ) ;
#153 = ORIENTED_EDGE ( 'NONE', *, *, #143, .T. ) ;
#154 = EDGE_LOOP ( 'NONE', ( #286, #93, #109, #289 ) ) ;
#155 = DIRECTION ( 'NONE',  ( -0.0000000000000000000, -0.0000000000000000000, -1.000000000000000000 ) ) ;
#156 = DIRECTION ( 'NONE',  ( -0.0000000000000000000, -0.0000000000000000000, -1.000000000000000000 ) ) ;
#157 = EDGE_CURVE ( 'NONE', #96, #253, #23, .T. ) ;
#158 = CARTESIAN_POINT ( 'NONE',  ( 0.0000000000000000000, 0.0000000000000000000, 0.0000000000000000000 ) ) ;
#159 = AXIS2_PLACEMENT_3D ( 'NONE', #235, #208, #299 ) ;
#160 = ORIENTED_EDGE ( 'NONE', *, *, #21, .T. ) ;
#161 = FACE_OUTER_BOUND ( 'NONE', #98, .T. ) ;
#162 = CARTESIAN_POINT ( 'NONE',  ( 0.1100000000000004446, 1.438959988998142687E-17, 3.000000000000000444 ) ) ;
#163 = LINE ( 'NONE', #236, #140 ) ;
#164 = FACE_OUTER_BOUND ( 'NONE', #83, .T. ) ;
#165 = CIRCLE ( 'NONE', #38, 0.1100000000000004446 ) ;
#166 = EDGE_LOOP ( 'NONE', ( #8, #34, #296, #188 ) ) ;
#167 = FILL_AREA_STYLE_COLOUR ( '', #201 ) ;
#168 = ORIENTED_EDGE ( 'NONE', *, *, #117, .T. ) ;
#169 = ORIENTED_EDGE ( 'NONE', *, *, #46, .F. ) ;
#170 = CIRCLE ( 'NONE', #178, 0.1248749999999999999 ) ;
#171 = ORIENTED_EDGE ( 'NONE', *, *, #149, .T. ) ;
#172 = FACE_OUTER_BOUND ( 'NONE', #123, .T. ) ;
#173 = DIRECTION ( 'NONE',  ( -1.224646799147353454E-16, -0.0000000000000000000, -1.000000000000000000 ) ) ;
#174 = AXIS2_PLACEMENT_3D ( 'NONE', #158, #173, #108 ) ;
#175 =( GEOMETRIC_REPRESENTATION_CONTEXT ( 3 ) GLOBAL_UNCERTAINTY_ASSIGNED_CONTEXT ( ( #239 ) ) GLOBAL_UNIT_ASSIGNED_CONTEXT ( ( #219, #217, #241 ) ) REPRESENTATION_CONTEXT ( 'NONE', 'WORKASPACE' ) );
#176 = LINE ( 'NONE', #15, #187 ) ;
#177 = DIRECTION ( 'NONE',  ( -1.224646799147353454E-16, -0.0000000000000000000, -1.000000000000000000 ) ) ;
#178 = AXIS2_PLACEMENT_3D ( 'NONE', #51, #126, #233 ) ;
#179 = ADVANCED_FACE ( 'NONE', ( #161 ), #129, .T. ) ;
#180 = STYLED_ITEM ( 'NONE', ( #118 ), #229 ) ;
#181 = DIRECTION ( 'NONE',  ( -1.000000000000000000, 0.0000000000000000000, 0.0000000000000000000 ) ) ;
#182 = CARTESIAN_POINT ( 'NONE',  ( 0.0000000000000000000, 0.0000000000000000000, 3.000000000000000444 ) ) ;
#183 =( CONVERSION_BASED_UNIT ( 'INCH', #283 ) LENGTH_UNIT ( ) NAMED_UNIT ( #259 ) );
#184 = CIRCLE ( 'NONE', #13, 0.1248749999999999999 ) ;
#185 = DIRECTION ( 'NONE',  ( 0.0000000000000000000, 0.0000000000000000000, 1.000000000000000000 ) ) ;
#186 = ORIENTED_EDGE ( 'NONE', *, *, #21, .F. ) ;
#187 = VECTOR ( 'NONE', #130, 39.37007874015748854 ) ;
#188 = ORIENTED_EDGE ( 'NONE', *, *, #157, .F. ) ;
#189 = VERTEX_POINT ( 'NONE', #87 ) ;
#190 = VERTEX_POINT ( 'NONE', #162 ) ;
#191 = AXIS2_PLACEMENT_3D ( 'NONE', #246, #225, #39 ) ;
#192 = ORIENTED_EDGE ( 'NONE', *, *, #68, .F. ) ;
#193 = APPLICATION_CONTEXT ( 'automotive_design' ) ;
#194 = CARTESIAN_POINT ( 'NONE',  ( 0.1248750000000001664, 0.0000000000000000000, 1.250000000000000000 ) ) ;
#195 = FACE_OUTER_BOUND ( 'NONE', #218, .T. ) ;
#196 = CARTESIAN_POINT ( 'NONE',  ( 0.1250000000000000000, 1.530808498934191201E-17, 3.000000000000000444 ) ) ;
#197 = CYLINDRICAL_SURFACE ( 'NONE', #174, 0.1248749999999999999 ) ;
#198 = EDGE_CURVE ( 'NONE', #106, #59, #116, .T. ) ;
#199 = DIRECTION ( 'NONE',  ( 1.000000000000000000, 0.0000000000000000000, 0.0000000000000000000 ) ) ;
#200 = PRODUCT ( 'Micro_SFA-250-410', 'Micro_SFA-250-410', '', ( #264 ) ) ;
#201 = COLOUR_RGB ( '',0.7921568627450980005, 0.8196078431372548767, 0.9333333333333333481 ) ;
#202 = SURFACE_SIDE_STYLE ('',( #145 ) ) ;
#203 = DIRECTION ( 'NONE',  ( 1.000000000000000000, 0.0000000000000000000, 0.0000000000000000000 ) ) ;
#204 = EDGE_CURVE ( 'NONE', #189, #263, #184, .T. ) ;
#205 = UNCERTAINTY_MEASURE_WITH_UNIT (LENGTH_MEASURE( 1.000000000000000082E-05 ), #183, 'distance_accuracy_value', 'NONE');
#206 = CIRCLE ( 'NONE', #76, 0.1250000000000000000 ) ;
#207 = CARTESIAN_POINT ( 'NONE',  ( 0.0000000000000000000, 0.0000000000000000000, 3.000000000000000444 ) ) ;
#208 = DIRECTION ( 'NONE',  ( 1.224646799147353454E-16, 0.0000000000000000000, 1.000000000000000000 ) ) ;
#209 = UNCERTAINTY_MEASURE_WITH_UNIT (LENGTH_MEASURE( 1.000000000000000082E-05 ), #64, 'distance_accuracy_value', 'NONE');
#210 = EDGE_CURVE ( 'NONE', #59, #110, #265, .T. ) ;
#211 = PLANE ( 'NONE',  #247 ) ;
#212 = APPLICATION_PROTOCOL_DEFINITION ( 'draft international standard', 'automotive_design', 1998, #11 ) ;
#213 = DIRECTION ( 'NONE',  ( -1.224646799147353454E-16, -0.0000000000000000000, -1.000000000000000000 ) ) ;
#214 = DIRECTION ( 'NONE',  ( 0.0000000000000000000, 0.0000000000000000000, 1.000000000000000000 ) ) ;
#215 = VECTOR ( 'NONE', #89, 39.37007874015748143 ) ;
#216 = ORIENTED_EDGE ( 'NONE', *, *, #9, .T. ) ;
#217 =( NAMED_UNIT ( * ) PLANE_ANGLE_UNIT ( ) SI_UNIT ( $, .RADIAN. ) );
#218 = EDGE_LOOP ( 'NONE', ( #285, #52, #186, #50 ) ) ;
#219 =( CONVERSION_BASED_UNIT ( 'INCH', #102 ) LENGTH_UNIT ( ) NAMED_UNIT ( #122 ) );
#220 = ORIENTED_EDGE ( 'NONE', *, *, #282, .T. ) ;
#221 = CIRCLE ( 'NONE', #112, 0.1248749999999999999 ) ;
#222 = CARTESIAN_POINT ( 'NONE',  ( -0.1249999999999998473, 0.0000000000000000000, 1.250708910227452009 ) ) ;
#223 = PRODUCT_RELATED_PRODUCT_CATEGORY ( 'part', '', ( #200 ) ) ;
#224 = CYLINDRICAL_SURFACE ( 'NONE', #256, 0.1250000000000000000 ) ;
#225 = DIRECTION ( 'NONE',  ( 0.0000000000000000000, 0.0000000000000000000, -1.000000000000000000 ) ) ;
#226 =( GEOMETRIC_REPRESENTATION_CONTEXT ( 3 ) GLOBAL_UNCERTAINTY_ASSIGNED_CONTEXT ( ( #209 ) ) GLOBAL_UNIT_ASSIGNED_CONTEXT ( ( #64, #37, #33 ) ) REPRESENTATION_CONTEXT ( 'NONE', 'WORKASPACE' ) );
#227 = ORIENTED_EDGE ( 'NONE', *, *, #204, .T. ) ;
#228 = CARTESIAN_POINT ( 'NONE',  ( 0.0000000000000000000, 0.0000000000000000000, 3.000000000000000444 ) ) ;
#229 = MANIFOLD_SOLID_BREP ( 'Cut-Revolve1', #231 ) ;
#230 = DIRECTION ( 'NONE',  ( 1.000000000000000000, 0.0000000000000000000, -0.0000000000000000000 ) ) ;
#231 = CLOSED_SHELL ( 'NONE', ( #58, #250, #82, #30, #124, #262, #137, #179, #56, #35 ) ) ;
#232 = COLOUR_RGB ( '',0.7921568627450980005, 0.8196078431372548767, 0.9333333333333333481 ) ;
#233 = DIRECTION ( 'NONE',  ( -1.000000000000000000, 0.0000000000000000000, 0.0000000000000000000 ) ) ;
#234 = CARTESIAN_POINT ( 'NONE',  ( 0.1248749999999999999, 1.529277690435257475E-17, -1.529277690435257783E-17 ) ) ;
#235 = CARTESIAN_POINT ( 'NONE',  ( 1.530808498934191817E-16, 0.0000000000000000000, 1.250000000000000000 ) ) ;
#236 = CARTESIAN_POINT ( 'NONE',  ( 0.1100000000000004446, 1.347111479062094019E-17, 3.000000000000000444 ) ) ;
#237 = AXIS2_PLACEMENT_3D ( 'NONE', #16, #292, #134 ) ;
#238 = EDGE_CURVE ( 'NONE', #190, #96, #163, .T. ) ;
#239 = UNCERTAINTY_MEASURE_WITH_UNIT (LENGTH_MEASURE( 1.000000000000000082E-05 ), #219, 'distance_accuracy_value', 'NONE');
#240 = DIRECTION ( 'NONE',  ( 1.000000000000000000, 0.0000000000000000000, -0.0000000000000000000 ) ) ;
#241 =( NAMED_UNIT ( * ) SI_UNIT ( $, .STERADIAN. ) SOLID_ANGLE_UNIT ( ) );
#242 = FACE_OUTER_BOUND ( 'NONE', #245, .T. ) ;
#243 = CIRCLE ( 'NONE', #61, 0.1250000000000000000 ) ;
#244 = ORIENTED_EDGE ( 'NONE', *, *, #143, .F. ) ;
#245 = EDGE_LOOP ( 'NONE', ( #160, #168, #41, #244 ) ) ;
#246 = CARTESIAN_POINT ( 'NONE',  ( 0.0000000000000000000, 0.0000000000000000000, 3.000000000000000444 ) ) ;
#247 = AXIS2_PLACEMENT_3D ( 'NONE', #3, #148, #240 ) ;
#248 = PRESENTATION_LAYER_ASSIGNMENT (  '', '', ( #69 ) ) ;
#249 = LINE ( 'NONE', #276, #152 ) ;
#250 = ADVANCED_FACE ( 'NONE', ( #26 ), #53, .T. ) ;
#251 = CARTESIAN_POINT ( 'NONE',  ( -0.1248749999999998472, 1.530043094684724338E-17, 1.250000000000000000 ) ) ;
#252 = VECTOR ( 'NONE', #62, 39.37007874015748854 ) ;
#253 = VERTEX_POINT ( 'NONE', #113 ) ;
#254 = FACE_OUTER_BOUND ( 'NONE', #166, .T. ) ;
#255 = EDGE_CURVE ( 'NONE', #263, #189, #274, .T. ) ;
#256 = AXIS2_PLACEMENT_3D ( 'NONE', #228, #17, #181 ) ;
#257 = DIRECTION ( 'NONE',  ( 0.7071067811865566766, 8.659560562355046257E-17, -0.7071067811865382469 ) ) ;
#258 = LINE ( 'NONE', #234, #215 ) ;
#259 = DIMENSIONAL_EXPONENTS ( 1.000000000000000000, 0.0000000000000000000, 0.0000000000000000000, 0.0000000000000000000, 0.0000000000000000000, 0.0000000000000000000, 0.0000000000000000000 ) ;
#260 = DIRECTION ( 'NONE',  ( 1.000000000000000000, 0.0000000000000000000, 0.0000000000000000000 ) ) ;
#261 = CARTESIAN_POINT ( 'NONE',  ( 0.1248750000000001664, 0.0000000000000000000, 1.250000000000000000 ) ) ;
#262 = ADVANCED_FACE ( 'NONE', ( #164 ), #47, .T. ) ;
#263 = VERTEX_POINT ( 'NONE', #144 ) ;
#264 = PRODUCT_CONTEXT ( 'NONE', #193, 'mechanical' ) ;
#265 = CIRCLE ( 'NONE', #27, 0.1250000000000000000 ) ;
#266 = ORIENTED_EDGE ( 'NONE', *, *, #117, .F. ) ;
#267 = FILL_AREA_STYLE ('',( #167 ) ) ;
#268 = AXIS2_PLACEMENT_3D ( 'NONE', #295, #294, #84 ) ;
#269 = FACE_OUTER_BOUND ( 'NONE', #103, .T. ) ;
#270 = CARTESIAN_POINT ( 'NONE',  ( 0.1250000000000001665, 1.530808498934193358E-17, 1.250708910227452009 ) ) ;
#271 = ADVANCED_BREP_SHAPE_REPRESENTATION ( 'Micro_SFA-250-410', ( #229, #293 ), #226 ) ;
#272 = DIRECTION ( 'NONE',  ( 0.0000000000000000000, 0.0000000000000000000, -1.000000000000000000 ) ) ;
#273 = FACE_OUTER_BOUND ( 'NONE', #154, .T. ) ;
#274 = CIRCLE ( 'NONE', #88, 0.1248749999999999999 ) ;
#275 = DIRECTION ( 'NONE',  ( -1.000000000000000000, 0.0000000000000000000, 1.224646799147353700E-16 ) ) ;
#276 = CARTESIAN_POINT ( 'NONE',  ( -0.1248749999999999999, 0.0000000000000000000, 1.529277690435257783E-17 ) ) ;
#277 = EDGE_CURVE ( 'NONE', #6, #263, #258, .T. ) ;
#278 = DIRECTION ( 'NONE',  ( 0.0000000000000000000, 0.0000000000000000000, 1.000000000000000000 ) ) ;
#279 = ORIENTED_EDGE ( 'NONE', *, *, #9, .F. ) ;
#280 = LENGTH_MEASURE_WITH_UNIT ( LENGTH_MEASURE( 0.02539999999999999897 ), #139 );
#281 = CARTESIAN_POINT ( 'NONE',  ( 1.872825028598995495E-33, 0.0000000000000000000, 1.529277690435257783E-17 ) ) ;
#282 = EDGE_CURVE ( 'NONE', #44, #190, #165, .T. ) ;
#283 = LENGTH_MEASURE_WITH_UNIT ( LENGTH_MEASURE( 0.02539999999999999897 ), #92 );
#284 = PRODUCT_DEFINITION_SHAPE ( 'NONE', 'NONE',  #25 ) ;
#285 = ORIENTED_EDGE ( 'NONE', *, *, #128, .F. ) ;
#286 = ORIENTED_EDGE ( 'NONE', *, *, #46, .T. ) ;
#287 = SURFACE_STYLE_FILL_AREA ( #267 ) ;
#288 = DIRECTION ( 'NONE',  ( -1.224646799147353454E-16, -0.0000000000000000000, -1.000000000000000000 ) ) ;
#289 = ORIENTED_EDGE ( 'NONE', *, *, #149, .F. ) ;
#290 = DIRECTION ( 'NONE',  ( -0.0000000000000000000, -0.0000000000000000000, -1.000000000000000000 ) ) ;
#291 = CARTESIAN_POINT ( 'NONE',  ( 0.1250000000000000000, 1.530808498934191201E-17, 2.985000000000001208 ) ) ;
#292 = DIRECTION ( 'NONE',  ( 0.0000000000000000000, 0.0000000000000000000, 1.000000000000000000 ) ) ;
#293 = AXIS2_PLACEMENT_3D ( 'NONE', #12, #214, #99 ) ;
#294 = DIRECTION ( 'NONE',  ( 0.0000000000000000000, 0.0000000000000000000, -1.000000000000000000 ) ) ;
#295 = CARTESIAN_POINT ( 'NONE',  ( 0.0000000000000000000, 0.0000000000000000000, 3.000000000000000444 ) ) ;
#296 = ORIENTED_EDGE ( 'NONE', *, *, #107, .T. ) ;
#297 = AXIS2_PLACEMENT_3D ( 'NONE', #207, #185, #230 ) ;
#298 =( NAMED_UNIT ( * ) PLANE_ANGLE_UNIT ( ) SI_UNIT ( $, .RADIAN. ) );
#299 = DIRECTION ( 'NONE',  ( 1.000000000000000000, 0.0000000000000000000, 0.0000000000000000000 ) ) ;
ENDSEC;
END-ISO-10303-21;
