ISO-10303-21;
HEADER;
FILE_DESCRIPTION (( 'STEP AP214' ),
    '1' );
FILE_NAME ('Micro_DMM-160-4120.STEP',
    '2021-09-02T16:35:03',
    ( '' ),
    ( '' ),
    'SwSTEP 2.0',
    'SolidWorks 2020',
    '' );
FILE_SCHEMA (( 'AUTOMOTIVE_DESIGN' ));
ENDSEC;

DATA;
#1 =( LENGTH_UNIT ( ) NAMED_UNIT ( * ) SI_UNIT ( $, .METRE. ) );
#2 = AXIS2_PLACEMENT_3D ( 'NONE', #167, #43, #136 ) ;
#3 = ORIENTED_EDGE ( 'NONE', *, *, #250, .F. ) ;
#4 = EDGE_CURVE ( 'NONE', #13, #160, #242, .T. ) ;
#5 = EDGE_CURVE ( 'NONE', #306, #226, #42, .T. ) ;
#6 = CARTESIAN_POINT ( 'NONE',  ( 0.0000000000000000000, 0.0000000000000000000, 3.622047000000000239 ) ) ;
#7 = ORIENTED_EDGE ( 'NONE', *, *, #4, .F. ) ;
#8 = CARTESIAN_POINT ( 'NONE',  ( 0.2999604999999996857, 3.765305171892445978E-17, 3.622047000000000239 ) ) ;
#9 = SURFACE_STYLE_FILL_AREA ( #83 ) ;
#10 = MECHANICAL_DESIGN_GEOMETRIC_PRESENTATION_REPRESENTATION (  '', ( #323 ), #237 ) ;
#11 = FACE_OUTER_BOUND ( 'NONE', #94, .T. ) ;
#12 = AXIS2_PLACEMENT_3D ( 'NONE', #180, #77, #155 ) ;
#13 = VERTEX_POINT ( 'NONE', #294 ) ;
#14 = CYLINDRICAL_SURFACE ( 'NONE', #34, 0.3149604999999999766 ) ;
#15 = AXIS2_PLACEMENT_3D ( 'NONE', #223, #218, #301 ) ;
#16 = CYLINDRICAL_SURFACE ( 'NONE', #292, 0.3149604999999999766 ) ;
#17 = MANIFOLD_SOLID_BREP ( 'Cut-Revolve4', #112 ) ;
#18 = ADVANCED_FACE ( 'NONE', ( #11 ), #85, .F. ) ;
#19 = DIRECTION ( 'NONE',  ( -0.0000000000000000000, -0.0000000000000000000, -1.000000000000000000 ) ) ;
#20 = EDGE_CURVE ( 'NONE', #74, #24, #111, .T. ) ;
#21 = PRESENTATION_LAYER_ASSIGNMENT (  '', '', ( #52 ) ) ;
#22 = UNCERTAINTY_MEASURE_WITH_UNIT (LENGTH_MEASURE( 1.000000000000000082E-05 ), #230, 'distance_accuracy_value', 'NONE');
#23 = DIRECTION ( 'NONE',  ( -1.000000000000000000, 0.0000000000000000000, 0.0000000000000000000 ) ) ;
#24 = VERTEX_POINT ( 'NONE', #212 ) ;
#25 = AXIS2_PLACEMENT_3D ( 'NONE', #233, #57, #36 ) ;
#26 = DIRECTION ( 'NONE',  ( -1.000000000000000000, 0.0000000000000000000, 0.0000000000000000000 ) ) ;
#27 = ORIENTED_EDGE ( 'NONE', *, *, #118, .F. ) ;
#28 = CARTESIAN_POINT ( 'NONE',  ( 0.3149105000000001486, 0.0000000000000000000, 1.377952999999999983 ) ) ;
#29 = ORIENTED_EDGE ( 'NONE', *, *, #137, .F. ) ;
#30 = EDGE_CURVE ( 'NONE', #288, #306, #89, .T. ) ;
#31 = EDGE_LOOP ( 'NONE', ( #37, #147, #149, #127 ) ) ;
#32 = EDGE_CURVE ( 'NONE', #160, #13, #210, .T. ) ;
#33 = CARTESIAN_POINT ( 'NONE',  ( -0.3149105000000001486, 0.0000000000000000000, 1.377952999999999983 ) ) ;
#34 = AXIS2_PLACEMENT_3D ( 'NONE', #114, #217, #283 ) ;
#35 = ORIENTED_EDGE ( 'NONE', *, *, #20, .F. ) ;
#36 = DIRECTION ( 'NONE',  ( -1.000000000000000000, 0.0000000000000000000, 0.0000000000000000000 ) ) ;
#37 = ORIENTED_EDGE ( 'NONE', *, *, #310, .F. ) ;
#38 = PRESENTATION_STYLE_ASSIGNMENT (( #287 ) ) ;
#39 =( NAMED_UNIT ( * ) PLANE_ANGLE_UNIT ( ) SI_UNIT ( $, .RADIAN. ) );
#40 = AXIS2_PLACEMENT_3D ( 'NONE', #49, #219, #70 ) ;
#41 = PRESENTATION_STYLE_ASSIGNMENT (( #64 ) ) ;
#42 = LINE ( 'NONE', #61, #282 ) ;
#43 = DIRECTION ( 'NONE',  ( 0.0000000000000000000, 0.0000000000000000000, 1.000000000000000000 ) ) ;
#44 = CARTESIAN_POINT ( 'NONE',  ( -0.3149105000000000931, 0.0000000000000000000, 0.0000000000000000000 ) ) ;
#45 = DIRECTION ( 'NONE',  ( 0.0000000000000000000, 0.0000000000000000000, -1.000000000000000000 ) ) ;
#46 = VECTOR ( 'NONE', #303, 39.37007874015748143 ) ;
#47 = DIRECTION ( 'NONE',  ( -1.000000000000000000, 0.0000000000000000000, 0.0000000000000000000 ) ) ;
#48 = EDGE_LOOP ( 'NONE', ( #254, #277, #328, #276 ) ) ;
#49 = CARTESIAN_POINT ( 'NONE',  ( 0.0000000000000000000, 0.0000000000000000000, 3.622047000000000239 ) ) ;
#50 = ORIENTED_EDGE ( 'NONE', *, *, #195, .T. ) ;
#51 = AXIS2_PLACEMENT_3D ( 'NONE', #97, #45, #244 ) ;
#52 = STYLED_ITEM ( 'NONE', ( #38 ), #267 ) ;
#53 = DIRECTION ( 'NONE',  ( 1.000000000000000000, 0.0000000000000000000, 0.0000000000000000000 ) ) ;
#54 = ORIENTED_EDGE ( 'NONE', *, *, #205, .T. ) ;
#55 = EDGE_LOOP ( 'NONE', ( #120, #251 ) ) ;
#56 = VERTEX_POINT ( 'NONE', #240 ) ;
#57 = DIRECTION ( 'NONE',  ( -0.0000000000000000000, -0.0000000000000000000, -1.000000000000000000 ) ) ;
#58 = CONICAL_SURFACE ( 'NONE', #2, 0.007499999999999999722, 1.047197551196600296 ) ;
#59 = FILL_AREA_STYLE_COLOUR ( '', #138 ) ;
#60 =( NAMED_UNIT ( * ) SI_UNIT ( $, .STERADIAN. ) SOLID_ANGLE_UNIT ( ) );
#61 = CARTESIAN_POINT ( 'NONE',  ( -0.3149604999999999766, 0.0000000000000000000, 3.622047000000000239 ) ) ;
#62 = PRODUCT_RELATED_PRODUCT_CATEGORY ( 'part', '', ( #222 ) ) ;
#63 = LENGTH_MEASURE_WITH_UNIT ( LENGTH_MEASURE( 0.02539999999999999897 ), #1 );
#64 = SURFACE_STYLE_USAGE ( .BOTH. , #185 ) ;
#65 = DIRECTION ( 'NONE',  ( -0.0000000000000000000, -0.0000000000000000000, -1.000000000000000000 ) ) ;
#66 = FACE_OUTER_BOUND ( 'NONE', #272, .T. ) ;
#67 = DIMENSIONAL_EXPONENTS ( 1.000000000000000000, 0.0000000000000000000, 0.0000000000000000000, 0.0000000000000000000, 0.0000000000000000000, 0.0000000000000000000, 0.0000000000000000000 ) ;
#68 = DIRECTION ( 'NONE',  ( -1.000000000000000000, 0.0000000000000000000, 0.0000000000000000000 ) ) ;
#69 = FACE_BOUND ( 'NONE', #173, .T. ) ;
#70 = DIRECTION ( 'NONE',  ( -1.000000000000000000, 0.0000000000000000000, 0.0000000000000000000 ) ) ;
#71 = VECTOR ( 'NONE', #269, 39.37007874015748143 ) ;
#72 = CARTESIAN_POINT ( 'NONE',  ( 0.3149105000000000376, 0.0000000000000000000, 0.1774835349267163964 ) ) ;
#73 = DIRECTION ( 'NONE',  ( -0.8660254037844398178, 1.060575238724908517E-16, 0.4999999999999977240 ) ) ;
#74 = VERTEX_POINT ( 'NONE', #314 ) ;
#75 = AXIS2_PLACEMENT_3D ( 'NONE', #184, #286, #164 ) ;
#76 = AXIS2_PLACEMENT_3D ( 'NONE', #28, #116, #26 ) ;
#77 = DIRECTION ( 'NONE',  ( -0.0000000000000000000, -0.0000000000000000000, -1.000000000000000000 ) ) ;
#78 = ORIENTED_EDGE ( 'NONE', *, *, #5, .T. ) ;
#79 = FACE_OUTER_BOUND ( 'NONE', #203, .T. ) ;
#80 = ORIENTED_EDGE ( 'NONE', *, *, #221, .F. ) ;
#81 = LINE ( 'NONE', #304, #182 ) ;
#82 = ORIENTED_EDGE ( 'NONE', *, *, #195, .F. ) ;
#83 = FILL_AREA_STYLE ('',( #211 ) ) ;
#84 = CIRCLE ( 'NONE', #100, 0.3149604999999999766 ) ;
#85 = PLANE ( 'NONE',  #75 ) ;
#86 = APPLICATION_PROTOCOL_DEFINITION ( 'draft international standard', 'automotive_design', 1998, #179 ) ;
#87 = SURFACE_STYLE_FILL_AREA ( #181 ) ;
#88 = APPLICATION_CONTEXT ( 'automotive_design' ) ;
#89 = LINE ( 'NONE', #186, #204 ) ;
#90 = ADVANCED_FACE ( 'NONE', ( #66 ), #58, .T. ) ;
#91 = ADVANCED_FACE ( 'NONE', ( #241 ), #14, .T. ) ;
#92 = CIRCLE ( 'NONE', #12, 0.3149105000000001486 ) ;
#93 = UNCERTAINTY_MEASURE_WITH_UNIT (LENGTH_MEASURE( 1.000000000000000082E-05 ), #214, 'distance_accuracy_value', 'NONE');
#94 = EDGE_LOOP ( 'NONE', ( #202, #178 ) ) ;
#95 = CARTESIAN_POINT ( 'NONE',  ( 0.0000000000000000000, 0.0000000000000000000, 0.1774835349267163964 ) ) ;
#96 = PRODUCT_CONTEXT ( 'NONE', #179, 'mechanical' ) ;
#97 = CARTESIAN_POINT ( 'NONE',  ( 0.0000000000000000000, 0.0000000000000000000, 3.622047000000000239 ) ) ;
#98 = CARTESIAN_POINT ( 'NONE',  ( -0.007499999999999999722, 9.184850993605147975E-19, 1.707404996040164512E-17 ) ) ;
#99 = AXIS2_PLACEMENT_3D ( 'NONE', #261, #110, #265 ) ;
#100 = AXIS2_PLACEMENT_3D ( 'NONE', #296, #19, #273 ) ;
#101 = DIRECTION ( 'NONE',  ( -0.0000000000000000000, -0.0000000000000000000, -1.000000000000000000 ) ) ;
#102 = LINE ( 'NONE', #201, #46 ) ;
#103 = ADVANCED_FACE ( 'NONE', ( #318 ), #216, .T. ) ;
#104 = CARTESIAN_POINT ( 'NONE',  ( 0.0000000000000000000, 0.0000000000000000000, 1.707404996040164512E-17 ) ) ;
#105 = ORIENTED_EDGE ( 'NONE', *, *, #30, .T. ) ;
#106 = AXIS2_PLACEMENT_3D ( 'NONE', #289, #293, #133 ) ;
#107 = CARTESIAN_POINT ( 'NONE',  ( 0.0000000000000000000, 0.0000000000000000000, 3.622047000000000239 ) ) ;
#108 = DIRECTION ( 'NONE',  ( 0.0000000000000000000, 0.0000000000000000000, 1.000000000000000000 ) ) ;
#109 = ORIENTED_EDGE ( 'NONE', *, *, #199, .T. ) ;
#110 = DIRECTION ( 'NONE',  ( -0.0000000000000000000, -0.0000000000000000000, -1.000000000000000000 ) ) ;
#111 = LINE ( 'NONE', #259, #262 ) ;
#112 = CLOSED_SHELL ( 'NONE', ( #322, #312, #215, #144, #91, #300, #103, #229, #90, #188, #18 ) ) ;
#113 = AXIS2_PLACEMENT_3D ( 'NONE', #298, #197, #123 ) ;
#114 = CARTESIAN_POINT ( 'NONE',  ( 0.0000000000000000000, 0.0000000000000000000, 3.622047000000000239 ) ) ;
#115 = DIRECTION ( 'NONE',  ( 1.000000000000000000, 0.0000000000000000000, 0.0000000000000000000 ) ) ;
#116 = DIRECTION ( 'NONE',  ( -0.0000000000000000000, 0.0000000000000000000, -1.000000000000000000 ) ) ;
#117 = EDGE_CURVE ( 'NONE', #329, #288, #126, .T. ) ;
#118 = EDGE_CURVE ( 'NONE', #13, #56, #170, .T. ) ;
#119 = CARTESIAN_POINT ( 'NONE',  ( 0.0000000000000000000, 0.0000000000000000000, 3.607046999999999226 ) ) ;
#120 = ORIENTED_EDGE ( 'NONE', *, *, #208, .T. ) ;
#121 = FACE_OUTER_BOUND ( 'NONE', #158, .T. ) ;
#122 = EDGE_LOOP ( 'NONE', ( #309, #124 ) ) ;
#123 = DIRECTION ( 'NONE',  ( -1.000000000000000000, 0.0000000000000000000, 0.0000000000000000000 ) ) ;
#124 = ORIENTED_EDGE ( 'NONE', *, *, #117, .T. ) ;
#125 = ORIENTED_EDGE ( 'NONE', *, *, #199, .F. ) ;
#126 = CIRCLE ( 'NONE', #159, 0.2999604999999996857 ) ;
#127 = ORIENTED_EDGE ( 'NONE', *, *, #142, .F. ) ;
#128 =( LENGTH_UNIT ( ) NAMED_UNIT ( * ) SI_UNIT ( $, .METRE. ) );
#129 =( LENGTH_UNIT ( ) NAMED_UNIT ( * ) SI_UNIT ( $, .METRE. ) );
#130 = DIMENSIONAL_EXPONENTS ( 1.000000000000000000, 0.0000000000000000000, 0.0000000000000000000, 0.0000000000000000000, 0.0000000000000000000, 0.0000000000000000000, 0.0000000000000000000 ) ;
#131 = FACE_OUTER_BOUND ( 'NONE', #200, .T. ) ;
#132 = ORIENTED_EDGE ( 'NONE', *, *, #279, .T. ) ;
#133 = DIRECTION ( 'NONE',  ( 1.000000000000000000, 0.0000000000000000000, 0.0000000000000000000 ) ) ;
#134 = AXIS2_PLACEMENT_3D ( 'NONE', #166, #264, #135 ) ;
#135 = DIRECTION ( 'NONE',  ( -1.000000000000000000, 0.0000000000000000000, 0.0000000000000000000 ) ) ;
#136 = DIRECTION ( 'NONE',  ( 1.000000000000000000, 0.0000000000000000000, 0.0000000000000000000 ) ) ;
#137 = EDGE_CURVE ( 'NONE', #307, #56, #271, .T. ) ;
#138 = COLOUR_RGB ( '',0.7921568627450980005, 0.8196078431372548767, 0.9333333333333333481 ) ;
#139 = CIRCLE ( 'NONE', #311, 0.2999604999999996857 ) ;
#140 = DIRECTION ( 'NONE',  ( 0.0000000000000000000, 0.0000000000000000000, -1.000000000000000000 ) ) ;
#141 = APPLICATION_PROTOCOL_DEFINITION ( 'draft international standard', 'automotive_design', 1998, #88 ) ;
#142 = EDGE_CURVE ( 'NONE', #209, #56, #263, .T. ) ;
#143 = LINE ( 'NONE', #246, #71 ) ;
#144 = ADVANCED_FACE ( 'NONE', ( #121 ), #16, .T. ) ;
#145 = CIRCLE ( 'NONE', #297, 0.3149604999999999766 ) ;
#146 = CYLINDRICAL_SURFACE ( 'NONE', #255, 0.3149105000000000931 ) ;
#147 = ORIENTED_EDGE ( 'NONE', *, *, #320, .T. ) ;
#148 = FACE_OUTER_BOUND ( 'NONE', #31, .T. ) ;
#149 = ORIENTED_EDGE ( 'NONE', *, *, #137, .T. ) ;
#150 = PRESENTATION_LAYER_ASSIGNMENT (  '', '', ( #323 ) ) ;
#151 = AXIS2_PLACEMENT_3D ( 'NONE', #104, #234, #281 ) ;
#152 = PRODUCT_DEFINITION_FORMATION_WITH_SPECIFIED_SOURCE ( 'ANY', '', #222, .NOT_KNOWN. ) ;
#153 = CARTESIAN_POINT ( 'NONE',  ( 0.3149105000000001486, 3.856541358428927472E-17, 1.377952999999999983 ) ) ;
#154 = ORIENTED_EDGE ( 'NONE', *, *, #205, .F. ) ;
#155 = DIRECTION ( 'NONE',  ( -1.000000000000000000, 0.0000000000000000000, 0.0000000000000000000 ) ) ;
#156 = EDGE_LOOP ( 'NONE', ( #35, #54, #78, #80 ) ) ;
#157 = LENGTH_MEASURE_WITH_UNIT ( LENGTH_MEASURE( 0.02539999999999999897 ), #128 );
#158 = EDGE_LOOP ( 'NONE', ( #206, #228, #224, #253 ) ) ;
#159 = AXIS2_PLACEMENT_3D ( 'NONE', #168, #243, #249 ) ;
#160 = VERTEX_POINT ( 'NONE', #325 ) ;
#161 = DIRECTION ( 'NONE',  ( 1.000000000000000000, 0.0000000000000000000, 0.0000000000000000000 ) ) ;
#162 = DIRECTION ( 'NONE',  ( -0.0000000000000000000, -0.0000000000000000000, -1.000000000000000000 ) ) ;
#163 =( CONVERSION_BASED_UNIT ( 'INCH', #63 ) LENGTH_UNIT ( ) NAMED_UNIT ( #67 ) );
#164 = DIRECTION ( 'NONE',  ( 1.000000000000000000, 0.0000000000000000000, -0.0000000000000000000 ) ) ;
#165 =( GEOMETRIC_REPRESENTATION_CONTEXT ( 3 ) GLOBAL_UNCERTAINTY_ASSIGNED_CONTEXT ( ( #22 ) ) GLOBAL_UNIT_ASSIGNED_CONTEXT ( ( #230, #285, #60 ) ) REPRESENTATION_CONTEXT ( 'NONE', 'WORKASPACE' ) );
#166 = CARTESIAN_POINT ( 'NONE',  ( 0.0000000000000000000, 0.0000000000000000000, 1.707404996040164512E-17 ) ) ;
#167 = CARTESIAN_POINT ( 'NONE',  ( 0.0000000000000000000, 0.0000000000000000000, 1.707404996040164512E-17 ) ) ;
#168 = CARTESIAN_POINT ( 'NONE',  ( 0.0000000000000000000, 0.0000000000000000000, 3.622047000000000239 ) ) ;
#169 = DIRECTION ( 'NONE',  ( -0.0000000000000000000, -0.0000000000000000000, -1.000000000000000000 ) ) ;
#170 = LINE ( 'NONE', #98, #319 ) ;
#171 = PRODUCT_DEFINITION_CONTEXT ( 'detailed design', #88, 'design' ) ;
#172 = CIRCLE ( 'NONE', #232, 0.3149105000000000376 ) ;
#173 = EDGE_LOOP ( 'NONE', ( #82, #189 ) ) ;
#174 = FACE_OUTER_BOUND ( 'NONE', #48, .T. ) ;
#175 = CARTESIAN_POINT ( 'NONE',  ( 0.0000000000000000000, 0.0000000000000000000, 3.607046999999999226 ) ) ;
#176 = ORIENTED_EDGE ( 'NONE', *, *, #118, .T. ) ;
#177 = DIRECTION ( 'NONE',  ( 0.0000000000000000000, 0.0000000000000000000, 1.000000000000000000 ) ) ;
#178 = ORIENTED_EDGE ( 'NONE', *, *, #4, .T. ) ;
#179 = APPLICATION_CONTEXT ( 'automotive_design' ) ;
#180 = CARTESIAN_POINT ( 'NONE',  ( 0.0000000000000000000, 0.0000000000000000000, 1.377952999999999983 ) ) ;
#181 = FILL_AREA_STYLE ('',( #59 ) ) ;
#182 = VECTOR ( 'NONE', #207, 39.37007874015748143 ) ;
#183 = CARTESIAN_POINT ( 'NONE',  ( -0.3149604999999999766, 0.0000000000000000000, 3.607046999999999226 ) ) ;
#184 = CARTESIAN_POINT ( 'NONE',  ( 0.0000000000000000000, 0.0000000000000000000, 0.0000000000000000000 ) ) ;
#185 = SURFACE_SIDE_STYLE ('',( #87 ) ) ;
#186 = CARTESIAN_POINT ( 'NONE',  ( -0.2999604999999996857, 0.0000000000000000000, 3.622047000000000239 ) ) ;
#187 = CIRCLE ( 'NONE', #15, 0.3149604999999999766 ) ;
#188 = ADVANCED_FACE ( 'NONE', ( #148 ), #146, .T. ) ;
#189 = ORIENTED_EDGE ( 'NONE', *, *, #320, .F. ) ;
#190 = DIMENSIONAL_EXPONENTS ( 1.000000000000000000, 0.0000000000000000000, 0.0000000000000000000, 0.0000000000000000000, 0.0000000000000000000, 0.0000000000000000000, 0.0000000000000000000 ) ;
#191 = DIRECTION ( 'NONE',  ( -0.0000000000000000000, -0.0000000000000000000, -1.000000000000000000 ) ) ;
#192 = CARTESIAN_POINT ( 'NONE',  ( 0.0000000000000000000, 0.0000000000000000000, 0.1774835349267163964 ) ) ;
#193 = COLOUR_RGB ( '',0.7921568627450980005, 0.8196078431372548767, 0.9333333333333333481 ) ;
#194 = DIRECTION ( 'NONE',  ( -0.0000000000000000000, -0.0000000000000000000, -1.000000000000000000 ) ) ;
#195 = EDGE_CURVE ( 'NONE', #307, #274, #299, .T. ) ;
#196 = CIRCLE ( 'NONE', #284, 0.3149604999999999766 ) ;
#197 = DIRECTION ( 'NONE',  ( -0.0000000000000000000, -0.0000000000000000000, -1.000000000000000000 ) ) ;
#198 = UNCERTAINTY_MEASURE_WITH_UNIT (LENGTH_MEASURE( 1.000000000000000082E-05 ), #163, 'distance_accuracy_value', 'NONE');
#199 = EDGE_CURVE ( 'NONE', #160, #209, #143, .T. ) ;
#200 = EDGE_LOOP ( 'NONE', ( #50, #247, #257, #29 ) ) ;
#201 = CARTESIAN_POINT ( 'NONE',  ( 0.2999604999999996857, 3.673456661956392842E-17, 3.622047000000000239 ) ) ;
#202 = ORIENTED_EDGE ( 'NONE', *, *, #32, .T. ) ;
#203 = EDGE_LOOP ( 'NONE', ( #7, #176, #132, #125 ) ) ;
#204 = VECTOR ( 'NONE', #291, 39.37007874015748143 ) ;
#205 = EDGE_CURVE ( 'NONE', #74, #306, #145, .T. ) ;
#206 = ORIENTED_EDGE ( 'NONE', *, *, #260, .T. ) ;
#207 = DIRECTION ( 'NONE',  ( -0.0000000000000000000, -0.0000000000000000000, -1.000000000000000000 ) ) ;
#208 = EDGE_CURVE ( 'NONE', #226, #24, #187, .T. ) ;
#209 = VERTEX_POINT ( 'NONE', #72 ) ;
#210 = CIRCLE ( 'NONE', #134, 0.007499999999999999722 ) ;
#211 = FILL_AREA_STYLE_COLOUR ( '', #193 ) ;
#212 = CARTESIAN_POINT ( 'NONE',  ( 0.3149604999999999766, 3.857153681828499730E-17, 1.377952999999999983 ) ) ;
#213 =( NAMED_UNIT ( * ) SI_UNIT ( $, .STERADIAN. ) SOLID_ANGLE_UNIT ( ) );
#214 =( CONVERSION_BASED_UNIT ( 'INCH', #236 ) LENGTH_UNIT ( ) NAMED_UNIT ( #130 ) );
#215 = ADVANCED_FACE ( 'NONE', ( #174 ), #220, .T. ) ;
#216 = CONICAL_SURFACE ( 'NONE', #40, 0.2999604999999996857, 0.7853981633974324028 ) ;
#217 = DIRECTION ( 'NONE',  ( -0.0000000000000000000, -0.0000000000000000000, -1.000000000000000000 ) ) ;
#218 = DIRECTION ( 'NONE',  ( -0.0000000000000000000, -0.0000000000000000000, -1.000000000000000000 ) ) ;
#219 = DIRECTION ( 'NONE',  ( 0.0000000000000000000, 0.0000000000000000000, -1.000000000000000000 ) ) ;
#220 = CONICAL_SURFACE ( 'NONE', #51, 0.2999604999999996857, 0.7853981633974324028 ) ;
#221 = EDGE_CURVE ( 'NONE', #24, #226, #84, .T. ) ;
#222 = PRODUCT ( 'Micro_DMM-160-4120', 'Micro_DMM-160-4120', '', ( #96 ) ) ;
#223 = CARTESIAN_POINT ( 'NONE',  ( 0.0000000000000000000, 0.0000000000000000000, 1.377952999999999983 ) ) ;
#224 = ORIENTED_EDGE ( 'NONE', *, *, #208, .F. ) ;
#225 = FACE_OUTER_BOUND ( 'NONE', #55, .T. ) ;
#226 = VERTEX_POINT ( 'NONE', #316 ) ;
#227 = CYLINDRICAL_SURFACE ( 'NONE', #25, 0.3149105000000000931 ) ;
#228 = ORIENTED_EDGE ( 'NONE', *, *, #20, .T. ) ;
#229 = ADVANCED_FACE ( 'NONE', ( #69, #225 ), #248, .T. ) ;
#230 =( CONVERSION_BASED_UNIT ( 'INCH', #157 ) LENGTH_UNIT ( ) NAMED_UNIT ( #190 ) );
#231 = ORIENTED_EDGE ( 'NONE', *, *, #142, .T. ) ;
#232 = AXIS2_PLACEMENT_3D ( 'NONE', #95, #191, #295 ) ;
#233 = CARTESIAN_POINT ( 'NONE',  ( 0.0000000000000000000, 0.0000000000000000000, 0.0000000000000000000 ) ) ;
#234 = DIRECTION ( 'NONE',  ( 0.0000000000000000000, 0.0000000000000000000, 1.000000000000000000 ) ) ;
#235 =( NAMED_UNIT ( * ) SI_UNIT ( $, .STERADIAN. ) SOLID_ANGLE_UNIT ( ) );
#236 = LENGTH_MEASURE_WITH_UNIT ( LENGTH_MEASURE( 0.02539999999999999897 ), #129 );
#237 =( GEOMETRIC_REPRESENTATION_CONTEXT ( 3 ) GLOBAL_UNCERTAINTY_ASSIGNED_CONTEXT ( ( #93 ) ) GLOBAL_UNIT_ASSIGNED_CONTEXT ( ( #214, #239, #235 ) ) REPRESENTATION_CONTEXT ( 'NONE', 'WORKASPACE' ) );
#238 = MECHANICAL_DESIGN_GEOMETRIC_PRESENTATION_REPRESENTATION (  '', ( #52 ), #245 ) ;
#239 =( NAMED_UNIT ( * ) PLANE_ANGLE_UNIT ( ) SI_UNIT ( $, .RADIAN. ) );
#240 = CARTESIAN_POINT ( 'NONE',  ( -0.3149105000000000376, 3.856541358428926240E-17, 0.1774835349267163964 ) ) ;
#241 = FACE_OUTER_BOUND ( 'NONE', #156, .T. ) ;
#242 = CIRCLE ( 'NONE', #99, 0.007499999999999999722 ) ;
#243 = DIRECTION ( 'NONE',  ( 0.0000000000000000000, 0.0000000000000000000, 1.000000000000000000 ) ) ;
#244 = DIRECTION ( 'NONE',  ( -1.000000000000000000, 0.0000000000000000000, 0.0000000000000000000 ) ) ;
#245 =( GEOMETRIC_REPRESENTATION_CONTEXT ( 3 ) GLOBAL_UNCERTAINTY_ASSIGNED_CONTEXT ( ( #198 ) ) GLOBAL_UNIT_ASSIGNED_CONTEXT ( ( #163, #39, #213 ) ) REPRESENTATION_CONTEXT ( 'NONE', 'WORKASPACE' ) );
#246 = CARTESIAN_POINT ( 'NONE',  ( 0.007499999999999999722, 0.0000000000000000000, 1.707404996040164512E-17 ) ) ;
#247 = ORIENTED_EDGE ( 'NONE', *, *, #310, .T. ) ;
#248 = PLANE ( 'NONE',  #76 ) ;
#249 = DIRECTION ( 'NONE',  ( 1.000000000000000000, 0.0000000000000000000, 0.0000000000000000000 ) ) ;
#250 = EDGE_CURVE ( 'NONE', #329, #74, #102, .T. ) ;
#251 = ORIENTED_EDGE ( 'NONE', *, *, #221, .T. ) ;
#252 = PLANE ( 'NONE',  #324 ) ;
#253 = ORIENTED_EDGE ( 'NONE', *, *, #5, .F. ) ;
#254 = ORIENTED_EDGE ( 'NONE', *, *, #117, .F. ) ;
#255 = AXIS2_PLACEMENT_3D ( 'NONE', #327, #101, #68 ) ;
#256 = DIRECTION ( 'NONE',  ( 1.000000000000000000, 0.0000000000000000000, -0.0000000000000000000 ) ) ;
#257 = ORIENTED_EDGE ( 'NONE', *, *, #279, .F. ) ;
#258 = SURFACE_SIDE_STYLE ('',( #9 ) ) ;
#259 = CARTESIAN_POINT ( 'NONE',  ( 0.3149604999999999766, 3.857153681828499730E-17, 3.622047000000000239 ) ) ;
#260 = EDGE_CURVE ( 'NONE', #306, #74, #196, .T. ) ;
#261 = CARTESIAN_POINT ( 'NONE',  ( 0.0000000000000000000, 0.0000000000000000000, 1.707404996040164512E-17 ) ) ;
#262 = VECTOR ( 'NONE', #162, 39.37007874015748143 ) ;
#263 = CIRCLE ( 'NONE', #315, 0.3149105000000000376 ) ;
#264 = DIRECTION ( 'NONE',  ( -0.0000000000000000000, -0.0000000000000000000, -1.000000000000000000 ) ) ;
#265 = DIRECTION ( 'NONE',  ( -1.000000000000000000, 0.0000000000000000000, 0.0000000000000000000 ) ) ;
#266 = DIRECTION ( 'NONE',  ( -0.0000000000000000000, -0.0000000000000000000, -1.000000000000000000 ) ) ;
#267 = ADVANCED_BREP_SHAPE_REPRESENTATION ( 'Micro_DMM-160-4120', ( #17, #106 ), #165 ) ;
#268 = VECTOR ( 'NONE', #194, 39.37007874015748143 ) ;
#269 = DIRECTION ( 'NONE',  ( 0.8660254037844398178, 0.0000000000000000000, 0.4999999999999977240 ) ) ;
#270 = PRODUCT_DEFINITION ( 'UNKNOWN', '', #152, #171 ) ;
#271 = LINE ( 'NONE', #44, #268 ) ;
#272 = EDGE_LOOP ( 'NONE', ( #27, #280, #109, #231 ) ) ;
#273 = DIRECTION ( 'NONE',  ( -1.000000000000000000, 0.0000000000000000000, 0.0000000000000000000 ) ) ;
#274 = VERTEX_POINT ( 'NONE', #153 ) ;
#275 = DIRECTION ( 'NONE',  ( 0.0000000000000000000, 0.0000000000000000000, -1.000000000000000000 ) ) ;
#276 = ORIENTED_EDGE ( 'NONE', *, *, #30, .F. ) ;
#277 = ORIENTED_EDGE ( 'NONE', *, *, #250, .T. ) ;
#278 = CARTESIAN_POINT ( 'NONE',  ( -0.2999604999999996857, 0.0000000000000000000, 3.622047000000000239 ) ) ;
#279 = EDGE_CURVE ( 'NONE', #56, #209, #172, .T. ) ;
#280 = ORIENTED_EDGE ( 'NONE', *, *, #32, .F. ) ;
#281 = DIRECTION ( 'NONE',  ( 1.000000000000000000, 0.0000000000000000000, 0.0000000000000000000 ) ) ;
#282 = VECTOR ( 'NONE', #65, 39.37007874015748143 ) ;
#283 = DIRECTION ( 'NONE',  ( -1.000000000000000000, 0.0000000000000000000, 0.0000000000000000000 ) ) ;
#284 = AXIS2_PLACEMENT_3D ( 'NONE', #175, #275, #53 ) ;
#285 =( NAMED_UNIT ( * ) PLANE_ANGLE_UNIT ( ) SI_UNIT ( $, .RADIAN. ) );
#286 = DIRECTION ( 'NONE',  ( 0.0000000000000000000, 0.0000000000000000000, 1.000000000000000000 ) ) ;
#287 = SURFACE_STYLE_USAGE ( .BOTH. , #258 ) ;
#288 = VERTEX_POINT ( 'NONE', #278 ) ;
#289 = CARTESIAN_POINT ( 'NONE',  ( 0.0000000000000000000, 0.0000000000000000000, 0.0000000000000000000 ) ) ;
#290 = EDGE_CURVE ( 'NONE', #288, #329, #139, .T. ) ;
#291 = DIRECTION ( 'NONE',  ( -0.7071067811865362485, 0.0000000000000000000, -0.7071067811865587860 ) ) ;
#292 = AXIS2_PLACEMENT_3D ( 'NONE', #317, #169, #47 ) ;
#293 = DIRECTION ( 'NONE',  ( 0.0000000000000000000, 0.0000000000000000000, 1.000000000000000000 ) ) ;
#294 = CARTESIAN_POINT ( 'NONE',  ( -0.007499999999999999722, 1.974194934182489380E-17, 1.707404996040164512E-17 ) ) ;
#295 = DIRECTION ( 'NONE',  ( -1.000000000000000000, 0.0000000000000000000, 0.0000000000000000000 ) ) ;
#296 = CARTESIAN_POINT ( 'NONE',  ( 0.0000000000000000000, 0.0000000000000000000, 1.377952999999999983 ) ) ;
#297 = AXIS2_PLACEMENT_3D ( 'NONE', #119, #140, #115 ) ;
#298 = CARTESIAN_POINT ( 'NONE',  ( 0.0000000000000000000, 0.0000000000000000000, 1.377952999999999983 ) ) ;
#299 = CIRCLE ( 'NONE', #113, 0.3149105000000001486 ) ;
#300 = ADVANCED_FACE ( 'NONE', ( #308 ), #252, .T. ) ;
#301 = DIRECTION ( 'NONE',  ( -1.000000000000000000, 0.0000000000000000000, 0.0000000000000000000 ) ) ;
#302 = ORIENTED_EDGE ( 'NONE', *, *, #290, .F. ) ;
#303 = DIRECTION ( 'NONE',  ( 0.7071067811865362485, 8.659560562354796040E-17, -0.7071067811865587860 ) ) ;
#304 = CARTESIAN_POINT ( 'NONE',  ( 0.3149105000000000931, 3.856541358428926856E-17, 0.0000000000000000000 ) ) ;
#305 = CONICAL_SURFACE ( 'NONE', #151, 0.007499999999999999722, 1.047197551196600296 ) ;
#306 = VERTEX_POINT ( 'NONE', #183 ) ;
#307 = VERTEX_POINT ( 'NONE', #33 ) ;
#308 = FACE_OUTER_BOUND ( 'NONE', #122, .T. ) ;
#309 = ORIENTED_EDGE ( 'NONE', *, *, #290, .T. ) ;
#310 = EDGE_CURVE ( 'NONE', #274, #209, #81, .T. ) ;
#311 = AXIS2_PLACEMENT_3D ( 'NONE', #6, #108, #161 ) ;
#312 = ADVANCED_FACE ( 'NONE', ( #79 ), #305, .T. ) ;
#313 = SHAPE_DEFINITION_REPRESENTATION ( #321, #267 ) ;
#314 = CARTESIAN_POINT ( 'NONE',  ( 0.3149604999999999766, 3.857153681828499730E-17, 3.607046999999999226 ) ) ;
#315 = AXIS2_PLACEMENT_3D ( 'NONE', #192, #266, #23 ) ;
#316 = CARTESIAN_POINT ( 'NONE',  ( -0.3149604999999999766, 0.0000000000000000000, 1.377952999999999983 ) ) ;
#317 = CARTESIAN_POINT ( 'NONE',  ( 0.0000000000000000000, 0.0000000000000000000, 3.622047000000000239 ) ) ;
#318 = FACE_OUTER_BOUND ( 'NONE', #326, .T. ) ;
#319 = VECTOR ( 'NONE', #73, 39.37007874015748143 ) ;
#320 = EDGE_CURVE ( 'NONE', #274, #307, #92, .T. ) ;
#321 = PRODUCT_DEFINITION_SHAPE ( 'NONE', 'NONE',  #270 ) ;
#322 = ADVANCED_FACE ( 'NONE', ( #131 ), #227, .T. ) ;
#323 = STYLED_ITEM ( 'NONE', ( #41 ), #17 ) ;
#324 = AXIS2_PLACEMENT_3D ( 'NONE', #107, #177, #256 ) ;
#325 = CARTESIAN_POINT ( 'NONE',  ( 0.007499999999999999722, 0.0000000000000000000, 1.707404996040164512E-17 ) ) ;
#326 = EDGE_LOOP ( 'NONE', ( #3, #302, #105, #154 ) ) ;
#327 = CARTESIAN_POINT ( 'NONE',  ( 0.0000000000000000000, 0.0000000000000000000, 0.0000000000000000000 ) ) ;
#328 = ORIENTED_EDGE ( 'NONE', *, *, #260, .F. ) ;
#329 = VERTEX_POINT ( 'NONE', #8 ) ;
ENDSEC;
END-ISO-10303-21;
