ISO-10303-21;
HEADER;
FILE_DESCRIPTION (( 'STEP AP214' ),
    '1' );
FILE_NAME ('81644.STEP',
    '2023-06-23T02:23:13',
    ( '' ),
    ( '' ),
    'SwSTEP 2.0',
    'SolidWorks 2023',
    '' );
FILE_SCHEMA (( 'AUTOMOTIVE_DESIGN' ));
ENDSEC;

DATA;
#1 = DIRECTION ( 'NONE',  ( 0.000000000000000000, 0.000000000000000000, -1.000000000000000000 ) ) ;
#2 = APPLICATION_CONTEXT ( 'automotive_design' ) ;
#3 = MECHANICAL_DESIGN_GEOMETRIC_PRESENTATION_REPRESENTATION (  '', ( #16 ), #177 ) ;
#4 = PRESENTATION_STYLE_ASSIGNMENT (( #125 ) ) ;
#5 = FILL_AREA_STYLE ('',( #81 ) ) ;
#6 = EDGE_CURVE ( 'NONE', #97, #24, #44, .T. ) ;
#7 = MECHANICAL_DESIGN_GEOMETRIC_PRESENTATION_REPRESENTATION (  '', ( #241 ), #25 ) ;
#8 = EDGE_LOOP ( 'NONE', ( #182, #281 ) ) ;
#9 = EDGE_CURVE ( 'NONE', #240, #265, #57, .T. ) ;
#10 = PRESENTATION_STYLE_ASSIGNMENT (( #226 ) ) ;
#11 = MECHANICAL_DESIGN_GEOMETRIC_PRESENTATION_REPRESENTATION (  '', ( #262 ), #306 ) ;
#12 = LINE ( 'NONE', #251, #191 ) ;
#13 = FILL_AREA_STYLE ('',( #224 ) ) ;
#14 = PRESENTATION_STYLE_ASSIGNMENT (( #301 ) ) ;
#15 = EDGE_CURVE ( 'NONE', #216, #97, #121, .T. ) ;
#16 = STYLED_ITEM ( 'NONE', ( #43 ), #102 ) ;
#17 = AXIS2_PLACEMENT_3D ( 'NONE', #261, #239, #45 ) ;
#18 = FILL_AREA_STYLE ('',( #186 ) ) ;
#19 = CARTESIAN_POINT ( 'NONE',  ( -6.123233995736772199E-17, 3.000000000000000444, 0.000000000000000000 ) ) ;
#20 = CARTESIAN_POINT ( 'NONE',  ( 1.562249773606105096E-34, 1.500000000000000222, 0.000000000000000000 ) ) ;
#21 = SURFACE_SIDE_STYLE ('',( #231 ) ) ;
#22 = ORIENTED_EDGE ( 'NONE', *, *, #6, .T. ) ;
#23 = FILL_AREA_STYLE_COLOUR ( '', #126 ) ;
#24 = VERTEX_POINT ( 'NONE', #53 ) ;
#25 =( GEOMETRIC_REPRESENTATION_CONTEXT ( 3 ) GLOBAL_UNCERTAINTY_ASSIGNED_CONTEXT ( ( #294 ) ) GLOBAL_UNIT_ASSIGNED_CONTEXT ( ( #295, #65, #228 ) ) REPRESENTATION_CONTEXT ( 'NONE', 'WORKASPACE' ) );
#26 = CARTESIAN_POINT ( 'NONE',  ( -6.123233995736772199E-17, 3.000000000000000444, 0.000000000000000000 ) ) ;
#27 = FACE_OUTER_BOUND ( 'NONE', #252, .T. ) ;
#28 = STYLED_ITEM ( 'NONE', ( #14 ), #278 ) ;
#29 =( NAMED_UNIT ( * ) SI_UNIT ( $, .STERADIAN. ) SOLID_ANGLE_UNIT ( ) );
#30 = SURFACE_STYLE_FILL_AREA ( #5 ) ;
#31 = COLOUR_RGB ( '',0.7921568627450980005, 0.8196078431372548767, 0.9333333333333333481 ) ;
#32 = COLOUR_RGB ( '',1.000000000000000000, 0.000000000000000000, 0.000000000000000000 ) ;
#33 = FILL_AREA_STYLE_COLOUR ( '', #286 ) ;
#34 = ORIENTED_EDGE ( 'NONE', *, *, #253, .F. ) ;
#35 = PLANE ( 'NONE',  #17 ) ;
#36 = ORIENTED_EDGE ( 'NONE', *, *, #230, .T. ) ;
#37 = DIMENSIONAL_EXPONENTS ( 1.000000000000000000, 0.000000000000000000, 0.000000000000000000, 0.000000000000000000, 0.000000000000000000, 0.000000000000000000, 0.000000000000000000 ) ;
#38 = PRODUCT ( '81644', '81644', '', ( #145 ) ) ;
#39 = ORIENTED_EDGE ( 'NONE', *, *, #253, .T. ) ;
#40 =( CONVERSION_BASED_UNIT ( 'INCH', #183 ) LENGTH_UNIT ( ) NAMED_UNIT ( #71 ) );
#41 = UNCERTAINTY_MEASURE_WITH_UNIT (LENGTH_MEASURE( 1.000000000000000082E-05 ), #236, 'distance_accuracy_value', 'NONE');
#42 =( NAMED_UNIT ( * ) SI_UNIT ( $, .STERADIAN. ) SOLID_ANGLE_UNIT ( ) );
#43 = PRESENTATION_STYLE_ASSIGNMENT (( #77 ) ) ;
#44 = CIRCLE ( 'NONE', #136, 0.1875000000000000833 ) ;
#45 = DIRECTION ( 'NONE',  ( 0.000000000000000000, -0.000000000000000000, 1.000000000000000000 ) ) ;
#46 = ORIENTED_EDGE ( 'NONE', *, *, #9, .T. ) ;
#47 = ADVANCED_FACE ( 'NONE', ( #263 ), #143, .F. ) ;
#48 = ORIENTED_EDGE ( 'NONE', *, *, #176, .F. ) ;
#49 = CARTESIAN_POINT ( 'NONE',  ( -6.123233995736772199E-17, 3.000000000000000444, 0.000000000000000000 ) ) ;
#50 = DIRECTION ( 'NONE',  ( -4.082155997157848133E-17, 1.000000000000000000, 0.000000000000000000 ) ) ;
#51 =( NAMED_UNIT ( * ) SI_UNIT ( $, .STERADIAN. ) SOLID_ANGLE_UNIT ( ) );
#52 = AXIS2_PLACEMENT_3D ( 'NONE', #20, #50, #169 ) ;
#53 = CARTESIAN_POINT ( 'NONE',  ( -0.1875000000000001388, 3.000000000000000444, 0.000000000000000000 ) ) ;
#54 =( GEOMETRIC_REPRESENTATION_CONTEXT ( 3 ) GLOBAL_UNCERTAINTY_ASSIGNED_CONTEXT ( ( #156 ) ) GLOBAL_UNIT_ASSIGNED_CONTEXT ( ( #40, #160, #272 ) ) REPRESENTATION_CONTEXT ( 'NONE', 'WORKASPACE' ) );
#55 = EDGE_CURVE ( 'NONE', #216, #130, #219, .T. ) ;
#56 = LENGTH_MEASURE_WITH_UNIT ( LENGTH_MEASURE( 0.02539999999999999897 ), #146 );
#57 = CIRCLE ( 'NONE', #287, 0.1875000000000000278 ) ;
#58 = CIRCLE ( 'NONE', #209, 0.1875000000000000833 ) ;
#59 = PRODUCT_RELATED_PRODUCT_CATEGORY ( 'part', '', ( #38 ) ) ;
#60 = LENGTH_MEASURE_WITH_UNIT ( LENGTH_MEASURE( 0.02539999999999999897 ), #199 );
#61 = CARTESIAN_POINT ( 'NONE',  ( -0.1875000000000000278, 1.500000000000000222, 0.000000000000000000 ) ) ;
#62 = CARTESIAN_POINT ( 'NONE',  ( 0.000000000000000000, 0.000000000000000000, 0.000000000000000000 ) ) ;
#63 = AXIS2_PLACEMENT_3D ( 'NONE', #74, #215, #305 ) ;
#64 = SURFACE_STYLE_FILL_AREA ( #205 ) ;
#65 =( NAMED_UNIT ( * ) PLANE_ANGLE_UNIT ( ) SI_UNIT ( $, .RADIAN. ) );
#66 = ORIENTED_EDGE ( 'NONE', *, *, #82, .F. ) ;
#67 = DIRECTION ( 'NONE',  ( -1.000000000000000000, 0.000000000000000000, 0.000000000000000000 ) ) ;
#68 = ADVANCED_FACE ( 'NONE', ( #242 ), #211, .T. ) ;
#69 = AXIS2_PLACEMENT_3D ( 'NONE', #131, #290, #86 ) ;
#70 = SURFACE_STYLE_FILL_AREA ( #13 ) ;
#71 = DIMENSIONAL_EXPONENTS ( 1.000000000000000000, 0.000000000000000000, 0.000000000000000000, 0.000000000000000000, 0.000000000000000000, 0.000000000000000000, 0.000000000000000000 ) ;
#72 = FACE_OUTER_BOUND ( 'NONE', #93, .T. ) ;
#73 = CARTESIAN_POINT ( 'NONE',  ( 7.582401355855259480E-33, 1.500000000000000222, 0.000000000000000000 ) ) ;
#74 = CARTESIAN_POINT ( 'NONE',  ( 0.000000000000000000, 0.000000000000000000, 0.000000000000000000 ) ) ;
#75 =( LENGTH_UNIT ( ) NAMED_UNIT ( * ) SI_UNIT ( $, .METRE. ) );
#76 = DIRECTION ( 'NONE',  ( -0.000000000000000000, -1.000000000000000000, -0.000000000000000000 ) ) ;
#77 = SURFACE_STYLE_USAGE ( .BOTH. , #259 ) ;
#78 = CARTESIAN_POINT ( 'NONE',  ( 0.000000000000000000, 1.500000000000000222, -0.1875000000000000278 ) ) ;
#79 = CARTESIAN_POINT ( 'NONE',  ( 0.000000000000000000, 1.500000000000000222, 0.000000000000000000 ) ) ;
#80 = PLANE ( 'NONE',  #119 ) ;
#81 = FILL_AREA_STYLE_COLOUR ( '', #174 ) ;
#82 = EDGE_CURVE ( 'NONE', #265, #240, #113, .T. ) ;
#83 = SURFACE_STYLE_USAGE ( .BOTH. , #269 ) ;
#84 = STYLED_ITEM ( 'NONE', ( #4 ), #107 ) ;
#85 = DIRECTION ( 'NONE',  ( 0.000000000000000000, 0.000000000000000000, -1.000000000000000000 ) ) ;
#86 = DIRECTION ( 'NONE',  ( 0.000000000000000000, 0.000000000000000000, -1.000000000000000000 ) ) ;
#87 = ORIENTED_EDGE ( 'NONE', *, *, #6, .F. ) ;
#88 = DIRECTION ( 'NONE',  ( -0.000000000000000000, -1.000000000000000000, -0.000000000000000000 ) ) ;
#89 = LENGTH_MEASURE_WITH_UNIT ( LENGTH_MEASURE( 0.02539999999999999897 ), #111 );
#90 = VERTEX_POINT ( 'NONE', #96 ) ;
#91 = CYLINDRICAL_SURFACE ( 'NONE', #159, 0.1875000000000000555 ) ;
#92 = CARTESIAN_POINT ( 'NONE',  ( 0.1875000000000000278, 3.000000000000000444, 2.296212748401288342E-17 ) ) ;
#93 = EDGE_LOOP ( 'NONE', ( #309, #233, #112, #168 ) ) ;
#94 =( NAMED_UNIT ( * ) PLANE_ANGLE_UNIT ( ) SI_UNIT ( $, .RADIAN. ) );
#95 = MECHANICAL_DESIGN_GEOMETRIC_PRESENTATION_REPRESENTATION (  '', ( #245 ), #54 ) ;
#96 = CARTESIAN_POINT ( 'NONE',  ( 2.296212748401287726E-17, 0.000000000000000000, 0.1875000000000000278 ) ) ;
#97 = VERTEX_POINT ( 'NONE', #92 ) ;
#98 = DIRECTION ( 'NONE',  ( 1.000000000000000000, 0.000000000000000000, 0.000000000000000000 ) ) ;
#99 = FILL_AREA_STYLE ('',( #268 ) ) ;
#100 = AXIS2_PLACEMENT_3D ( 'NONE', #200, #289, #85 ) ;
#101 =( CONVERSION_BASED_UNIT ( 'INCH', #56 ) LENGTH_UNIT ( ) NAMED_UNIT ( #207 ) );
#102 = MANIFOLD_SOLID_BREP ( 'Revolve - Cutting Edge', #184 ) ;
#103 = PRESENTATION_LAYER_ASSIGNMENT (  '', '', ( #241 ) ) ;
#104 = ADVANCED_BREP_SHAPE_REPRESENTATION ( '81644', ( #102, #105, #293 ), #179 ) ;
#105 = MANIFOLD_SOLID_BREP ( 'Revolve - Tool Body (Straight Shanked)', #277 ) ;
#106 = APPLICATION_CONTEXT ( 'automotive_design' ) ;
#107 = ADVANCED_FACE ( 'NONE', ( #27 ), #283, .T. ) ;
#108 = FACE_OUTER_BOUND ( 'NONE', #292, .T. ) ;
#109 = ORIENTED_EDGE ( 'NONE', *, *, #189, .T. ) ;
#110 = UNCERTAINTY_MEASURE_WITH_UNIT (LENGTH_MEASURE( 1.000000000000000082E-05 ), #304, 'distance_accuracy_value', 'NONE');
#111 =( LENGTH_UNIT ( ) NAMED_UNIT ( * ) SI_UNIT ( $, .METRE. ) );
#112 = ORIENTED_EDGE ( 'NONE', *, *, #300, .F. ) ;
#113 = CIRCLE ( 'NONE', #154, 0.1875000000000000278 ) ;
#114 = PRESENTATION_LAYER_ASSIGNMENT (  '', '', ( #28 ) ) ;
#115 =( CONVERSION_BASED_UNIT ( 'INCH', #161 ) LENGTH_UNIT ( ) NAMED_UNIT ( #37 ) );
#116 = CYLINDRICAL_SURFACE ( 'NONE', #63, 0.1875000000000000278 ) ;
#117 = ORIENTED_EDGE ( 'NONE', *, *, #15, .F. ) ;
#118 = FILL_AREA_STYLE ('',( #23 ) ) ;
#119 = AXIS2_PLACEMENT_3D ( 'NONE', #223, #195, #171 ) ;
#120 = ORIENTED_EDGE ( 'NONE', *, *, #296, .F. ) ;
#121 = LINE ( 'NONE', #266, #270 ) ;
#122 = DIRECTION ( 'NONE',  ( 0.000000000000000000, 0.000000000000000000, 1.000000000000000000 ) ) ;
#123 =( NAMED_UNIT ( * ) PLANE_ANGLE_UNIT ( ) SI_UNIT ( $, .RADIAN. ) );
#124 =( NAMED_UNIT ( * ) PLANE_ANGLE_UNIT ( ) SI_UNIT ( $, .RADIAN. ) );
#125 = SURFACE_STYLE_USAGE ( .BOTH. , #247 ) ;
#126 = COLOUR_RGB ( '',1.000000000000000000, 0.000000000000000000, 0.000000000000000000 ) ;
#127 = UNCERTAINTY_MEASURE_WITH_UNIT (LENGTH_MEASURE( 1.000000000000000082E-05 ), #115, 'distance_accuracy_value', 'NONE');
#128 = CARTESIAN_POINT ( 'NONE',  ( 0.000000000000000000, 0.000000000000000000, -0.1875000000000000278 ) ) ;
#129 = PLANE ( 'NONE',  #69 ) ;
#130 = VERTEX_POINT ( 'NONE', #61 ) ;
#131 = CARTESIAN_POINT ( 'NONE',  ( 0.000000000000000000, 0.000000000000000000, 0.000000000000000000 ) ) ;
#132 = CIRCLE ( 'NONE', #197, 0.1875000000000000278 ) ;
#133 = SURFACE_STYLE_USAGE ( .BOTH. , #206 ) ;
#134 = DIRECTION ( 'NONE',  ( -4.082155997157848133E-17, 1.000000000000000000, -0.000000000000000000 ) ) ;
#135 = DIRECTION ( 'NONE',  ( -4.082155997157848133E-17, 1.000000000000000000, -0.000000000000000000 ) ) ;
#136 = AXIS2_PLACEMENT_3D ( 'NONE', #139, #135, #141 ) ;
#137 = DIRECTION ( 'NONE',  ( -4.082155997157848133E-17, 1.000000000000000000, -0.000000000000000000 ) ) ;
#138 = DIRECTION ( 'NONE',  ( -1.000000000000000000, 0.000000000000000000, 0.000000000000000000 ) ) ;
#139 = CARTESIAN_POINT ( 'NONE',  ( -6.123233995736772199E-17, 3.000000000000000444, 0.000000000000000000 ) ) ;
#140 = CARTESIAN_POINT ( 'NONE',  ( 0.000000000000000000, 0.000000000000000000, -0.1875000000000000278 ) ) ;
#141 = DIRECTION ( 'NONE',  ( -1.000000000000000000, 0.000000000000000000, 0.000000000000000000 ) ) ;
#142 = MECHANICAL_DESIGN_GEOMETRIC_PRESENTATION_REPRESENTATION (  '', ( #84 ), #234 ) ;
#143 = PLANE ( 'NONE',  #52 ) ;
#144 = PRODUCT_DEFINITION_CONTEXT ( 'detailed design', #106, 'design' ) ;
#145 = PRODUCT_CONTEXT ( 'NONE', #2, 'mechanical' ) ;
#146 =( LENGTH_UNIT ( ) NAMED_UNIT ( * ) SI_UNIT ( $, .METRE. ) );
#147 =( NAMED_UNIT ( * ) PLANE_ANGLE_UNIT ( ) SI_UNIT ( $, .RADIAN. ) );
#148 = CARTESIAN_POINT ( 'NONE',  ( 0.000000000000000000, 0.000000000000000000, 0.000000000000000000 ) ) ;
#149 = PRESENTATION_LAYER_ASSIGNMENT (  '', '', ( #262 ) ) ;
#150 = PRODUCT_DEFINITION_SHAPE ( 'NONE', 'NONE',  #222 ) ;
#151 = FACE_OUTER_BOUND ( 'NONE', #273, .T. ) ;
#152 = DIMENSIONAL_EXPONENTS ( 1.000000000000000000, 0.000000000000000000, 0.000000000000000000, 0.000000000000000000, 0.000000000000000000, 0.000000000000000000, 0.000000000000000000 ) ;
#153 = CARTESIAN_POINT ( 'NONE',  ( 7.582401355855259480E-33, 1.500000000000000222, 0.000000000000000000 ) ) ;
#154 = AXIS2_PLACEMENT_3D ( 'NONE', #237, #213, #1 ) ;
#155 = MECHANICAL_DESIGN_GEOMETRIC_PRESENTATION_REPRESENTATION (  '', ( #28 ), #235 ) ;
#156 = UNCERTAINTY_MEASURE_WITH_UNIT (LENGTH_MEASURE( 1.000000000000000082E-05 ), #40, 'distance_accuracy_value', 'NONE');
#157 =( LENGTH_UNIT ( ) NAMED_UNIT ( * ) SI_UNIT ( $, .METRE. ) );
#158 = DIRECTION ( 'NONE',  ( 0.000000000000000000, 0.000000000000000000, -1.000000000000000000 ) ) ;
#159 = AXIS2_PLACEMENT_3D ( 'NONE', #19, #137, #258 ) ;
#160 =( NAMED_UNIT ( * ) PLANE_ANGLE_UNIT ( ) SI_UNIT ( $, .RADIAN. ) );
#161 = LENGTH_MEASURE_WITH_UNIT ( LENGTH_MEASURE( 0.02539999999999999897 ), #165 );
#162 = SURFACE_STYLE_FILL_AREA ( #18 ) ;
#163 = LENGTH_MEASURE_WITH_UNIT ( LENGTH_MEASURE( 0.02539999999999999897 ), #308 );
#164 = AXIS2_PLACEMENT_3D ( 'NONE', #62, #88, #291 ) ;
#165 =( LENGTH_UNIT ( ) NAMED_UNIT ( * ) SI_UNIT ( $, .METRE. ) );
#166 = DIRECTION ( 'NONE',  ( -1.000000000000000000, 0.000000000000000000, 0.000000000000000000 ) ) ;
#167 = ADVANCED_FACE ( 'NONE', ( #151 ), #80, .F. ) ;
#168 = ORIENTED_EDGE ( 'NONE', *, *, #230, .F. ) ;
#169 = DIRECTION ( 'NONE',  ( -1.000000000000000000, -4.082155997157848133E-17, 0.000000000000000000 ) ) ;
#170 = AXIS2_PLACEMENT_3D ( 'NONE', #73, #192, #138 ) ;
#171 = DIRECTION ( 'NONE',  ( 1.000000000000000000, 4.082155997157848133E-17, 0.000000000000000000 ) ) ;
#172 = UNCERTAINTY_MEASURE_WITH_UNIT (LENGTH_MEASURE( 1.000000000000000082E-05 ), #175, 'distance_accuracy_value', 'NONE');
#173 = SHAPE_DEFINITION_REPRESENTATION ( #150, #104 ) ;
#174 = COLOUR_RGB ( '',1.000000000000000000, 0.000000000000000000, 0.000000000000000000 ) ;
#175 =( CONVERSION_BASED_UNIT ( 'INCH', #60 ) LENGTH_UNIT ( ) NAMED_UNIT ( #274 ) );
#176 = EDGE_CURVE ( 'NONE', #302, #90, #132, .T. ) ;
#177 =( GEOMETRIC_REPRESENTATION_CONTEXT ( 3 ) GLOBAL_UNCERTAINTY_ASSIGNED_CONTEXT ( ( #110 ) ) GLOBAL_UNIT_ASSIGNED_CONTEXT ( ( #304, #124, #285 ) ) REPRESENTATION_CONTEXT ( 'NONE', 'WORKASPACE' ) );
#178 = ADVANCED_FACE ( 'NONE', ( #108 ), #129, .T. ) ;
#179 =( GEOMETRIC_REPRESENTATION_CONTEXT ( 3 ) GLOBAL_UNCERTAINTY_ASSIGNED_CONTEXT ( ( #41 ) ) GLOBAL_UNIT_ASSIGNED_CONTEXT ( ( #236, #303, #51 ) ) REPRESENTATION_CONTEXT ( 'NONE', 'WORKASPACE' ) );
#180 = ORIENTED_EDGE ( 'NONE', *, *, #9, .F. ) ;
#181 = DIRECTION ( 'NONE',  ( -4.082155997157848133E-17, 1.000000000000000000, -0.000000000000000000 ) ) ;
#182 = ORIENTED_EDGE ( 'NONE', *, *, #250, .F. ) ;
#183 = LENGTH_MEASURE_WITH_UNIT ( LENGTH_MEASURE( 0.02539999999999999897 ), #157 );
#184 = CLOSED_SHELL ( 'NONE', ( #107, #260, #278, #178 ) ) ;
#185 = CIRCLE ( 'NONE', #164, 0.1875000000000000278 ) ;
#186 = FILL_AREA_STYLE_COLOUR ( '', #31 ) ;
#187 = EDGE_LOOP ( 'NONE', ( #117, #208, #36, #87 ) ) ;
#188 = CARTESIAN_POINT ( 'NONE',  ( 2.296212748401287726E-17, 0.000000000000000000, 0.1875000000000000278 ) ) ;
#189 = EDGE_CURVE ( 'NONE', #90, #302, #185, .T. ) ;
#190 = AXIS2_PLACEMENT_3D ( 'NONE', #26, #217, #166 ) ;
#191 = VECTOR ( 'NONE', #271, 39.37007874015748143 ) ;
#192 = DIRECTION ( 'NONE',  ( -4.082155997157848133E-17, 1.000000000000000000, -0.000000000000000000 ) ) ;
#193 = FACE_OUTER_BOUND ( 'NONE', #297, .T. ) ;
#194 = ORIENTED_EDGE ( 'NONE', *, *, #189, .F. ) ;
#195 = DIRECTION ( 'NONE',  ( 4.082155997157848133E-17, -1.000000000000000000, 0.000000000000000000 ) ) ;
#196 = PRESENTATION_LAYER_ASSIGNMENT (  '', '', ( #16 ) ) ;
#197 = AXIS2_PLACEMENT_3D ( 'NONE', #218, #198, #158 ) ;
#198 = DIRECTION ( 'NONE',  ( -0.000000000000000000, -1.000000000000000000, -0.000000000000000000 ) ) ;
#199 =( LENGTH_UNIT ( ) NAMED_UNIT ( * ) SI_UNIT ( $, .METRE. ) );
#200 = CARTESIAN_POINT ( 'NONE',  ( 0.000000000000000000, 0.000000000000000000, 0.000000000000000000 ) ) ;
#201 = SURFACE_SIDE_STYLE ('',( #70 ) ) ;
#202 = DIMENSIONAL_EXPONENTS ( 1.000000000000000000, 0.000000000000000000, 0.000000000000000000, 0.000000000000000000, 0.000000000000000000, 0.000000000000000000, 0.000000000000000000 ) ;
#203 = PRODUCT_DEFINITION_FORMATION_WITH_SPECIFIED_SOURCE ( 'ANY', '', #38, .NOT_KNOWN. ) ;
#204 = ORIENTED_EDGE ( 'NONE', *, *, #296, .T. ) ;
#205 = FILL_AREA_STYLE ('',( #33 ) ) ;
#206 = SURFACE_SIDE_STYLE ('',( #64 ) ) ;
#207 = DIMENSIONAL_EXPONENTS ( 1.000000000000000000, 0.000000000000000000, 0.000000000000000000, 0.000000000000000000, 0.000000000000000000, 0.000000000000000000, 0.000000000000000000 ) ;
#208 = ORIENTED_EDGE ( 'NONE', *, *, #55, .T. ) ;
#209 = AXIS2_PLACEMENT_3D ( 'NONE', #49, #134, #210 ) ;
#210 = DIRECTION ( 'NONE',  ( -1.000000000000000000, 0.000000000000000000, 0.000000000000000000 ) ) ;
#211 = CYLINDRICAL_SURFACE ( 'NONE', #190, 0.1875000000000000555 ) ;
#212 = LENGTH_MEASURE_WITH_UNIT ( LENGTH_MEASURE( 0.02539999999999999897 ), #75 );
#213 = DIRECTION ( 'NONE',  ( -0.000000000000000000, -1.000000000000000000, -0.000000000000000000 ) ) ;
#214 = PRESENTATION_LAYER_ASSIGNMENT (  '', '', ( #245 ) ) ;
#215 = DIRECTION ( 'NONE',  ( -0.000000000000000000, -1.000000000000000000, -0.000000000000000000 ) ) ;
#216 = VERTEX_POINT ( 'NONE', #229 ) ;
#217 = DIRECTION ( 'NONE',  ( -4.082155997157848133E-17, 1.000000000000000000, -0.000000000000000000 ) ) ;
#218 = CARTESIAN_POINT ( 'NONE',  ( 0.000000000000000000, 0.000000000000000000, 0.000000000000000000 ) ) ;
#219 = CIRCLE ( 'NONE', #170, 0.1875000000000000278 ) ;
#220 = AXIS2_PLACEMENT_3D ( 'NONE', #153, #181, #67 ) ;
#221 = SURFACE_STYLE_FILL_AREA ( #99 ) ;
#222 = PRODUCT_DEFINITION ( 'UNKNOWN', '', #203, #144 ) ;
#223 = CARTESIAN_POINT ( 'NONE',  ( 0.1875000000000000278, 3.000000000000000444, 0.000000000000000000 ) ) ;
#224 = FILL_AREA_STYLE_COLOUR ( '', #32 ) ;
#225 = EDGE_LOOP ( 'NONE', ( #66, #180 ) ) ;
#226 = SURFACE_STYLE_USAGE ( .BOTH. , #201 ) ;
#227 = ORIENTED_EDGE ( 'NONE', *, *, #176, .T. ) ;
#228 =( NAMED_UNIT ( * ) SI_UNIT ( $, .STERADIAN. ) SOLID_ANGLE_UNIT ( ) );
#229 = CARTESIAN_POINT ( 'NONE',  ( 0.1875000000000000278, 1.500000000000000222, 2.296212748401288342E-17 ) ) ;
#230 = EDGE_CURVE ( 'NONE', #130, #24, #12, .T. ) ;
#231 = SURFACE_STYLE_FILL_AREA ( #118 ) ;
#232 = COLOUR_RGB ( '',0.7921568627450980005, 0.8196078431372548767, 0.9333333333333333481 ) ;
#233 = ORIENTED_EDGE ( 'NONE', *, *, #15, .T. ) ;
#234 =( GEOMETRIC_REPRESENTATION_CONTEXT ( 3 ) GLOBAL_UNCERTAINTY_ASSIGNED_CONTEXT ( ( #243 ) ) GLOBAL_UNIT_ASSIGNED_CONTEXT ( ( #101, #123, #29 ) ) REPRESENTATION_CONTEXT ( 'NONE', 'WORKASPACE' ) );
#235 =( GEOMETRIC_REPRESENTATION_CONTEXT ( 3 ) GLOBAL_UNCERTAINTY_ASSIGNED_CONTEXT ( ( #127 ) ) GLOBAL_UNIT_ASSIGNED_CONTEXT ( ( #115, #94, #42 ) ) REPRESENTATION_CONTEXT ( 'NONE', 'WORKASPACE' ) );
#236 =( CONVERSION_BASED_UNIT ( 'INCH', #163 ) LENGTH_UNIT ( ) NAMED_UNIT ( #152 ) );
#237 = CARTESIAN_POINT ( 'NONE',  ( 0.000000000000000000, 1.500000000000000222, 0.000000000000000000 ) ) ;
#238 = DIRECTION ( 'NONE',  ( -0.000000000000000000, -1.000000000000000000, -0.000000000000000000 ) ) ;
#239 = DIRECTION ( 'NONE',  ( 0.000000000000000000, 1.000000000000000000, 0.000000000000000000 ) ) ;
#240 = VERTEX_POINT ( 'NONE', #276 ) ;
#241 = STYLED_ITEM ( 'NONE', ( #10 ), #260 ) ;
#242 = FACE_OUTER_BOUND ( 'NONE', #187, .T. ) ;
#243 = UNCERTAINTY_MEASURE_WITH_UNIT (LENGTH_MEASURE( 1.000000000000000082E-05 ), #101, 'distance_accuracy_value', 'NONE');
#244 =( NAMED_UNIT ( * ) SI_UNIT ( $, .STERADIAN. ) SOLID_ANGLE_UNIT ( ) );
#245 = STYLED_ITEM ( 'NONE', ( #298 ), #178 ) ;
#246 = APPLICATION_PROTOCOL_DEFINITION ( 'draft international standard', 'automotive_design', 1998, #106 ) ;
#247 = SURFACE_SIDE_STYLE ('',( #30 ) ) ;
#248 = PRESENTATION_STYLE_ASSIGNMENT (( #83 ) ) ;
#249 = LINE ( 'NONE', #128, #288 ) ;
#250 = EDGE_CURVE ( 'NONE', #130, #216, #256, .T. ) ;
#251 = CARTESIAN_POINT ( 'NONE',  ( -0.1875000000000001110, 3.000000000000000444, 0.000000000000000000 ) ) ;
#252 = EDGE_LOOP ( 'NONE', ( #284, #204, #48, #34 ) ) ;
#253 = EDGE_CURVE ( 'NONE', #265, #302, #249, .T. ) ;
#254 = DIRECTION ( 'NONE',  ( -0.000000000000000000, -1.000000000000000000, -0.000000000000000000 ) ) ;
#255 = PRESENTATION_LAYER_ASSIGNMENT (  '', '', ( #84 ) ) ;
#256 = CIRCLE ( 'NONE', #220, 0.1875000000000000278 ) ;
#257 = FACE_OUTER_BOUND ( 'NONE', #225, .T. ) ;
#258 = DIRECTION ( 'NONE',  ( -1.000000000000000000, 0.000000000000000000, 0.000000000000000000 ) ) ;
#259 = SURFACE_SIDE_STYLE ('',( #162 ) ) ;
#260 = ADVANCED_FACE ( 'NONE', ( #257 ), #35, .T. ) ;
#261 = CARTESIAN_POINT ( 'NONE',  ( 0.000000000000000000, 1.500000000000000222, 0.000000000000000000 ) ) ;
#262 = STYLED_ITEM ( 'NONE', ( #248 ), #105 ) ;
#263 = FACE_OUTER_BOUND ( 'NONE', #8, .T. ) ;
#264 = VECTOR ( 'NONE', #76, 39.37007874015748143 ) ;
#265 = VERTEX_POINT ( 'NONE', #78 ) ;
#266 = CARTESIAN_POINT ( 'NONE',  ( 0.1874999999999999722, 3.000000000000000444, 2.296212748401288034E-17 ) ) ;
#267 = DIRECTION ( 'NONE',  ( 0.000000000000000000, 0.000000000000000000, -1.000000000000000000 ) ) ;
#268 = FILL_AREA_STYLE_COLOUR ( '', #232 ) ;
#269 = SURFACE_SIDE_STYLE ('',( #221 ) ) ;
#270 = VECTOR ( 'NONE', #307, 39.37007874015748143 ) ;
#271 = DIRECTION ( 'NONE',  ( -4.082155997157848133E-17, 1.000000000000000000, -0.000000000000000000 ) ) ;
#272 =( NAMED_UNIT ( * ) SI_UNIT ( $, .STERADIAN. ) SOLID_ANGLE_UNIT ( ) );
#273 = EDGE_LOOP ( 'NONE', ( #280, #22 ) ) ;
#274 = DIMENSIONAL_EXPONENTS ( 1.000000000000000000, 0.000000000000000000, 0.000000000000000000, 0.000000000000000000, 0.000000000000000000, 0.000000000000000000, 0.000000000000000000 ) ;
#275 = ADVANCED_FACE ( 'NONE', ( #72 ), #91, .T. ) ;
#276 = CARTESIAN_POINT ( 'NONE',  ( 2.296212748401287726E-17, 1.500000000000000222, 0.1875000000000000278 ) ) ;
#277 = CLOSED_SHELL ( 'NONE', ( #275, #47, #68, #167 ) ) ;
#278 = ADVANCED_FACE ( 'NONE', ( #193 ), #116, .T. ) ;
#279 = APPLICATION_PROTOCOL_DEFINITION ( 'draft international standard', 'automotive_design', 1998, #2 ) ;
#280 = ORIENTED_EDGE ( 'NONE', *, *, #300, .T. ) ;
#281 = ORIENTED_EDGE ( 'NONE', *, *, #55, .F. ) ;
#282 = LINE ( 'NONE', #188, #264 ) ;
#283 = CYLINDRICAL_SURFACE ( 'NONE', #100, 0.1875000000000000278 ) ;
#284 = ORIENTED_EDGE ( 'NONE', *, *, #82, .T. ) ;
#285 =( NAMED_UNIT ( * ) SI_UNIT ( $, .STERADIAN. ) SOLID_ANGLE_UNIT ( ) );
#286 = COLOUR_RGB ( '',1.000000000000000000, 0.000000000000000000, 0.000000000000000000 ) ;
#287 = AXIS2_PLACEMENT_3D ( 'NONE', #79, #238, #267 ) ;
#288 = VECTOR ( 'NONE', #254, 39.37007874015748143 ) ;
#289 = DIRECTION ( 'NONE',  ( -0.000000000000000000, -1.000000000000000000, -0.000000000000000000 ) ) ;
#290 = DIRECTION ( 'NONE',  ( 0.000000000000000000, -1.000000000000000000, -0.000000000000000000 ) ) ;
#291 = DIRECTION ( 'NONE',  ( 0.000000000000000000, 0.000000000000000000, -1.000000000000000000 ) ) ;
#292 = EDGE_LOOP ( 'NONE', ( #227, #109 ) ) ;
#293 = AXIS2_PLACEMENT_3D ( 'NONE', #148, #122, #98 ) ;
#294 = UNCERTAINTY_MEASURE_WITH_UNIT (LENGTH_MEASURE( 1.000000000000000082E-05 ), #295, 'distance_accuracy_value', 'NONE');
#295 =( CONVERSION_BASED_UNIT ( 'INCH', #89 ) LENGTH_UNIT ( ) NAMED_UNIT ( #202 ) );
#296 = EDGE_CURVE ( 'NONE', #240, #90, #282, .T. ) ;
#297 = EDGE_LOOP ( 'NONE', ( #120, #46, #39, #194 ) ) ;
#298 = PRESENTATION_STYLE_ASSIGNMENT (( #133 ) ) ;
#299 = DIMENSIONAL_EXPONENTS ( 1.000000000000000000, 0.000000000000000000, 0.000000000000000000, 0.000000000000000000, 0.000000000000000000, 0.000000000000000000, 0.000000000000000000 ) ;
#300 = EDGE_CURVE ( 'NONE', #24, #97, #58, .T. ) ;
#301 = SURFACE_STYLE_USAGE ( .BOTH. , #21 ) ;
#302 = VERTEX_POINT ( 'NONE', #140 ) ;
#303 =( NAMED_UNIT ( * ) PLANE_ANGLE_UNIT ( ) SI_UNIT ( $, .RADIAN. ) );
#304 =( CONVERSION_BASED_UNIT ( 'INCH', #212 ) LENGTH_UNIT ( ) NAMED_UNIT ( #299 ) );
#305 = DIRECTION ( 'NONE',  ( 0.000000000000000000, 0.000000000000000000, -1.000000000000000000 ) ) ;
#306 =( GEOMETRIC_REPRESENTATION_CONTEXT ( 3 ) GLOBAL_UNCERTAINTY_ASSIGNED_CONTEXT ( ( #172 ) ) GLOBAL_UNIT_ASSIGNED_CONTEXT ( ( #175, #147, #244 ) ) REPRESENTATION_CONTEXT ( 'NONE', 'WORKASPACE' ) );
#307 = DIRECTION ( 'NONE',  ( -4.082155997157848133E-17, 1.000000000000000000, -0.000000000000000000 ) ) ;
#308 =( LENGTH_UNIT ( ) NAMED_UNIT ( * ) SI_UNIT ( $, .METRE. ) );
#309 = ORIENTED_EDGE ( 'NONE', *, *, #250, .T. ) ;
ENDSEC;
END-ISO-10303-21;
