ISO-10303-21;
HEADER;
FILE_DESCRIPTION (( 'STEP AP214' ),
    '1' );
FILE_NAME ('Micro_SFAM-050025.STEP',
    '2021-09-02T04:13:48',
    ( '' ),
    ( '' ),
    'SwSTEP 2.0',
    'SolidWorks 2020',
    '' );
FILE_SCHEMA (( 'AUTOMOTIVE_DESIGN' ));
ENDSEC;

DATA;
#1 = ORIENTED_EDGE ( 'NONE', *, *, #234, .F. ) ;
#2 = PRODUCT ( 'Micro_SFAM-050025', 'Micro_SFAM-050025', '', ( #240 ) ) ;
#3 = ADVANCED_FACE ( 'NONE', ( #88 ), #116, .T. ) ;
#4 = CARTESIAN_POINT ( 'NONE',  ( 0.1181100000000000066, 1.446430334472939084E-17, 2.229093999999999465 ) ) ;
#5 = LINE ( 'NONE', #94, #243 ) ;
#6 = PRODUCT_DEFINITION_FORMATION_WITH_SPECIFIED_SOURCE ( 'ANY', '', #2, .NOT_KNOWN. ) ;
#7 = ORIENTED_EDGE ( 'NONE', *, *, #279, .T. ) ;
#8 = DIRECTION ( 'NONE',  ( 1.000000000000000000, 0.0000000000000000000, 0.0000000000000000000 ) ) ;
#9 = DIRECTION ( 'NONE',  ( 0.1736481776669314414, 0.0000000000000000000, 0.9848077530122077983 ) ) ;
#10 = DIRECTION ( 'NONE',  ( -1.000000000000000000, 0.0000000000000000000, 0.0000000000000000000 ) ) ;
#11 = AXIS2_PLACEMENT_3D ( 'NONE', #244, #129, #37 ) ;
#12 = COLOUR_RGB ( '',0.7921568627450980005, 0.8196078431372548767, 0.9333333333333333481 ) ;
#13 = APPLICATION_PROTOCOL_DEFINITION ( 'draft international standard', 'automotive_design', 1998, #79 ) ;
#14 = CARTESIAN_POINT ( 'NONE',  ( 0.09832657500000009654, 0.0000000000000000000, 0.7874019999999999353 ) ) ;
#15 = CARTESIAN_POINT ( 'NONE',  ( -0.1181099999999999095, 0.0000000000000000000, 0.8995993785322700109 ) ) ;
#16 = MECHANICAL_DESIGN_GEOMETRIC_PRESENTATION_REPRESENTATION (  '', ( #122 ), #177 ) ;
#17 = DIRECTION ( 'NONE',  ( -1.224646799147353207E-16, -0.0000000000000000000, -1.000000000000000000 ) ) ;
#18 = DIMENSIONAL_EXPONENTS ( 1.000000000000000000, 0.0000000000000000000, 0.0000000000000000000, 0.0000000000000000000, 0.0000000000000000000, 0.0000000000000000000, 0.0000000000000000000 ) ;
#19 = ORIENTED_EDGE ( 'NONE', *, *, #286, .T. ) ;
#20 = ORIENTED_EDGE ( 'NONE', *, *, #156, .F. ) ;
#21 = CIRCLE ( 'NONE', #127, 0.09832657499999998552 ) ;
#22 = EDGE_LOOP ( 'NONE', ( #39, #82, #84, #128 ) ) ;
#23 = LINE ( 'NONE', #298, #45 ) ;
#24 = ADVANCED_FACE ( 'NONE', ( #43 ), #247, .T. ) ;
#25 = EDGE_LOOP ( 'NONE', ( #141, #115, #260, #107 ) ) ;
#26 = PRODUCT_DEFINITION ( 'UNKNOWN', '', #6, #126 ) ;
#27 = UNCERTAINTY_MEASURE_WITH_UNIT (LENGTH_MEASURE( 1.000000000000000082E-05 ), #211, 'distance_accuracy_value', 'NONE');
#28 = DIRECTION ( 'NONE',  ( -1.000000000000000000, 0.0000000000000000000, 1.224646799147353207E-16 ) ) ;
#29 = AXIS2_PLACEMENT_3D ( 'NONE', #104, #131, #261 ) ;
#30 = EDGE_CURVE ( 'NONE', #153, #36, #287, .T. ) ;
#31 = DIRECTION ( 'NONE',  ( -1.224646799147353207E-16, -0.0000000000000000000, -1.000000000000000000 ) ) ;
#32 = FACE_OUTER_BOUND ( 'NONE', #146, .T. ) ;
#33 = DIRECTION ( 'NONE',  ( -1.000000000000000000, 0.0000000000000000000, 0.0000000000000000000 ) ) ;
#34 = EDGE_CURVE ( 'NONE', #105, #217, #183, .T. ) ;
#35 =( LENGTH_UNIT ( ) NAMED_UNIT ( * ) SI_UNIT ( $, .METRE. ) );
#36 = VERTEX_POINT ( 'NONE', #15 ) ;
#37 = DIRECTION ( 'NONE',  ( -1.000000000000000000, 0.0000000000000000000, 0.0000000000000000000 ) ) ;
#38 = SHAPE_DEFINITION_REPRESENTATION ( #205, #63 ) ;
#39 = ORIENTED_EDGE ( 'NONE', *, *, #162, .F. ) ;
#40 = PRESENTATION_LAYER_ASSIGNMENT (  '', '', ( #164 ) ) ;
#41 = PLANE ( 'NONE',  #224 ) ;
#42 = DIMENSIONAL_EXPONENTS ( 1.000000000000000000, 0.0000000000000000000, 0.0000000000000000000, 0.0000000000000000000, 0.0000000000000000000, 0.0000000000000000000, 0.0000000000000000000 ) ;
#43 = FACE_OUTER_BOUND ( 'NONE', #293, .T. ) ;
#44 = CARTESIAN_POINT ( 'NONE',  ( 0.1031100000000002570, 1.354581824536888722E-17, 2.244094000000000033 ) ) ;
#45 = VECTOR ( 'NONE', #208, 39.37007874015748143 ) ;
#46 = PRODUCT_RELATED_PRODUCT_CATEGORY ( 'part', '', ( #2 ) ) ;
#47 = DIRECTION ( 'NONE',  ( 0.7071067811865358044, 8.659560562354788645E-17, -0.7071067811865590080 ) ) ;
#48 = FILL_AREA_STYLE_COLOUR ( '', #56 ) ;
#49 =( NAMED_UNIT ( * ) SI_UNIT ( $, .STERADIAN. ) SOLID_ANGLE_UNIT ( ) );
#50 = VECTOR ( 'NONE', #202, 39.37007874015748143 ) ;
#51 = CARTESIAN_POINT ( 'NONE',  ( 0.0000000000000000000, 0.0000000000000000000, 0.0000000000000000000 ) ) ;
#52 = VERTEX_POINT ( 'NONE', #62 ) ;
#53 = ORIENTED_EDGE ( 'NONE', *, *, #95, .F. ) ;
#54 = AXIS2_PLACEMENT_3D ( 'NONE', #173, #266, #294 ) ;
#55 = CARTESIAN_POINT ( 'NONE',  ( 1.474662427518848307E-33, 0.0000000000000000000, 1.204153253448721512E-17 ) ) ;
#56 = COLOUR_RGB ( '',0.7921568627450980005, 0.8196078431372548767, 0.9333333333333333481 ) ;
#57 = VECTOR ( 'NONE', #97, 39.37007874015748143 ) ;
#58 = ORIENTED_EDGE ( 'NONE', *, *, #95, .T. ) ;
#59 = DIRECTION ( 'NONE',  ( -0.0000000000000000000, -0.0000000000000000000, -1.000000000000000000 ) ) ;
#60 = CYLINDRICAL_SURFACE ( 'NONE', #11, 0.1181100000000000066 ) ;
#61 = CIRCLE ( 'NONE', #229, 0.1031100000000002570 ) ;
#62 = CARTESIAN_POINT ( 'NONE',  ( 0.09832657499999998552, 1.204153253448721512E-17, 0.0000000000000000000 ) ) ;
#63 = ADVANCED_BREP_SHAPE_REPRESENTATION ( 'Micro_SFAM-050025', ( #132, #29 ), #297 ) ;
#64 = DIRECTION ( 'NONE',  ( 0.0000000000000000000, 0.0000000000000000000, 1.000000000000000000 ) ) ;
#65 = ORIENTED_EDGE ( 'NONE', *, *, #113, .F. ) ;
#66 = VECTOR ( 'NONE', #59, 39.37007874015748143 ) ;
#67 = AXIS2_PLACEMENT_3D ( 'NONE', #55, #165, #237 ) ;
#68 = CARTESIAN_POINT ( 'NONE',  ( 0.0000000000000000000, 0.0000000000000000000, 2.229093999999999465 ) ) ;
#69 = ADVANCED_FACE ( 'NONE', ( #269 ), #83, .T. ) ;
#70 = CYLINDRICAL_SURFACE ( 'NONE', #258, 0.09832657499999998552 ) ;
#71 = CARTESIAN_POINT ( 'NONE',  ( 1.101691499434492524E-16, 0.0000000000000000000, 0.8995993785322700109 ) ) ;
#72 = EDGE_LOOP ( 'NONE', ( #1, #124, #242, #76 ) ) ;
#73 = CIRCLE ( 'NONE', #230, 0.1031100000000002570 ) ;
#74 = DIRECTION ( 'NONE',  ( 1.000000000000000000, 0.0000000000000000000, -0.0000000000000000000 ) ) ;
#75 = LINE ( 'NONE', #14, #99 ) ;
#76 = ORIENTED_EDGE ( 'NONE', *, *, #286, .F. ) ;
#77 = DIRECTION ( 'NONE',  ( -1.000000000000000000, 0.0000000000000000000, 0.0000000000000000000 ) ) ;
#78 =( GEOMETRIC_REPRESENTATION_CONTEXT ( 3 ) GLOBAL_UNCERTAINTY_ASSIGNED_CONTEXT ( ( #181 ) ) GLOBAL_UNIT_ASSIGNED_CONTEXT ( ( #109, #179, #49 ) ) REPRESENTATION_CONTEXT ( 'NONE', 'WORKASPACE' ) );
#79 = APPLICATION_CONTEXT ( 'automotive_design' ) ;
#80 = ADVANCED_FACE ( 'NONE', ( #174 ), #41, .T. ) ;
#81 = SURFACE_STYLE_FILL_AREA ( #284 ) ;
#82 = ORIENTED_EDGE ( 'NONE', *, *, #203, .F. ) ;
#83 = CONICAL_SURFACE ( 'NONE', #155, 0.09832657499999998552, 0.1745329251994339470 ) ;
#84 = ORIENTED_EDGE ( 'NONE', *, *, #200, .T. ) ;
#85 = DIRECTION ( 'NONE',  ( -1.224646799147353207E-16, -0.0000000000000000000, -1.000000000000000000 ) ) ;
#86 = VERTEX_POINT ( 'NONE', #44 ) ;
#87 = AXIS2_PLACEMENT_3D ( 'NONE', #118, #188, #236 ) ;
#88 = FACE_OUTER_BOUND ( 'NONE', #152, .T. ) ;
#89 = CARTESIAN_POINT ( 'NONE',  ( 0.09832657500000009654, 0.0000000000000000000, 0.7874019999999999353 ) ) ;
#90 = DIRECTION ( 'NONE',  ( 0.0000000000000000000, 0.0000000000000000000, 1.000000000000000000 ) ) ;
#91 = CARTESIAN_POINT ( 'NONE',  ( 0.1031100000000002570, 1.262733314600838667E-17, 2.244094000000000033 ) ) ;
#92 = CARTESIAN_POINT ( 'NONE',  ( -0.1031100000000002570, 0.0000000000000000000, 2.244094000000000033 ) ) ;
#93 = FACE_OUTER_BOUND ( 'NONE', #270, .T. ) ;
#94 = CARTESIAN_POINT ( 'NONE',  ( 0.09832657499999998552, 1.204153253448721512E-17, -1.204153253448721512E-17 ) ) ;
#95 = EDGE_CURVE ( 'NONE', #52, #233, #21, .T. ) ;
#96 =( CONVERSION_BASED_UNIT ( 'INCH', #117 ) LENGTH_UNIT ( ) NAMED_UNIT ( #42 ) );
#97 = DIRECTION ( 'NONE',  ( -1.224646799147353207E-16, -0.0000000000000000000, -1.000000000000000000 ) ) ;
#98 = DIRECTION ( 'NONE',  ( 0.0000000000000000000, 0.0000000000000000000, -1.000000000000000000 ) ) ;
#99 = VECTOR ( 'NONE', #9, 39.37007874015748143 ) ;
#100 = CIRCLE ( 'NONE', #209, 0.1181100000000000066 ) ;
#101 = DIRECTION ( 'NONE',  ( -1.224646799147353207E-16, -0.0000000000000000000, -1.000000000000000000 ) ) ;
#102 =( NAMED_UNIT ( * ) PLANE_ANGLE_UNIT ( ) SI_UNIT ( $, .RADIAN. ) );
#103 = CARTESIAN_POINT ( 'NONE',  ( 9.642893389422242582E-17, 0.0000000000000000000, 0.7874019999999999353 ) ) ;
#104 = CARTESIAN_POINT ( 'NONE',  ( 0.0000000000000000000, 0.0000000000000000000, 0.0000000000000000000 ) ) ;
#105 = VERTEX_POINT ( 'NONE', #89 ) ;
#106 = ADVANCED_FACE ( 'NONE', ( #291 ), #60, .T. ) ;
#107 = ORIENTED_EDGE ( 'NONE', *, *, #30, .F. ) ;
#108 = DIRECTION ( 'NONE',  ( 1.000000000000000000, 0.0000000000000000000, 0.0000000000000000000 ) ) ;
#109 =( CONVERSION_BASED_UNIT ( 'INCH', #250 ) LENGTH_UNIT ( ) NAMED_UNIT ( #18 ) );
#110 = EDGE_CURVE ( 'NONE', #140, #153, #175, .T. ) ;
#111 = AXIS2_PLACEMENT_3D ( 'NONE', #178, #232, #28 ) ;
#112 = CARTESIAN_POINT ( 'NONE',  ( -0.1181100000000000066, 0.0000000000000000000, 2.244094000000000033 ) ) ;
#113 = EDGE_CURVE ( 'NONE', #36, #153, #100, .T. ) ;
#114 = DIRECTION ( 'NONE',  ( -1.224646799147353207E-16, -0.0000000000000000000, -1.000000000000000000 ) ) ;
#115 = ORIENTED_EDGE ( 'NONE', *, *, #223, .T. ) ;
#116 = CONICAL_SURFACE ( 'NONE', #54, 0.09832657499999998552, 0.1745329251994339470 ) ;
#117 = LENGTH_MEASURE_WITH_UNIT ( LENGTH_MEASURE( 0.02539999999999999897 ), #35 );
#118 = CARTESIAN_POINT ( 'NONE',  ( 0.0000000000000000000, 0.0000000000000000000, 2.229093999999999465 ) ) ;
#119 = ADVANCED_FACE ( 'NONE', ( #249 ), #70, .T. ) ;
#120 =( NAMED_UNIT ( * ) PLANE_ANGLE_UNIT ( ) SI_UNIT ( $, .RADIAN. ) );
#121 = CARTESIAN_POINT ( 'NONE',  ( -0.1181100000000000066, 0.0000000000000000000, 2.229093999999999465 ) ) ;
#122 = STYLED_ITEM ( 'NONE', ( #145 ), #63 ) ;
#123 = DIRECTION ( 'NONE',  ( -0.0000000000000000000, -0.0000000000000000000, -1.000000000000000000 ) ) ;
#124 = ORIENTED_EDGE ( 'NONE', *, *, #156, .T. ) ;
#125 = CARTESIAN_POINT ( 'NONE',  ( 0.0000000000000000000, 0.0000000000000000000, 2.244094000000000033 ) ) ;
#126 = PRODUCT_DEFINITION_CONTEXT ( 'detailed design', #147, 'design' ) ;
#127 = AXIS2_PLACEMENT_3D ( 'NONE', #225, #101, #241 ) ;
#128 = ORIENTED_EDGE ( 'NONE', *, *, #223, .F. ) ;
#129 = DIRECTION ( 'NONE',  ( -0.0000000000000000000, -0.0000000000000000000, -1.000000000000000000 ) ) ;
#130 = ORIENTED_EDGE ( 'NONE', *, *, #296, .T. ) ;
#131 = DIRECTION ( 'NONE',  ( 0.0000000000000000000, 0.0000000000000000000, 1.000000000000000000 ) ) ;
#132 = MANIFOLD_SOLID_BREP ( 'Cut-Revolve1', #251 ) ;
#133 = DIRECTION ( 'NONE',  ( 0.0000000000000000000, 0.0000000000000000000, -1.000000000000000000 ) ) ;
#134 = CIRCLE ( 'NONE', #273, 0.09832657499999998552 ) ;
#135 =( LENGTH_UNIT ( ) NAMED_UNIT ( * ) SI_UNIT ( $, .METRE. ) );
#136 = SURFACE_STYLE_FILL_AREA ( #184 ) ;
#137 = DIRECTION ( 'NONE',  ( 1.000000000000000000, 0.0000000000000000000, 0.0000000000000000000 ) ) ;
#138 = EDGE_CURVE ( 'NONE', #290, #36, #276, .T. ) ;
#139 = CARTESIAN_POINT ( 'NONE',  ( 0.0000000000000000000, 0.0000000000000000000, 0.0000000000000000000 ) ) ;
#140 = VERTEX_POINT ( 'NONE', #4 ) ;
#141 = ORIENTED_EDGE ( 'NONE', *, *, #110, .F. ) ;
#142 = AXIS2_PLACEMENT_3D ( 'NONE', #187, #98, #10 ) ;
#143 = LINE ( 'NONE', #215, #57 ) ;
#144 = FACE_OUTER_BOUND ( 'NONE', #22, .T. ) ;
#145 = PRESENTATION_STYLE_ASSIGNMENT (( #257 ) ) ;
#146 = EDGE_LOOP ( 'NONE', ( #222, #196, #65, #235 ) ) ;
#147 = APPLICATION_CONTEXT ( 'automotive_design' ) ;
#148 = ORIENTED_EDGE ( 'NONE', *, *, #34, .T. ) ;
#149 = AXIS2_PLACEMENT_3D ( 'NONE', #139, #278, #74 ) ;
#150 = CARTESIAN_POINT ( 'NONE',  ( 9.642893389422242582E-17, 0.0000000000000000000, 0.7874019999999999353 ) ) ;
#151 = ADVANCED_FACE ( 'NONE', ( #93 ), #182, .F. ) ;
#152 = EDGE_LOOP ( 'NONE', ( #20, #195, #19, #191 ) ) ;
#153 = VERTEX_POINT ( 'NONE', #204 ) ;
#154 = PRESENTATION_STYLE_ASSIGNMENT (( #176 ) ) ;
#155 = AXIS2_PLACEMENT_3D ( 'NONE', #150, #263, #262 ) ;
#156 = EDGE_CURVE ( 'NONE', #217, #36, #23, .T. ) ;
#157 = DIRECTION ( 'NONE',  ( 0.0000000000000000000, 0.0000000000000000000, -1.000000000000000000 ) ) ;
#158 = SURFACE_SIDE_STYLE ('',( #136 ) ) ;
#159 = AXIS2_PLACEMENT_3D ( 'NONE', #281, #123, #33 ) ;
#160 = LINE ( 'NONE', #91, #272 ) ;
#161 = ORIENTED_EDGE ( 'NONE', *, *, #271, .F. ) ;
#162 = EDGE_CURVE ( 'NONE', #86, #140, #160, .T. ) ;
#163 = CARTESIAN_POINT ( 'NONE',  ( -0.09832657499999998552, 0.0000000000000000000, 2.408306506897443024E-17 ) ) ;
#164 = STYLED_ITEM ( 'NONE', ( #154 ), #132 ) ;
#165 = DIRECTION ( 'NONE',  ( -1.224646799147353207E-16, -0.0000000000000000000, -1.000000000000000000 ) ) ;
#166 = SURFACE_SIDE_STYLE ('',( #81 ) ) ;
#167 = ORIENTED_EDGE ( 'NONE', *, *, #190, .F. ) ;
#168 = ADVANCED_FACE ( 'NONE', ( #299 ), #253, .T. ) ;
#169 = AXIS2_PLACEMENT_3D ( 'NONE', #245, #17, #108 ) ;
#170 = VERTEX_POINT ( 'NONE', #92 ) ;
#171 = DIRECTION ( 'NONE',  ( -1.000000000000000000, 0.0000000000000000000, 0.0000000000000000000 ) ) ;
#172 = AXIS2_PLACEMENT_3D ( 'NONE', #68, #157, #254 ) ;
#173 = CARTESIAN_POINT ( 'NONE',  ( 9.642893389422242582E-17, 0.0000000000000000000, 0.7874019999999999353 ) ) ;
#174 = FACE_OUTER_BOUND ( 'NONE', #185, .T. ) ;
#175 = LINE ( 'NONE', #289, #66 ) ;
#176 = SURFACE_STYLE_USAGE ( .BOTH. , #158 ) ;
#177 =( GEOMETRIC_REPRESENTATION_CONTEXT ( 3 ) GLOBAL_UNCERTAINTY_ASSIGNED_CONTEXT ( ( #207 ) ) GLOBAL_UNIT_ASSIGNED_CONTEXT ( ( #96, #102, #268 ) ) REPRESENTATION_CONTEXT ( 'NONE', 'WORKASPACE' ) );
#178 = CARTESIAN_POINT ( 'NONE',  ( 0.0000000000000000000, 0.0000000000000000000, 0.0000000000000000000 ) ) ;
#179 =( NAMED_UNIT ( * ) PLANE_ANGLE_UNIT ( ) SI_UNIT ( $, .RADIAN. ) );
#180 = EDGE_LOOP ( 'NONE', ( #167, #148, #130, #53 ) ) ;
#181 = UNCERTAINTY_MEASURE_WITH_UNIT (LENGTH_MEASURE( 1.000000000000000082E-05 ), #109, 'distance_accuracy_value', 'NONE');
#182 = PLANE ( 'NONE',  #149 ) ;
#183 = CIRCLE ( 'NONE', #193, 0.09832657499999998552 ) ;
#184 = FILL_AREA_STYLE ('',( #48 ) ) ;
#185 = EDGE_LOOP ( 'NONE', ( #210, #252 ) ) ;
#186 = LENGTH_MEASURE_WITH_UNIT ( LENGTH_MEASURE( 0.02539999999999999897 ), #255 );
#187 = CARTESIAN_POINT ( 'NONE',  ( 0.0000000000000000000, 0.0000000000000000000, 2.244094000000000033 ) ) ;
#188 = DIRECTION ( 'NONE',  ( 0.0000000000000000000, 0.0000000000000000000, -1.000000000000000000 ) ) ;
#189 = FILL_AREA_STYLE_COLOUR ( '', #12 ) ;
#190 = EDGE_CURVE ( 'NONE', #105, #52, #5, .T. ) ;
#191 = ORIENTED_EDGE ( 'NONE', *, *, #30, .T. ) ;
#192 = ORIENTED_EDGE ( 'NONE', *, *, #218, .F. ) ;
#193 = AXIS2_PLACEMENT_3D ( 'NONE', #103, #85, #171 ) ;
#194 = APPLICATION_PROTOCOL_DEFINITION ( 'draft international standard', 'automotive_design', 1998, #147 ) ;
#195 = ORIENTED_EDGE ( 'NONE', *, *, #34, .F. ) ;
#196 = ORIENTED_EDGE ( 'NONE', *, *, #110, .T. ) ;
#197 = ORIENTED_EDGE ( 'NONE', *, *, #234, .T. ) ;
#198 = ORIENTED_EDGE ( 'NONE', *, *, #296, .F. ) ;
#199 = CARTESIAN_POINT ( 'NONE',  ( 0.0000000000000000000, 0.0000000000000000000, 2.244094000000000033 ) ) ;
#200 = EDGE_CURVE ( 'NONE', #170, #290, #248, .T. ) ;
#201 = DIRECTION ( 'NONE',  ( -0.7071067811865358044, 0.0000000000000000000, -0.7071067811865590080 ) ) ;
#202 = DIRECTION ( 'NONE',  ( -0.0000000000000000000, -0.0000000000000000000, -1.000000000000000000 ) ) ;
#203 = EDGE_CURVE ( 'NONE', #170, #86, #61, .T. ) ;
#204 = CARTESIAN_POINT ( 'NONE',  ( 0.1181100000000001177, 1.446430334472940317E-17, 0.8995993785322700109 ) ) ;
#205 = PRODUCT_DEFINITION_SHAPE ( 'NONE', 'NONE',  #26 ) ;
#206 = DIRECTION ( 'NONE',  ( -1.000000000000000000, 0.0000000000000000000, 1.224646799147353207E-16 ) ) ;
#207 = UNCERTAINTY_MEASURE_WITH_UNIT (LENGTH_MEASURE( 1.000000000000000082E-05 ), #96, 'distance_accuracy_value', 'NONE');
#208 = DIRECTION ( 'NONE',  ( -0.1736481776669312194, 2.126576849575783625E-17, 0.9848077530122077983 ) ) ;
#209 = AXIS2_PLACEMENT_3D ( 'NONE', #71, #114, #137 ) ;
#210 = ORIENTED_EDGE ( 'NONE', *, *, #203, .T. ) ;
#211 =( CONVERSION_BASED_UNIT ( 'INCH', #186 ) LENGTH_UNIT ( ) NAMED_UNIT ( #292 ) );
#212 = CARTESIAN_POINT ( 'NONE',  ( 0.0000000000000000000, 0.0000000000000000000, 2.244094000000000033 ) ) ;
#213 = CYLINDRICAL_SURFACE ( 'NONE', #159, 0.1181100000000000066 ) ;
#214 = CIRCLE ( 'NONE', #87, 0.1181100000000000066 ) ;
#215 = CARTESIAN_POINT ( 'NONE',  ( -0.09832657499999998552, 0.0000000000000000000, 1.204153253448721512E-17 ) ) ;
#216 = DIRECTION ( 'NONE',  ( 0.0000000000000000000, 0.0000000000000000000, 1.000000000000000000 ) ) ;
#217 = VERTEX_POINT ( 'NONE', #274 ) ;
#218 = EDGE_CURVE ( 'NONE', #290, #140, #264, .T. ) ;
#219 = MECHANICAL_DESIGN_GEOMETRIC_PRESENTATION_REPRESENTATION (  '', ( #164 ), #78 ) ;
#220 = DIRECTION ( 'NONE',  ( -1.000000000000000000, 0.0000000000000000000, 0.0000000000000000000 ) ) ;
#221 = ORIENTED_EDGE ( 'NONE', *, *, #279, .F. ) ;
#222 = ORIENTED_EDGE ( 'NONE', *, *, #218, .T. ) ;
#223 = EDGE_CURVE ( 'NONE', #140, #290, #214, .T. ) ;
#224 = AXIS2_PLACEMENT_3D ( 'NONE', #199, #64, #246 ) ;
#225 = CARTESIAN_POINT ( 'NONE',  ( 1.474662427518848307E-33, 0.0000000000000000000, 1.204153253448721512E-17 ) ) ;
#226 = CARTESIAN_POINT ( 'NONE',  ( -0.1031100000000002570, 0.0000000000000000000, 2.244094000000000033 ) ) ;
#227 = ADVANCED_FACE ( 'NONE', ( #32 ), #213, .T. ) ;
#228 = DIRECTION ( 'NONE',  ( -1.224646799147353207E-16, -0.0000000000000000000, -1.000000000000000000 ) ) ;
#229 = AXIS2_PLACEMENT_3D ( 'NONE', #275, #90, #295 ) ;
#230 = AXIS2_PLACEMENT_3D ( 'NONE', #212, #216, #8 ) ;
#231 = ORIENTED_EDGE ( 'NONE', *, *, #200, .F. ) ;
#232 = DIRECTION ( 'NONE',  ( -1.224646799147353207E-16, -0.0000000000000000000, -1.000000000000000000 ) ) ;
#233 = VERTEX_POINT ( 'NONE', #163 ) ;
#234 = EDGE_CURVE ( 'NONE', #217, #105, #134, .T. ) ;
#235 = ORIENTED_EDGE ( 'NONE', *, *, #138, .F. ) ;
#236 = DIRECTION ( 'NONE',  ( 1.000000000000000000, 0.0000000000000000000, 0.0000000000000000000 ) ) ;
#237 = DIRECTION ( 'NONE',  ( -1.000000000000000000, 0.0000000000000000000, 1.224646799147353207E-16 ) ) ;
#238 = AXIS2_PLACEMENT_3D ( 'NONE', #125, #133, #220 ) ;
#239 = ORIENTED_EDGE ( 'NONE', *, *, #162, .T. ) ;
#240 = PRODUCT_CONTEXT ( 'NONE', #79, 'mechanical' ) ;
#241 = DIRECTION ( 'NONE',  ( -1.000000000000000000, 0.0000000000000000000, 1.224646799147353207E-16 ) ) ;
#242 = ORIENTED_EDGE ( 'NONE', *, *, #113, .T. ) ;
#243 = VECTOR ( 'NONE', #280, 39.37007874015748143 ) ;
#244 = CARTESIAN_POINT ( 'NONE',  ( 0.0000000000000000000, 0.0000000000000000000, 2.244094000000000033 ) ) ;
#245 = CARTESIAN_POINT ( 'NONE',  ( 1.101691499434492524E-16, 0.0000000000000000000, 0.8995993785322700109 ) ) ;
#246 = DIRECTION ( 'NONE',  ( 1.000000000000000000, 0.0000000000000000000, -0.0000000000000000000 ) ) ;
#247 = CONICAL_SURFACE ( 'NONE', #238, 0.1031100000000002570, 0.7853981633974318477 ) ;
#248 = LINE ( 'NONE', #226, #282 ) ;
#249 = FACE_OUTER_BOUND ( 'NONE', #285, .T. ) ;
#250 = LENGTH_MEASURE_WITH_UNIT ( LENGTH_MEASURE( 0.02539999999999999897 ), #135 );
#251 = CLOSED_SHELL ( 'NONE', ( #119, #69, #24, #227, #106, #80, #267, #3, #168, #151 ) ) ;
#252 = ORIENTED_EDGE ( 'NONE', *, *, #271, .T. ) ;
#253 = CYLINDRICAL_SURFACE ( 'NONE', #111, 0.09832657499999998552 ) ;
#254 = DIRECTION ( 'NONE',  ( 1.000000000000000000, 0.0000000000000000000, 0.0000000000000000000 ) ) ;
#255 =( LENGTH_UNIT ( ) NAMED_UNIT ( * ) SI_UNIT ( $, .METRE. ) );
#256 =( NAMED_UNIT ( * ) SI_UNIT ( $, .STERADIAN. ) SOLID_ANGLE_UNIT ( ) );
#257 = SURFACE_STYLE_USAGE ( .BOTH. , #166 ) ;
#258 = AXIS2_PLACEMENT_3D ( 'NONE', #51, #228, #206 ) ;
#259 = PRESENTATION_LAYER_ASSIGNMENT (  '', '', ( #122 ) ) ;
#260 = ORIENTED_EDGE ( 'NONE', *, *, #138, .T. ) ;
#261 = DIRECTION ( 'NONE',  ( 1.000000000000000000, 0.0000000000000000000, 0.0000000000000000000 ) ) ;
#262 = DIRECTION ( 'NONE',  ( 1.000000000000000000, 0.0000000000000000000, 0.0000000000000000000 ) ) ;
#263 = DIRECTION ( 'NONE',  ( 1.224646799147353207E-16, 0.0000000000000000000, 1.000000000000000000 ) ) ;
#264 = CIRCLE ( 'NONE', #172, 0.1181100000000000066 ) ;
#265 = CONICAL_SURFACE ( 'NONE', #142, 0.1031100000000002570, 0.7853981633974318477 ) ;
#266 = DIRECTION ( 'NONE',  ( 1.224646799147353207E-16, 0.0000000000000000000, 1.000000000000000000 ) ) ;
#267 = ADVANCED_FACE ( 'NONE', ( #144 ), #265, .T. ) ;
#268 =( NAMED_UNIT ( * ) SI_UNIT ( $, .STERADIAN. ) SOLID_ANGLE_UNIT ( ) );
#269 = FACE_OUTER_BOUND ( 'NONE', #72, .T. ) ;
#270 = EDGE_LOOP ( 'NONE', ( #7, #58 ) ) ;
#271 = EDGE_CURVE ( 'NONE', #86, #170, #73, .T. ) ;
#272 = VECTOR ( 'NONE', #47, 39.37007874015748854 ) ;
#273 = AXIS2_PLACEMENT_3D ( 'NONE', #283, #31, #77 ) ;
#274 = CARTESIAN_POINT ( 'NONE',  ( -0.09832657499999988837, 1.325291793960830375E-17, 0.7874019999999999353 ) ) ;
#275 = CARTESIAN_POINT ( 'NONE',  ( 0.0000000000000000000, 0.0000000000000000000, 2.244094000000000033 ) ) ;
#276 = LINE ( 'NONE', #112, #50 ) ;
#277 = ORIENTED_EDGE ( 'NONE', *, *, #190, .T. ) ;
#278 = DIRECTION ( 'NONE',  ( 0.0000000000000000000, 0.0000000000000000000, 1.000000000000000000 ) ) ;
#279 = EDGE_CURVE ( 'NONE', #233, #52, #288, .T. ) ;
#280 = DIRECTION ( 'NONE',  ( -1.224646799147353207E-16, -0.0000000000000000000, -1.000000000000000000 ) ) ;
#281 = CARTESIAN_POINT ( 'NONE',  ( 0.0000000000000000000, 0.0000000000000000000, 2.244094000000000033 ) ) ;
#282 = VECTOR ( 'NONE', #201, 39.37007874015748854 ) ;
#283 = CARTESIAN_POINT ( 'NONE',  ( 9.642893389422242582E-17, 0.0000000000000000000, 0.7874019999999999353 ) ) ;
#284 = FILL_AREA_STYLE ('',( #189 ) ) ;
#285 = EDGE_LOOP ( 'NONE', ( #197, #277, #221, #198 ) ) ;
#286 = EDGE_CURVE ( 'NONE', #105, #153, #75, .T. ) ;
#287 = CIRCLE ( 'NONE', #169, 0.1181100000000000066 ) ;
#288 = CIRCLE ( 'NONE', #67, 0.09832657499999998552 ) ;
#289 = CARTESIAN_POINT ( 'NONE',  ( 0.1181100000000000066, 1.446430334472939084E-17, 2.244094000000000033 ) ) ;
#290 = VERTEX_POINT ( 'NONE', #121 ) ;
#291 = FACE_OUTER_BOUND ( 'NONE', #25, .T. ) ;
#292 = DIMENSIONAL_EXPONENTS ( 1.000000000000000000, 0.0000000000000000000, 0.0000000000000000000, 0.0000000000000000000, 0.0000000000000000000, 0.0000000000000000000, 0.0000000000000000000 ) ;
#293 = EDGE_LOOP ( 'NONE', ( #161, #239, #192, #231 ) ) ;
#294 = DIRECTION ( 'NONE',  ( 1.000000000000000000, 0.0000000000000000000, 0.0000000000000000000 ) ) ;
#295 = DIRECTION ( 'NONE',  ( 1.000000000000000000, 0.0000000000000000000, 0.0000000000000000000 ) ) ;
#296 = EDGE_CURVE ( 'NONE', #217, #233, #143, .T. ) ;
#297 =( GEOMETRIC_REPRESENTATION_CONTEXT ( 3 ) GLOBAL_UNCERTAINTY_ASSIGNED_CONTEXT ( ( #27 ) ) GLOBAL_UNIT_ASSIGNED_CONTEXT ( ( #211, #120, #256 ) ) REPRESENTATION_CONTEXT ( 'NONE', 'WORKASPACE' ) );
#298 = CARTESIAN_POINT ( 'NONE',  ( -0.09832657499999988837, 1.204153253448721512E-17, 0.7874019999999999353 ) ) ;
#299 = FACE_OUTER_BOUND ( 'NONE', #180, .T. ) ;
ENDSEC;
END-ISO-10303-21;
