ISO-10303-21;
HEADER;
FILE_DESCRIPTION (( 'STEP AP214' ),
    '1' );
FILE_NAME ('Micro_AMRM-020-2.STEP',
    '2021-09-01T17:17:35',
    ( '' ),
    ( '' ),
    'SwSTEP 2.0',
    'SolidWorks 2020',
    '' );
FILE_SCHEMA (( 'AUTOMOTIVE_DESIGN' ));
ENDSEC;

DATA;
#1 = EDGE_CURVE ( 'NONE', #60, #183, #283, .T. ) ;
#2 = UNCERTAINTY_MEASURE_WITH_UNIT (LENGTH_MEASURE( 1.000000000000000082E-05 ), #58, 'distance_accuracy_value', 'NONE');
#3 = ORIENTED_EDGE ( 'NONE', *, *, #83, .T. ) ;
#4 = ORIENTED_EDGE ( 'NONE', *, *, #191, .T. ) ;
#5 = DIRECTION ( 'NONE',  ( -1.000000000000000000, 0.0000000000000000000, 0.0000000000000000000 ) ) ;
#6 = DIRECTION ( 'NONE',  ( 1.224646799147353207E-16, 0.0000000000000000000, 1.000000000000000000 ) ) ;
#7 = CARTESIAN_POINT ( 'NONE',  ( 0.07874000000000001831, 9.642868896486260050E-18, 1.953504000000000129 ) ) ;
#8 = PRODUCT_RELATED_PRODUCT_CATEGORY ( 'part', '', ( #134 ) ) ;
#9 = SURFACE_SIDE_STYLE ('',( #289 ) ) ;
#10 = CARTESIAN_POINT ( 'NONE',  ( 0.03933063000000001919, 0.0000000000000000000, 0.2362200000000000133 ) ) ;
#11 = DIRECTION ( 'NONE',  ( 1.224646799147353207E-16, 0.0000000000000000000, 1.000000000000000000 ) ) ;
#12 = AXIS2_PLACEMENT_3D ( 'NONE', #213, #27, #5 ) ;
#13 = AXIS2_PLACEMENT_3D ( 'NONE', #119, #217, #95 ) ;
#14 = MANIFOLD_SOLID_BREP ( 'Cut-Revolve1', #48 ) ;
#15 = DIRECTION ( 'NONE',  ( -1.224646799147353207E-16, -0.0000000000000000000, -1.000000000000000000 ) ) ;
#16 = CARTESIAN_POINT ( 'NONE',  ( 0.03933062999999999837, 4.816613013794885432E-18, -4.816613013794885432E-18 ) ) ;
#17 = DIRECTION ( 'NONE',  ( 0.0000000000000000000, 0.0000000000000000000, 1.000000000000000000 ) ) ;
#18 = AXIS2_PLACEMENT_3D ( 'NONE', #222, #198, #33 ) ;
#19 = CYLINDRICAL_SURFACE ( 'NONE', #97, 0.07874000000000001831 ) ;
#20 = EDGE_LOOP ( 'NONE', ( #158, #40, #50, #133 ) ) ;
#21 = CIRCLE ( 'NONE', #215, 0.07874000000000001831 ) ;
#22 =( CONVERSION_BASED_UNIT ( 'INCH', #230 ) LENGTH_UNIT ( ) NAMED_UNIT ( #245 ) );
#23 = ORIENTED_EDGE ( 'NONE', *, *, #218, .F. ) ;
#24 = ADVANCED_FACE ( 'NONE', ( #259 ), #262, .T. ) ;
#25 = CIRCLE ( 'NONE', #122, 0.07874000000000001831 ) ;
#26 = FACE_OUTER_BOUND ( 'NONE', #277, .T. ) ;
#27 = DIRECTION ( 'NONE',  ( 0.0000000000000000000, 0.0000000000000000000, -1.000000000000000000 ) ) ;
#28 = CARTESIAN_POINT ( 'NONE',  ( -0.03933062999999997061, 7.229740955140571970E-18, 0.2362200000000000133 ) ) ;
#29 = AXIS2_PLACEMENT_3D ( 'NONE', #194, #159, #180 ) ;
#30 =( NAMED_UNIT ( * ) PLANE_ANGLE_UNIT ( ) SI_UNIT ( $, .RADIAN. ) );
#31 = FACE_OUTER_BOUND ( 'NONE', #71, .T. ) ;
#32 = CARTESIAN_POINT ( 'NONE',  ( -0.07873999999999996280, 0.0000000000000000000, 0.4597216436035865272 ) ) ;
#33 = DIRECTION ( 'NONE',  ( -1.000000000000000000, 0.0000000000000000000, 1.224646799147352961E-16 ) ) ;
#34 = DIMENSIONAL_EXPONENTS ( 1.000000000000000000, 0.0000000000000000000, 0.0000000000000000000, 0.0000000000000000000, 0.0000000000000000000, 0.0000000000000000000, 0.0000000000000000000 ) ;
#35 = CARTESIAN_POINT ( 'NONE',  ( 5.629966393378925413E-17, 0.0000000000000000000, 0.4597216436035865272 ) ) ;
#36 = CARTESIAN_POINT ( 'NONE',  ( 0.07874000000000007382, 9.642868896486266213E-18, 0.4597216436035865272 ) ) ;
#37 = EDGE_CURVE ( 'NONE', #49, #156, #187, .T. ) ;
#38 =( NAMED_UNIT ( * ) PLANE_ANGLE_UNIT ( ) SI_UNIT ( $, .RADIAN. ) );
#39 = CIRCLE ( 'NONE', #195, 0.03933062999999999837 ) ;
#40 = ORIENTED_EDGE ( 'NONE', *, *, #106, .T. ) ;
#41 = VECTOR ( 'NONE', #149, 39.37007874015748143 ) ;
#42 = DIRECTION ( 'NONE',  ( 0.0000000000000000000, 0.0000000000000000000, 1.000000000000000000 ) ) ;
#43 = EDGE_LOOP ( 'NONE', ( #3, #4 ) ) ;
#44 = CARTESIAN_POINT ( 'NONE',  ( 0.06374000000000018540, 7.805898697765251255E-18, 1.968503999999999809 ) ) ;
#45 = CIRCLE ( 'NONE', #29, 0.07874000000000001831 ) ;
#46 = DIRECTION ( 'NONE',  ( 0.0000000000000000000, 0.0000000000000000000, -1.000000000000000000 ) ) ;
#47 = EDGE_CURVE ( 'NONE', #163, #60, #164, .T. ) ;
#48 = CLOSED_SHELL ( 'NONE', ( #157, #77, #55, #284, #288, #240, #24, #186, #118, #170 ) ) ;
#49 = VERTEX_POINT ( 'NONE', #28 ) ;
#50 = ORIENTED_EDGE ( 'NONE', *, *, #83, .F. ) ;
#51 = CARTESIAN_POINT ( 'NONE',  ( 0.0000000000000000000, 0.0000000000000000000, 1.968503999999999809 ) ) ;
#52 = DIRECTION ( 'NONE',  ( -1.000000000000000000, 0.0000000000000000000, 1.224646799147352961E-16 ) ) ;
#53 = CYLINDRICAL_SURFACE ( 'NONE', #104, 0.03933062999999999837 ) ;
#54 = AXIS2_PLACEMENT_3D ( 'NONE', #92, #94, #189 ) ;
#55 = ADVANCED_FACE ( 'NONE', ( #26 ), #96, .T. ) ;
#56 = DIRECTION ( 'NONE',  ( -1.224646799147353207E-16, -0.0000000000000000000, -1.000000000000000000 ) ) ;
#57 = FACE_OUTER_BOUND ( 'NONE', #114, .T. ) ;
#58 =( CONVERSION_BASED_UNIT ( 'INCH', #181 ) LENGTH_UNIT ( ) NAMED_UNIT ( #34 ) );
#59 = ORIENTED_EDGE ( 'NONE', *, *, #131, .F. ) ;
#60 = VERTEX_POINT ( 'NONE', #7 ) ;
#61 = EDGE_CURVE ( 'NONE', #60, #235, #176, .T. ) ;
#62 =( NAMED_UNIT ( * ) PLANE_ANGLE_UNIT ( ) SI_UNIT ( $, .RADIAN. ) );
#63 = ORIENTED_EDGE ( 'NONE', *, *, #131, .T. ) ;
#64 = EDGE_LOOP ( 'NONE', ( #281, #282, #110, #279 ) ) ;
#65 = PRESENTATION_STYLE_ASSIGNMENT (( #232 ) ) ;
#66 = ORIENTED_EDGE ( 'NONE', *, *, #272, .T. ) ;
#67 = LENGTH_MEASURE_WITH_UNIT ( LENGTH_MEASURE( 0.02539999999999999897 ), #117 );
#68 = FACE_OUTER_BOUND ( 'NONE', #234, .T. ) ;
#69 = DIRECTION ( 'NONE',  ( 1.000000000000000000, 0.0000000000000000000, 0.0000000000000000000 ) ) ;
#70 = PRODUCT_DEFINITION_CONTEXT ( 'detailed design', #290, 'design' ) ;
#71 = EDGE_LOOP ( 'NONE', ( #185, #23, #211, #273 ) ) ;
#72 = DIMENSIONAL_EXPONENTS ( 1.000000000000000000, 0.0000000000000000000, 0.0000000000000000000, 0.0000000000000000000, 0.0000000000000000000, 0.0000000000000000000, 0.0000000000000000000 ) ;
#73 = AXIS2_PLACEMENT_3D ( 'NONE', #247, #206, #271 ) ;
#74 = CARTESIAN_POINT ( 'NONE',  ( -0.06374000000000018540, 0.0000000000000000000, 1.968503999999999809 ) ) ;
#75 = DIRECTION ( 'NONE',  ( -1.224646799147353207E-16, -0.0000000000000000000, -1.000000000000000000 ) ) ;
#76 = CARTESIAN_POINT ( 'NONE',  ( 2.892860668945878169E-17, 0.0000000000000000000, 0.2362200000000000133 ) ) ;
#77 = ADVANCED_FACE ( 'NONE', ( #68 ), #84, .T. ) ;
#78 = FACE_OUTER_BOUND ( 'NONE', #43, .T. ) ;
#79 = AXIS2_PLACEMENT_3D ( 'NONE', #287, #166, #261 ) ;
#80 = CIRCLE ( 'NONE', #18, 0.03933062999999999837 ) ;
#81 = CARTESIAN_POINT ( 'NONE',  ( 2.892860668945878169E-17, 0.0000000000000000000, 0.2362200000000000133 ) ) ;
#82 = VERTEX_POINT ( 'NONE', #192 ) ;
#83 = EDGE_CURVE ( 'NONE', #165, #89, #220, .T. ) ;
#84 = CONICAL_SURFACE ( 'NONE', #214, 0.03933062999999999837, 0.1745329251994338915 ) ;
#85 = EDGE_LOOP ( 'NONE', ( #233, #236, #59, #155 ) ) ;
#86 = SURFACE_STYLE_FILL_AREA ( #227 ) ;
#87 = ORIENTED_EDGE ( 'NONE', *, *, #100, .F. ) ;
#88 = ORIENTED_EDGE ( 'NONE', *, *, #1, .F. ) ;
#89 = VERTEX_POINT ( 'NONE', #241 ) ;
#90 = AXIS2_PLACEMENT_3D ( 'NONE', #51, #219, #199 ) ;
#91 = DIRECTION ( 'NONE',  ( -1.000000000000000000, 0.0000000000000000000, 0.0000000000000000000 ) ) ;
#92 = CARTESIAN_POINT ( 'NONE',  ( 0.0000000000000000000, 0.0000000000000000000, 1.953504000000000129 ) ) ;
#93 = DIRECTION ( 'NONE',  ( -0.0000000000000000000, -0.0000000000000000000, -1.000000000000000000 ) ) ;
#94 = DIRECTION ( 'NONE',  ( 0.0000000000000000000, 0.0000000000000000000, -1.000000000000000000 ) ) ;
#95 = DIRECTION ( 'NONE',  ( 1.000000000000000000, 0.0000000000000000000, -0.0000000000000000000 ) ) ;
#96 = CONICAL_SURFACE ( 'NONE', #12, 0.06374000000000018540, 0.7853981633974528309 ) ;
#97 = AXIS2_PLACEMENT_3D ( 'NONE', #109, #209, #275 ) ;
#98 = CARTESIAN_POINT ( 'NONE',  ( 0.0000000000000000000, 0.0000000000000000000, 0.0000000000000000000 ) ) ;
#99 = DIRECTION ( 'NONE',  ( 0.1736481776669313859, 0.0000000000000000000, 0.9848077530122077983 ) ) ;
#100 = EDGE_CURVE ( 'NONE', #163, #82, #253, .T. ) ;
#101 = DIRECTION ( 'NONE',  ( 1.000000000000000000, 0.0000000000000000000, 0.0000000000000000000 ) ) ;
#102 = DIRECTION ( 'NONE',  ( -1.224646799147353207E-16, -0.0000000000000000000, -1.000000000000000000 ) ) ;
#103 = STYLED_ITEM ( 'NONE', ( #193 ), #14 ) ;
#104 = AXIS2_PLACEMENT_3D ( 'NONE', #98, #75, #52 ) ;
#105 = CARTESIAN_POINT ( 'NONE',  ( 0.03933063000000001919, 0.0000000000000000000, 0.2362200000000000133 ) ) ;
#106 = EDGE_CURVE ( 'NONE', #256, #89, #244, .T. ) ;
#107 = FACE_OUTER_BOUND ( 'NONE', #179, .T. ) ;
#108 = ORIENTED_EDGE ( 'NONE', *, *, #100, .T. ) ;
#109 = CARTESIAN_POINT ( 'NONE',  ( 0.0000000000000000000, 0.0000000000000000000, 1.968503999999999809 ) ) ;
#110 = ORIENTED_EDGE ( 'NONE', *, *, #139, .T. ) ;
#111 = APPLICATION_PROTOCOL_DEFINITION ( 'draft international standard', 'automotive_design', 1998, #290 ) ;
#112 = ORIENTED_EDGE ( 'NONE', *, *, #139, .F. ) ;
#113 = CARTESIAN_POINT ( 'NONE',  ( 2.892860668945878169E-17, 0.0000000000000000000, 0.2362200000000000133 ) ) ;
#114 = EDGE_LOOP ( 'NONE', ( #145, #108 ) ) ;
#115 = MECHANICAL_DESIGN_GEOMETRIC_PRESENTATION_REPRESENTATION (  '', ( #274 ), #138 ) ;
#116 = UNCERTAINTY_MEASURE_WITH_UNIT (LENGTH_MEASURE( 1.000000000000000082E-05 ), #22, 'distance_accuracy_value', 'NONE');
#117 =( LENGTH_UNIT ( ) NAMED_UNIT ( * ) SI_UNIT ( $, .METRE. ) );
#118 = ADVANCED_FACE ( 'NONE', ( #265 ), #53, .T. ) ;
#119 = CARTESIAN_POINT ( 'NONE',  ( 0.0000000000000000000, 0.0000000000000000000, 1.968503999999999809 ) ) ;
#120 = VECTOR ( 'NONE', #93, 39.37007874015748143 ) ;
#121 = CARTESIAN_POINT ( 'NONE',  ( -0.03933062999999999837, 0.0000000000000000000, 9.633226027589770864E-18 ) ) ;
#122 = AXIS2_PLACEMENT_3D ( 'NONE', #35, #264, #150 ) ;
#123 = LINE ( 'NONE', #297, #255 ) ;
#124 = EDGE_CURVE ( 'NONE', #183, #156, #21, .T. ) ;
#125 = CYLINDRICAL_SURFACE ( 'NONE', #296, 0.03933062999999999837 ) ;
#126 = DIRECTION ( 'NONE',  ( -1.224646799147353207E-16, -0.0000000000000000000, -1.000000000000000000 ) ) ;
#127 = LINE ( 'NONE', #252, #221 ) ;
#128 = AXIS2_PLACEMENT_3D ( 'NONE', #81, #126, #295 ) ;
#129 = CARTESIAN_POINT ( 'NONE',  ( 0.0000000000000000000, 0.0000000000000000000, 0.0000000000000000000 ) ) ;
#130 = ORIENTED_EDGE ( 'NONE', *, *, #218, .T. ) ;
#131 = EDGE_CURVE ( 'NONE', #156, #183, #25, .T. ) ;
#132 = APPLICATION_PROTOCOL_DEFINITION ( 'draft international standard', 'automotive_design', 1998, #270 ) ;
#133 = ORIENTED_EDGE ( 'NONE', *, *, #196, .F. ) ;
#134 = PRODUCT ( 'Micro_AMRM-020-2', 'Micro_AMRM-020-2', '', ( #135 ) ) ;
#135 = PRODUCT_CONTEXT ( 'NONE', #270, 'mechanical' ) ;
#136 = CARTESIAN_POINT ( 'NONE',  ( 0.0000000000000000000, 0.0000000000000000000, 1.968503999999999809 ) ) ;
#137 = PRESENTATION_LAYER_ASSIGNMENT (  '', '', ( #103 ) ) ;
#138 =( GEOMETRIC_REPRESENTATION_CONTEXT ( 3 ) GLOBAL_UNCERTAINTY_ASSIGNED_CONTEXT ( ( #116 ) ) GLOBAL_UNIT_ASSIGNED_CONTEXT ( ( #22, #62, #278 ) ) REPRESENTATION_CONTEXT ( 'NONE', 'WORKASPACE' ) );
#139 = EDGE_CURVE ( 'NONE', #82, #235, #146, .T. ) ;
#140 = ADVANCED_BREP_SHAPE_REPRESENTATION ( 'Micro_AMRM-020-2', ( #14, #263 ), #210 ) ;
#141 = FILL_AREA_STYLE_COLOUR ( '', #172 ) ;
#142 = DIRECTION ( 'NONE',  ( -0.1736481776669311916, 2.126576849575783316E-17, 0.9848077530122080203 ) ) ;
#143 = ORIENTED_EDGE ( 'NONE', *, *, #47, .T. ) ;
#144 = AXIS2_PLACEMENT_3D ( 'NONE', #76, #11, #101 ) ;
#145 = ORIENTED_EDGE ( 'NONE', *, *, #229, .T. ) ;
#146 = LINE ( 'NONE', #74, #161 ) ;
#147 = DIRECTION ( 'NONE',  ( 0.0000000000000000000, 0.0000000000000000000, 1.000000000000000000 ) ) ;
#148 = PRODUCT_DEFINITION ( 'UNKNOWN', '', #226, #70 ) ;
#149 = DIRECTION ( 'NONE',  ( -1.224646799147353207E-16, -0.0000000000000000000, -1.000000000000000000 ) ) ;
#150 = DIRECTION ( 'NONE',  ( 1.000000000000000000, 0.0000000000000000000, 0.0000000000000000000 ) ) ;
#151 = PLANE ( 'NONE',  #13 ) ;
#152 =( NAMED_UNIT ( * ) SI_UNIT ( $, .STERADIAN. ) SOLID_ANGLE_UNIT ( ) );
#153 = VECTOR ( 'NONE', #237, 39.37007874015748143 ) ;
#154 = CONICAL_SURFACE ( 'NONE', #144, 0.03933062999999999837, 0.1745329251994338915 ) ;
#155 = ORIENTED_EDGE ( 'NONE', *, *, #272, .F. ) ;
#156 = VERTEX_POINT ( 'NONE', #32 ) ;
#157 = ADVANCED_FACE ( 'NONE', ( #268 ), #125, .T. ) ;
#158 = ORIENTED_EDGE ( 'NONE', *, *, #224, .T. ) ;
#159 = DIRECTION ( 'NONE',  ( 0.0000000000000000000, 0.0000000000000000000, -1.000000000000000000 ) ) ;
#160 = ORIENTED_EDGE ( 'NONE', *, *, #243, .F. ) ;
#161 = VECTOR ( 'NONE', #169, 39.37007874015748143 ) ;
#162 = SHAPE_DEFINITION_REPRESENTATION ( #188, #140 ) ;
#163 = VERTEX_POINT ( 'NONE', #294 ) ;
#164 = LINE ( 'NONE', #44, #153 ) ;
#165 = VERTEX_POINT ( 'NONE', #121 ) ;
#166 = DIRECTION ( 'NONE',  ( -1.224646799147353207E-16, -0.0000000000000000000, -1.000000000000000000 ) ) ;
#167 = PRESENTATION_LAYER_ASSIGNMENT (  '', '', ( #274 ) ) ;
#168 = DIRECTION ( 'NONE',  ( 1.000000000000000000, 0.0000000000000000000, 0.0000000000000000000 ) ) ;
#169 = DIRECTION ( 'NONE',  ( -0.7071067811865507924, 0.0000000000000000000, -0.7071067811865443531 ) ) ;
#170 = ADVANCED_FACE ( 'NONE', ( #78 ), #223, .F. ) ;
#171 = CARTESIAN_POINT ( 'NONE',  ( 5.629966393378925413E-17, 0.0000000000000000000, 0.4597216436035865272 ) ) ;
#172 = COLOUR_RGB ( '',0.7921568627450980005, 0.8196078431372548767, 0.9333333333333333481 ) ;
#173 = DIRECTION ( 'NONE',  ( -1.224646799147353207E-16, -0.0000000000000000000, -1.000000000000000000 ) ) ;
#174 = DIRECTION ( 'NONE',  ( -1.000000000000000000, 0.0000000000000000000, 0.0000000000000000000 ) ) ;
#175 = CYLINDRICAL_SURFACE ( 'NONE', #73, 0.07874000000000001831 ) ;
#176 = CIRCLE ( 'NONE', #54, 0.07874000000000001831 ) ;
#177 =( GEOMETRIC_REPRESENTATION_CONTEXT ( 3 ) GLOBAL_UNCERTAINTY_ASSIGNED_CONTEXT ( ( #182 ) ) GLOBAL_UNIT_ASSIGNED_CONTEXT ( ( #239, #30, #212 ) ) REPRESENTATION_CONTEXT ( 'NONE', 'WORKASPACE' ) );
#178 = COLOUR_RGB ( '',0.7921568627450980005, 0.8196078431372548767, 0.9333333333333333481 ) ;
#179 = EDGE_LOOP ( 'NONE', ( #88, #205, #66, #251 ) ) ;
#180 = DIRECTION ( 'NONE',  ( 1.000000000000000000, 0.0000000000000000000, 0.0000000000000000000 ) ) ;
#181 = LENGTH_MEASURE_WITH_UNIT ( LENGTH_MEASURE( 0.02539999999999999897 ), #184 );
#182 = UNCERTAINTY_MEASURE_WITH_UNIT (LENGTH_MEASURE( 1.000000000000000082E-05 ), #239, 'distance_accuracy_value', 'NONE');
#183 = VERTEX_POINT ( 'NONE', #36 ) ;
#184 =( LENGTH_UNIT ( ) NAMED_UNIT ( * ) SI_UNIT ( $, .METRE. ) );
#185 = ORIENTED_EDGE ( 'NONE', *, *, #37, .F. ) ;
#186 = ADVANCED_FACE ( 'NONE', ( #31 ), #154, .T. ) ;
#187 = LINE ( 'NONE', #216, #292 ) ;
#188 = PRODUCT_DEFINITION_SHAPE ( 'NONE', 'NONE',  #148 ) ;
#189 = DIRECTION ( 'NONE',  ( 1.000000000000000000, 0.0000000000000000000, 0.0000000000000000000 ) ) ;
#190 = FILL_AREA_STYLE ('',( #141 ) ) ;
#191 = EDGE_CURVE ( 'NONE', #89, #165, #80, .T. ) ;
#192 = CARTESIAN_POINT ( 'NONE',  ( -0.06374000000000018540, 0.0000000000000000000, 1.968503999999999809 ) ) ;
#193 = PRESENTATION_STYLE_ASSIGNMENT (( #286 ) ) ;
#194 = CARTESIAN_POINT ( 'NONE',  ( 0.0000000000000000000, 0.0000000000000000000, 1.953504000000000129 ) ) ;
#195 = AXIS2_PLACEMENT_3D ( 'NONE', #266, #173, #174 ) ;
#196 = EDGE_CURVE ( 'NONE', #49, #165, #123, .T. ) ;
#197 = DIRECTION ( 'NONE',  ( -1.000000000000000000, 0.0000000000000000000, 1.224646799147352961E-16 ) ) ;
#198 = DIRECTION ( 'NONE',  ( -1.224646799147353207E-16, -0.0000000000000000000, -1.000000000000000000 ) ) ;
#199 = DIRECTION ( 'NONE',  ( 1.000000000000000000, 0.0000000000000000000, 0.0000000000000000000 ) ) ;
#200 = EDGE_CURVE ( 'NONE', #256, #183, #202, .T. ) ;
#201 = CIRCLE ( 'NONE', #238, 0.06374000000000018540 ) ;
#202 = LINE ( 'NONE', #10, #248 ) ;
#203 = ORIENTED_EDGE ( 'NONE', *, *, #196, .T. ) ;
#204 = FACE_OUTER_BOUND ( 'NONE', #85, .T. ) ;
#205 = ORIENTED_EDGE ( 'NONE', *, *, #61, .T. ) ;
#206 = DIRECTION ( 'NONE',  ( -0.0000000000000000000, -0.0000000000000000000, -1.000000000000000000 ) ) ;
#207 = ORIENTED_EDGE ( 'NONE', *, *, #37, .T. ) ;
#208 = ORIENTED_EDGE ( 'NONE', *, *, #191, .F. ) ;
#209 = DIRECTION ( 'NONE',  ( -0.0000000000000000000, -0.0000000000000000000, -1.000000000000000000 ) ) ;
#210 =( GEOMETRIC_REPRESENTATION_CONTEXT ( 3 ) GLOBAL_UNCERTAINTY_ASSIGNED_CONTEXT ( ( #2 ) ) GLOBAL_UNIT_ASSIGNED_CONTEXT ( ( #58, #38, #152 ) ) REPRESENTATION_CONTEXT ( 'NONE', 'WORKASPACE' ) );
#211 = ORIENTED_EDGE ( 'NONE', *, *, #200, .T. ) ;
#212 =( NAMED_UNIT ( * ) SI_UNIT ( $, .STERADIAN. ) SOLID_ANGLE_UNIT ( ) );
#213 = CARTESIAN_POINT ( 'NONE',  ( 0.0000000000000000000, 0.0000000000000000000, 1.968503999999999809 ) ) ;
#214 = AXIS2_PLACEMENT_3D ( 'NONE', #113, #6, #69 ) ;
#215 = AXIS2_PLACEMENT_3D ( 'NONE', #171, #56, #168 ) ;
#216 = CARTESIAN_POINT ( 'NONE',  ( -0.03933062999999997061, 4.816613013794885432E-18, 0.2362200000000000133 ) ) ;
#217 = DIRECTION ( 'NONE',  ( 0.0000000000000000000, 0.0000000000000000000, 1.000000000000000000 ) ) ;
#218 = EDGE_CURVE ( 'NONE', #256, #49, #267, .T. ) ;
#219 = DIRECTION ( 'NONE',  ( 0.0000000000000000000, 0.0000000000000000000, 1.000000000000000000 ) ) ;
#220 = CIRCLE ( 'NONE', #79, 0.03933062999999999837 ) ;
#221 = VECTOR ( 'NONE', #299, 39.37007874015748143 ) ;
#222 = CARTESIAN_POINT ( 'NONE',  ( 5.898649710075393742E-34, 0.0000000000000000000, 4.816613013794885432E-18 ) ) ;
#223 = PLANE ( 'NONE',  #280 ) ;
#224 = EDGE_CURVE ( 'NONE', #49, #256, #39, .T. ) ;
#225 = CARTESIAN_POINT ( 'NONE',  ( 0.0000000000000000000, 0.0000000000000000000, 1.968503999999999809 ) ) ;
#226 = PRODUCT_DEFINITION_FORMATION_WITH_SPECIFIED_SOURCE ( 'ANY', '', #134, .NOT_KNOWN. ) ;
#227 = FILL_AREA_STYLE ('',( #249 ) ) ;
#228 =( LENGTH_UNIT ( ) NAMED_UNIT ( * ) SI_UNIT ( $, .METRE. ) );
#229 = EDGE_CURVE ( 'NONE', #82, #163, #201, .T. ) ;
#230 = LENGTH_MEASURE_WITH_UNIT ( LENGTH_MEASURE( 0.02539999999999999897 ), #228 );
#231 = EDGE_LOOP ( 'NONE', ( #298, #130, #203, #208 ) ) ;
#232 = SURFACE_STYLE_USAGE ( .BOTH. , #276 ) ;
#233 = ORIENTED_EDGE ( 'NONE', *, *, #243, .T. ) ;
#234 = EDGE_LOOP ( 'NONE', ( #257, #207, #63, #250 ) ) ;
#235 = VERTEX_POINT ( 'NONE', #291 ) ;
#236 = ORIENTED_EDGE ( 'NONE', *, *, #1, .T. ) ;
#237 = DIRECTION ( 'NONE',  ( 0.7071067811865507924, 8.659560562354973534E-17, -0.7071067811865443531 ) ) ;
#238 = AXIS2_PLACEMENT_3D ( 'NONE', #225, #17, #269 ) ;
#239 =( CONVERSION_BASED_UNIT ( 'INCH', #67 ) LENGTH_UNIT ( ) NAMED_UNIT ( #72 ) );
#240 = ADVANCED_FACE ( 'NONE', ( #57 ), #151, .T. ) ;
#241 = CARTESIAN_POINT ( 'NONE',  ( 0.03933062999999999837, 4.816613013794885432E-18, 0.0000000000000000000 ) ) ;
#242 = DIRECTION ( 'NONE',  ( 1.000000000000000000, 0.0000000000000000000, -0.0000000000000000000 ) ) ;
#243 = EDGE_CURVE ( 'NONE', #235, #60, #45, .T. ) ;
#244 = LINE ( 'NONE', #16, #41 ) ;
#245 = DIMENSIONAL_EXPONENTS ( 1.000000000000000000, 0.0000000000000000000, 0.0000000000000000000, 0.0000000000000000000, 0.0000000000000000000, 0.0000000000000000000, 0.0000000000000000000 ) ;
#246 = CARTESIAN_POINT ( 'NONE',  ( 0.0000000000000000000, 0.0000000000000000000, 0.0000000000000000000 ) ) ;
#247 = CARTESIAN_POINT ( 'NONE',  ( 0.0000000000000000000, 0.0000000000000000000, 1.968503999999999809 ) ) ;
#248 = VECTOR ( 'NONE', #99, 39.37007874015748143 ) ;
#249 = FILL_AREA_STYLE_COLOUR ( '', #178 ) ;
#250 = ORIENTED_EDGE ( 'NONE', *, *, #200, .F. ) ;
#251 = ORIENTED_EDGE ( 'NONE', *, *, #124, .F. ) ;
#252 = CARTESIAN_POINT ( 'NONE',  ( -0.07874000000000001831, 0.0000000000000000000, 1.968503999999999809 ) ) ;
#253 = CIRCLE ( 'NONE', #90, 0.06374000000000018540 ) ;
#254 = DIRECTION ( 'NONE',  ( 1.000000000000000000, 0.0000000000000000000, 0.0000000000000000000 ) ) ;
#255 = VECTOR ( 'NONE', #15, 39.37007874015748143 ) ;
#256 = VERTEX_POINT ( 'NONE', #105 ) ;
#257 = ORIENTED_EDGE ( 'NONE', *, *, #224, .F. ) ;
#258 = AXIS2_PLACEMENT_3D ( 'NONE', #136, #46, #91 ) ;
#259 = FACE_OUTER_BOUND ( 'NONE', #64, .T. ) ;
#260 = CARTESIAN_POINT ( 'NONE',  ( 0.07874000000000001831, 9.642868896486260050E-18, 1.968503999999999809 ) ) ;
#261 = DIRECTION ( 'NONE',  ( -1.000000000000000000, 0.0000000000000000000, 1.224646799147352961E-16 ) ) ;
#262 = CONICAL_SURFACE ( 'NONE', #258, 0.06374000000000018540, 0.7853981633974528309 ) ;
#263 = AXIS2_PLACEMENT_3D ( 'NONE', #129, #42, #254 ) ;
#264 = DIRECTION ( 'NONE',  ( -1.224646799147353207E-16, -0.0000000000000000000, -1.000000000000000000 ) ) ;
#265 = FACE_OUTER_BOUND ( 'NONE', #231, .T. ) ;
#266 = CARTESIAN_POINT ( 'NONE',  ( 2.892860668945878169E-17, 0.0000000000000000000, 0.2362200000000000133 ) ) ;
#267 = CIRCLE ( 'NONE', #128, 0.03933062999999999837 ) ;
#268 = FACE_OUTER_BOUND ( 'NONE', #20, .T. ) ;
#269 = DIRECTION ( 'NONE',  ( 1.000000000000000000, 0.0000000000000000000, 0.0000000000000000000 ) ) ;
#270 = APPLICATION_CONTEXT ( 'automotive_design' ) ;
#271 = DIRECTION ( 'NONE',  ( -1.000000000000000000, 0.0000000000000000000, 0.0000000000000000000 ) ) ;
#272 = EDGE_CURVE ( 'NONE', #235, #156, #127, .T. ) ;
#273 = ORIENTED_EDGE ( 'NONE', *, *, #124, .T. ) ;
#274 = STYLED_ITEM ( 'NONE', ( #65 ), #140 ) ;
#275 = DIRECTION ( 'NONE',  ( -1.000000000000000000, 0.0000000000000000000, 0.0000000000000000000 ) ) ;
#276 = SURFACE_SIDE_STYLE ('',( #86 ) ) ;
#277 = EDGE_LOOP ( 'NONE', ( #87, #143, #160, #112 ) ) ;
#278 =( NAMED_UNIT ( * ) SI_UNIT ( $, .STERADIAN. ) SOLID_ANGLE_UNIT ( ) );
#279 = ORIENTED_EDGE ( 'NONE', *, *, #61, .F. ) ;
#280 = AXIS2_PLACEMENT_3D ( 'NONE', #293, #147, #242 ) ;
#281 = ORIENTED_EDGE ( 'NONE', *, *, #47, .F. ) ;
#282 = ORIENTED_EDGE ( 'NONE', *, *, #229, .F. ) ;
#283 = LINE ( 'NONE', #260, #120 ) ;
#284 = ADVANCED_FACE ( 'NONE', ( #204 ), #175, .T. ) ;
#285 = MECHANICAL_DESIGN_GEOMETRIC_PRESENTATION_REPRESENTATION (  '', ( #103 ), #177 ) ;
#286 = SURFACE_STYLE_USAGE ( .BOTH. , #9 ) ;
#287 = CARTESIAN_POINT ( 'NONE',  ( 5.898649710075393742E-34, 0.0000000000000000000, 4.816613013794885432E-18 ) ) ;
#288 = ADVANCED_FACE ( 'NONE', ( #107 ), #19, .T. ) ;
#289 = SURFACE_STYLE_FILL_AREA ( #190 ) ;
#290 = APPLICATION_CONTEXT ( 'automotive_design' ) ;
#291 = CARTESIAN_POINT ( 'NONE',  ( -0.07874000000000001831, 0.0000000000000000000, 1.953504000000000129 ) ) ;
#292 = VECTOR ( 'NONE', #142, 39.37007874015747433 ) ;
#293 = CARTESIAN_POINT ( 'NONE',  ( 0.0000000000000000000, 0.0000000000000000000, 0.0000000000000000000 ) ) ;
#294 = CARTESIAN_POINT ( 'NONE',  ( 0.06374000000000018540, 8.724383797125754882E-18, 1.968503999999999809 ) ) ;
#295 = DIRECTION ( 'NONE',  ( -1.000000000000000000, 0.0000000000000000000, 0.0000000000000000000 ) ) ;
#296 = AXIS2_PLACEMENT_3D ( 'NONE', #246, #102, #197 ) ;
#297 = CARTESIAN_POINT ( 'NONE',  ( -0.03933062999999999837, 0.0000000000000000000, 4.816613013794885432E-18 ) ) ;
#298 = ORIENTED_EDGE ( 'NONE', *, *, #106, .F. ) ;
#299 = DIRECTION ( 'NONE',  ( -0.0000000000000000000, -0.0000000000000000000, -1.000000000000000000 ) ) ;
ENDSEC;
END-ISO-10303-21;
