ISO-10303-21;
HEADER;
FILE_DESCRIPTION (( 'STEP AP214' ),
    '1' );
FILE_NAME ('Micro_AECM-0202-4X.STEP',
    '2021-09-03T16:56:59',
    ( '' ),
    ( '' ),
    'SwSTEP 2.0',
    'SolidWorks 2020',
    '' );
FILE_SCHEMA (( 'AUTOMOTIVE_DESIGN' ));
ENDSEC;

DATA;
#1 = DIRECTION ( 'NONE',  ( 0.0000000000000000000, 0.0000000000000000000, 1.000000000000000000 ) ) ;
#2 = VERTEX_POINT ( 'NONE', #102 ) ;
#3 = CARTESIAN_POINT ( 'NONE',  ( -0.03933063000000000531, 0.0000000000000000000, 0.007874000000000000790 ) ) ;
#4 = VECTOR ( 'NONE', #88, 39.37007874015748854 ) ;
#5 = UNCERTAINTY_MEASURE_WITH_UNIT (LENGTH_MEASURE( 1.000000000000000082E-05 ), #195, 'distance_accuracy_value', 'NONE');
#6 = CARTESIAN_POINT ( 'NONE',  ( 2.410717224121564935E-17, 0.0000000000000000000, 0.1968500000000000250 ) ) ;
#7 = DIRECTION ( 'NONE',  ( 0.0000000000000000000, 0.0000000000000000000, 1.000000000000000000 ) ) ;
#8 = DIMENSIONAL_EXPONENTS ( 1.000000000000000000, 0.0000000000000000000, 0.0000000000000000000, 0.0000000000000000000, 0.0000000000000000000, 0.0000000000000000000, 0.0000000000000000000 ) ;
#9 = PRESENTATION_STYLE_ASSIGNMENT (( #112 ) ) ;
#10 = CARTESIAN_POINT ( 'NONE',  ( 0.03933063000000002613, 0.0000000000000000000, 0.1968500000000000250 ) ) ;
#11 = ADVANCED_FACE ( 'NONE', ( #321 ), #276, .T. ) ;
#12 = CARTESIAN_POINT ( 'NONE',  ( 9.642868896486260435E-19, 0.0000000000000000000, 0.007874000000000000790 ) ) ;
#13 = ORIENTED_EDGE ( 'NONE', *, *, #324, .T. ) ;
#14 = CARTESIAN_POINT ( 'NONE',  ( 0.0000000000000000000, 0.0000000000000000000, 1.968503999999999809 ) ) ;
#15 = ORIENTED_EDGE ( 'NONE', *, *, #320, .T. ) ;
#16 = AXIS2_PLACEMENT_3D ( 'NONE', #97, #345, #223 ) ;
#17 = CARTESIAN_POINT ( 'NONE',  ( 0.03933063000000002613, 0.0000000000000000000, 0.1968500000000000250 ) ) ;
#18 = ORIENTED_EDGE ( 'NONE', *, *, #98, .T. ) ;
#19 = ORIENTED_EDGE ( 'NONE', *, *, #140, .T. ) ;
#20 = ORIENTED_EDGE ( 'NONE', *, *, #91, .F. ) ;
#21 = AXIS2_PLACEMENT_3D ( 'NONE', #206, #25, #109 ) ;
#22 = DIRECTION ( 'NONE',  ( -0.7071067811865502373, 0.0000000000000000000, -0.7071067811865446862 ) ) ;
#23 = EDGE_CURVE ( 'NONE', #289, #157, #258, .T. ) ;
#24 = DIRECTION ( 'NONE',  ( 0.0000000000000000000, 0.0000000000000000000, -1.000000000000000000 ) ) ;
#25 = DIRECTION ( 'NONE',  ( 0.0000000000000000000, 0.0000000000000000000, 1.000000000000000000 ) ) ;
#26 = AXIS2_PLACEMENT_3D ( 'NONE', #107, #24, #163 ) ;
#27 = CONICAL_SURFACE ( 'NONE', #192, 0.03933063000000000531, 0.1745329251994339192 ) ;
#28 = DIRECTION ( 'NONE',  ( 0.0000000000000000000, 0.0000000000000000000, 1.000000000000000000 ) ) ;
#29 = CARTESIAN_POINT ( 'NONE',  ( 0.0000000000000000000, 0.0000000000000000000, 1.968503999999999809 ) ) ;
#30 = EDGE_CURVE ( 'NONE', #128, #2, #323, .T. ) ;
#31 = DIRECTION ( 'NONE',  ( -1.000000000000000000, 0.0000000000000000000, 0.0000000000000000000 ) ) ;
#32 = DIRECTION ( 'NONE',  ( -0.0000000000000000000, -0.0000000000000000000, -1.000000000000000000 ) ) ;
#33 = FILL_AREA_STYLE ('',( #194 ) ) ;
#34 = SURFACE_SIDE_STYLE ('',( #64 ) ) ;
#35 = DIRECTION ( 'NONE',  ( -1.000000000000000000, 0.0000000000000000000, 0.0000000000000000000 ) ) ;
#36 = DIRECTION ( 'NONE',  ( 0.0000000000000000000, 0.0000000000000000000, 1.000000000000000000 ) ) ;
#37 = DIRECTION ( 'NONE',  ( -1.224646799147353207E-16, -0.0000000000000000000, -1.000000000000000000 ) ) ;
#38 = CIRCLE ( 'NONE', #184, 0.06374000000000018540 ) ;
#39 =( NAMED_UNIT ( * ) PLANE_ANGLE_UNIT ( ) SI_UNIT ( $, .RADIAN. ) );
#40 = DIRECTION ( 'NONE',  ( -1.000000000000000000, 0.0000000000000000000, 0.0000000000000000000 ) ) ;
#41 = EDGE_LOOP ( 'NONE', ( #104, #310, #139, #234 ) ) ;
#42 = DIRECTION ( 'NONE',  ( 1.000000000000000000, 0.0000000000000000000, 0.0000000000000000000 ) ) ;
#43 = ORIENTED_EDGE ( 'NONE', *, *, #124, .T. ) ;
#44 = DIRECTION ( 'NONE',  ( 0.0000000000000000000, 0.0000000000000000000, -1.000000000000000000 ) ) ;
#45 = ORIENTED_EDGE ( 'NONE', *, *, #101, .F. ) ;
#46 = CIRCLE ( 'NONE', #311, 0.07874000000000000443 ) ;
#47 =( GEOMETRIC_REPRESENTATION_CONTEXT ( 3 ) GLOBAL_UNCERTAINTY_ASSIGNED_CONTEXT ( ( #339 ) ) GLOBAL_UNIT_ASSIGNED_CONTEXT ( ( #332, #278, #149 ) ) REPRESENTATION_CONTEXT ( 'NONE', 'WORKASPACE' ) );
#48 = ADVANCED_FACE ( 'NONE', ( #326 ), #207, .T. ) ;
#49 = CARTESIAN_POINT ( 'NONE',  ( 0.03145663000000000625, 0.0000000000000000000, 0.0000000000000000000 ) ) ;
#50 = VERTEX_POINT ( 'NONE', #325 ) ;
#51 = CARTESIAN_POINT ( 'NONE',  ( 0.0000000000000000000, 0.0000000000000000000, 0.0000000000000000000 ) ) ;
#52 = CARTESIAN_POINT ( 'NONE',  ( 5.147822948554609098E-17, 0.0000000000000000000, 0.4203516436035862891 ) ) ;
#53 = ORIENTED_EDGE ( 'NONE', *, *, #77, .F. ) ;
#54 = DIRECTION ( 'NONE',  ( 0.0000000000000000000, 0.0000000000000000000, -1.000000000000000000 ) ) ;
#55 = MECHANICAL_DESIGN_GEOMETRIC_PRESENTATION_REPRESENTATION (  '', ( #238 ), #137 ) ;
#56 = ADVANCED_FACE ( 'NONE', ( #295 ), #82, .F. ) ;
#57 = DIRECTION ( 'NONE',  ( 1.000000000000000000, 0.0000000000000000000, 0.0000000000000000000 ) ) ;
#58 = DIRECTION ( 'NONE',  ( 0.0000000000000000000, 0.0000000000000000000, 1.000000000000000000 ) ) ;
#59 = LINE ( 'NONE', #304, #282 ) ;
#60 =( GEOMETRIC_REPRESENTATION_CONTEXT ( 3 ) GLOBAL_UNCERTAINTY_ASSIGNED_CONTEXT ( ( #303 ) ) GLOBAL_UNIT_ASSIGNED_CONTEXT ( ( #294, #187, #216 ) ) REPRESENTATION_CONTEXT ( 'NONE', 'WORKASPACE' ) );
#61 = CARTESIAN_POINT ( 'NONE',  ( 0.0000000000000000000, 0.0000000000000000000, 1.968503999999999809 ) ) ;
#62 = CIRCLE ( 'NONE', #322, 0.07874000000000000443 ) ;
#63 = DIRECTION ( 'NONE',  ( 1.000000000000000000, 0.0000000000000000000, 0.0000000000000000000 ) ) ;
#64 = SURFACE_STYLE_FILL_AREA ( #33 ) ;
#65 = LENGTH_MEASURE_WITH_UNIT ( LENGTH_MEASURE( 0.02539999999999999897 ), #94 );
#66 = AXIS2_PLACEMENT_3D ( 'NONE', #84, #166, #274 ) ;
#67 = AXIS2_PLACEMENT_3D ( 'NONE', #12, #285, #122 ) ;
#68 = ORIENTED_EDGE ( 'NONE', *, *, #91, .T. ) ;
#69 = CARTESIAN_POINT ( 'NONE',  ( 0.0000000000000000000, 0.0000000000000000000, 1.953504000000000129 ) ) ;
#70 = EDGE_LOOP ( 'NONE', ( #135, #297, #211, #123 ) ) ;
#71 = CARTESIAN_POINT ( 'NONE',  ( 9.642868896486260435E-19, 0.0000000000000000000, 0.0000000000000000000 ) ) ;
#72 = ORIENTED_EDGE ( 'NONE', *, *, #101, .T. ) ;
#73 = CARTESIAN_POINT ( 'NONE',  ( 0.0000000000000000000, 0.0000000000000000000, 1.968503999999999809 ) ) ;
#74 = CIRCLE ( 'NONE', #66, 0.007874000000000000790 ) ;
#75 = PRODUCT_DEFINITION_FORMATION_WITH_SPECIFIED_SOURCE ( 'ANY', '', #110, .NOT_KNOWN. ) ;
#76 = AXIS2_PLACEMENT_3D ( 'NONE', #71, #125, #264 ) ;
#77 = EDGE_CURVE ( 'NONE', #153, #212, #118, .T. ) ;
#78 =( LENGTH_UNIT ( ) NAMED_UNIT ( * ) SI_UNIT ( $, .METRE. ) );
#79 = AXIS2_PLACEMENT_3D ( 'NONE', #29, #28, #186 ) ;
#80 = EDGE_LOOP ( 'NONE', ( #20, #224, #151, #179 ) ) ;
#81 = CARTESIAN_POINT ( 'NONE',  ( 0.0000000000000000000, 0.0000000000000000000, 1.953504000000000129 ) ) ;
#82 = PLANE ( 'NONE',  #21 ) ;
#83 = VECTOR ( 'NONE', #142, 39.37007874015747433 ) ;
#84 = CARTESIAN_POINT ( 'NONE',  ( 0.03145663000000000625, 0.0000000000000000000, 0.007874000000000000790 ) ) ;
#85 = EDGE_CURVE ( 'NONE', #2, #265, #46, .T. ) ;
#86 = CARTESIAN_POINT ( 'NONE',  ( 0.07874000000000004607, 9.642868896486264672E-18, 0.4203516436035862891 ) ) ;
#87 = CARTESIAN_POINT ( 'NONE',  ( -0.07874000000000000443, 0.0000000000000000000, 1.968503999999999809 ) ) ;
#88 = DIRECTION ( 'NONE',  ( 0.7071067811865502373, 8.659560562354966138E-17, -0.7071067811865446862 ) ) ;
#89 = AXIS2_PLACEMENT_3D ( 'NONE', #154, #343, #148 ) ;
#90 = FACE_OUTER_BOUND ( 'NONE', #100, .T. ) ;
#91 = EDGE_CURVE ( 'NONE', #158, #128, #298, .T. ) ;
#92 = MANIFOLD_SOLID_BREP ( 'Fillet1', #309 ) ;
#93 = EDGE_LOOP ( 'NONE', ( #291, #205, #72, #15 ) ) ;
#94 =( LENGTH_UNIT ( ) NAMED_UNIT ( * ) SI_UNIT ( $, .METRE. ) );
#95 = AXIS2_PLACEMENT_3D ( 'NONE', #52, #165, #183 ) ;
#96 = ORIENTED_EDGE ( 'NONE', *, *, #324, .F. ) ;
#97 = CARTESIAN_POINT ( 'NONE',  ( 5.147822948554609098E-17, 0.0000000000000000000, 0.4203516436035862891 ) ) ;
#98 = EDGE_CURVE ( 'NONE', #2, #153, #270, .T. ) ;
#99 = ORIENTED_EDGE ( 'NONE', *, *, #287, .F. ) ;
#100 = EDGE_LOOP ( 'NONE', ( #350, #68 ) ) ;
#101 = EDGE_CURVE ( 'NONE', #342, #212, #248, .T. ) ;
#102 = CARTESIAN_POINT ( 'NONE',  ( -0.07874000000000000443, 0.0000000000000000000, 1.953504000000000129 ) ) ;
#103 = SURFACE_STYLE_USAGE ( .BOTH. , #299 ) ;
#104 = ORIENTED_EDGE ( 'NONE', *, *, #228, .T. ) ;
#105 = AXIS2_PLACEMENT_3D ( 'NONE', #61, #7, #119 ) ;
#106 = AXIS2_PLACEMENT_3D ( 'NONE', #201, #121, #221 ) ;
#107 = CARTESIAN_POINT ( 'NONE',  ( 0.0000000000000000000, 0.0000000000000000000, 1.968503999999999809 ) ) ;
#108 = ADVANCED_FACE ( 'NONE', ( #338 ), #171, .T. ) ;
#109 = DIRECTION ( 'NONE',  ( 1.000000000000000000, 0.0000000000000000000, -0.0000000000000000000 ) ) ;
#110 = PRODUCT ( 'Micro_AECM-0202-4X', 'Micro_AECM-0202-4X', '', ( #146 ) ) ;
#111 = ADVANCED_FACE ( 'NONE', ( #90 ), #333, .T. ) ;
#112 = SURFACE_STYLE_USAGE ( .BOTH. , #34 ) ;
#113 = AXIS2_PLACEMENT_3D ( 'NONE', #254, #152, #313 ) ;
#114 = CYLINDRICAL_SURFACE ( 'NONE', #336, 0.07874000000000000443 ) ;
#115 = DIRECTION ( 'NONE',  ( -1.224646799147353207E-16, -0.0000000000000000000, -1.000000000000000000 ) ) ;
#116 = DIRECTION ( 'NONE',  ( 0.0000000000000000000, 0.0000000000000000000, 1.000000000000000000 ) ) ;
#117 =( NAMED_UNIT ( * ) SI_UNIT ( $, .STERADIAN. ) SOLID_ANGLE_UNIT ( ) );
#118 = CIRCLE ( 'NONE', #95, 0.07874000000000000443 ) ;
#119 = DIRECTION ( 'NONE',  ( 1.000000000000000000, 0.0000000000000000000, -0.0000000000000000000 ) ) ;
#120 = EDGE_CURVE ( 'NONE', #158, #265, #172, .T. ) ;
#121 = DIRECTION ( 'NONE',  ( 1.224646799147353207E-16, 1.000000000000000000, -0.0000000000000000000 ) ) ;
#122 = DIRECTION ( 'NONE',  ( 1.000000000000000000, 0.0000000000000000000, 0.0000000000000000000 ) ) ;
#123 = ORIENTED_EDGE ( 'NONE', *, *, #140, .F. ) ;
#124 = EDGE_CURVE ( 'NONE', #50, #157, #145, .T. ) ;
#125 = DIRECTION ( 'NONE',  ( -0.0000000000000000000, -0.0000000000000000000, -1.000000000000000000 ) ) ;
#126 = PRESENTATION_LAYER_ASSIGNMENT (  '', '', ( #136 ) ) ;
#127 = AXIS2_PLACEMENT_3D ( 'NONE', #252, #129, #290 ) ;
#128 = VERTEX_POINT ( 'NONE', #193 ) ;
#129 = DIRECTION ( 'NONE',  ( -1.224646799147353207E-16, -0.0000000000000000000, -1.000000000000000000 ) ) ;
#130 = ORIENTED_EDGE ( 'NONE', *, *, #23, .F. ) ;
#131 = ORIENTED_EDGE ( 'NONE', *, *, #170, .F. ) ;
#132 = CIRCLE ( 'NONE', #328, 0.03933063000000000531 ) ;
#133 = DIRECTION ( 'NONE',  ( -1.224646799147353207E-16, -0.0000000000000000000, -1.000000000000000000 ) ) ;
#134 = EDGE_LOOP ( 'NONE', ( #257, #262, #349, #96 ) ) ;
#135 = ORIENTED_EDGE ( 'NONE', *, *, #341, .F. ) ;
#136 = STYLED_ITEM ( 'NONE', ( #273 ), #92 ) ;
#137 =( GEOMETRIC_REPRESENTATION_CONTEXT ( 3 ) GLOBAL_UNCERTAINTY_ASSIGNED_CONTEXT ( ( #5 ) ) GLOBAL_UNIT_ASSIGNED_CONTEXT ( ( #195, #39, #117 ) ) REPRESENTATION_CONTEXT ( 'NONE', 'WORKASPACE' ) );
#138 = SURFACE_STYLE_FILL_AREA ( #236 ) ;
#139 = ORIENTED_EDGE ( 'NONE', *, *, #23, .T. ) ;
#140 = EDGE_CURVE ( 'NONE', #157, #289, #305, .T. ) ;
#141 = CARTESIAN_POINT ( 'NONE',  ( 0.0000000000000000000, 0.0000000000000000000, 1.968503999999999809 ) ) ;
#142 = DIRECTION ( 'NONE',  ( -0.1736481776669312194, 2.126576849575783625E-17, 0.9848077530122080203 ) ) ;
#143 = DIRECTION ( 'NONE',  ( 0.1736481776669314137, 0.0000000000000000000, 0.9848077530122077983 ) ) ;
#144 = DIRECTION ( 'NONE',  ( 1.000000000000000000, 0.0000000000000000000, 0.0000000000000000000 ) ) ;
#145 = LINE ( 'NONE', #167, #160 ) ;
#146 = PRODUCT_CONTEXT ( 'NONE', #307, 'mechanical' ) ;
#147 = CONICAL_SURFACE ( 'NONE', #231, 0.03933063000000000531, 0.1745329251994339192 ) ;
#148 = DIRECTION ( 'NONE',  ( 1.000000000000000000, 0.0000000000000000000, 0.0000000000000000000 ) ) ;
#149 =( NAMED_UNIT ( * ) SI_UNIT ( $, .STERADIAN. ) SOLID_ANGLE_UNIT ( ) );
#150 = FACE_OUTER_BOUND ( 'NONE', #70, .T. ) ;
#151 = ORIENTED_EDGE ( 'NONE', *, *, #85, .F. ) ;
#152 = DIRECTION ( 'NONE',  ( -1.224646799147353207E-16, -0.0000000000000000000, -1.000000000000000000 ) ) ;
#153 = VERTEX_POINT ( 'NONE', #306 ) ;
#154 = CARTESIAN_POINT ( 'NONE',  ( 9.642868896486260435E-19, 0.0000000000000000000, 0.0000000000000000000 ) ) ;
#155 = AXIS2_PLACEMENT_3D ( 'NONE', #329, #58, #335 ) ;
#156 = ORIENTED_EDGE ( 'NONE', *, *, #287, .T. ) ;
#157 = VERTEX_POINT ( 'NONE', #3 ) ;
#158 = VERTEX_POINT ( 'NONE', #169 ) ;
#159 = FILL_AREA_STYLE_COLOUR ( '', #209 ) ;
#160 = VECTOR ( 'NONE', #37, 39.37007874015748143 ) ;
#161 = ADVANCED_FACE ( 'NONE', ( #218 ), #114, .T. ) ;
#162 = DIRECTION ( 'NONE',  ( 1.000000000000000000, 0.0000000000000000000, 0.0000000000000000000 ) ) ;
#163 = DIRECTION ( 'NONE',  ( -1.000000000000000000, 0.0000000000000000000, 0.0000000000000000000 ) ) ;
#164 = ADVANCED_FACE ( 'NONE', ( #330 ), #219, .T. ) ;
#165 = DIRECTION ( 'NONE',  ( -1.224646799147353207E-16, -0.0000000000000000000, -1.000000000000000000 ) ) ;
#166 = DIRECTION ( 'NONE',  ( 0.0000000000000000000, -1.000000000000000000, 0.0000000000000000000 ) ) ;
#167 = CARTESIAN_POINT ( 'NONE',  ( -0.03933063000000000531, 0.0000000000000000000, 4.816613013794886973E-18 ) ) ;
#168 = CIRCLE ( 'NONE', #113, 0.03933063000000000531 ) ;
#169 = CARTESIAN_POINT ( 'NONE',  ( 0.06374000000000018540, 8.724383797125754882E-18, 1.968503999999999809 ) ) ;
#170 = EDGE_CURVE ( 'NONE', #344, #289, #74, .T. ) ;
#171 = CYLINDRICAL_SURFACE ( 'NONE', #251, 0.07874000000000000443 ) ;
#172 = LINE ( 'NONE', #301, #4 ) ;
#173 = APPLICATION_PROTOCOL_DEFINITION ( 'draft international standard', 'automotive_design', 1998, #307 ) ;
#174 = CARTESIAN_POINT ( 'NONE',  ( 0.07874000000000000443, 9.642868896486258509E-18, 1.953504000000000129 ) ) ;
#175 = ORIENTED_EDGE ( 'NONE', *, *, #296, .T. ) ;
#176 = CARTESIAN_POINT ( 'NONE',  ( 0.03933063000000000531, 4.816613013794886973E-18, 0.007874000000000000790 ) ) ;
#177 = EDGE_LOOP ( 'NONE', ( #255, #318, #316, #45 ) ) ;
#178 = FACE_OUTER_BOUND ( 'NONE', #41, .T. ) ;
#179 = ORIENTED_EDGE ( 'NONE', *, *, #30, .F. ) ;
#180 = AXIS2_PLACEMENT_3D ( 'NONE', #275, #116, #241 ) ;
#181 = DIRECTION ( 'NONE',  ( 0.0000000000000000000, 0.0000000000000000000, -1.000000000000000000 ) ) ;
#182 = AXIS2_PLACEMENT_3D ( 'NONE', #235, #1, #57 ) ;
#183 = DIRECTION ( 'NONE',  ( 1.000000000000000000, 0.0000000000000000000, 0.0000000000000000000 ) ) ;
#184 = AXIS2_PLACEMENT_3D ( 'NONE', #14, #288, #202 ) ;
#185 = CARTESIAN_POINT ( 'NONE',  ( -0.06374000000000018540, 0.0000000000000000000, 1.968503999999999809 ) ) ;
#186 = DIRECTION ( 'NONE',  ( 1.000000000000000000, 0.0000000000000000000, 0.0000000000000000000 ) ) ;
#187 =( NAMED_UNIT ( * ) PLANE_ANGLE_UNIT ( ) SI_UNIT ( $, .RADIAN. ) );
#188 = LINE ( 'NONE', #302, #83 ) ;
#189 = PRODUCT_DEFINITION_SHAPE ( 'NONE', 'NONE',  #259 ) ;
#190 = CARTESIAN_POINT ( 'NONE',  ( 0.0000000000000000000, 0.0000000000000000000, 1.968503999999999809 ) ) ;
#191 = LENGTH_MEASURE_WITH_UNIT ( LENGTH_MEASURE( 0.02539999999999999897 ), #253 );
#192 = AXIS2_PLACEMENT_3D ( 'NONE', #256, #225, #261 ) ;
#193 = CARTESIAN_POINT ( 'NONE',  ( -0.06374000000000018540, 0.0000000000000000000, 1.968503999999999809 ) ) ;
#194 = FILL_AREA_STYLE_COLOUR ( '', #204 ) ;
#195 =( CONVERSION_BASED_UNIT ( 'INCH', #191 ) LENGTH_UNIT ( ) NAMED_UNIT ( #196 ) );
#196 = DIMENSIONAL_EXPONENTS ( 1.000000000000000000, 0.0000000000000000000, 0.0000000000000000000, 0.0000000000000000000, 0.0000000000000000000, 0.0000000000000000000, 0.0000000000000000000 ) ;
#197 = EDGE_LOOP ( 'NONE', ( #286, #200, #130, #131 ) ) ;
#198 = CONICAL_SURFACE ( 'NONE', #268, 0.06374000000000018540, 0.7853981633974522758 ) ;
#199 = FACE_OUTER_BOUND ( 'NONE', #80, .T. ) ;
#200 = ORIENTED_EDGE ( 'NONE', *, *, #341, .T. ) ;
#201 = CARTESIAN_POINT ( 'NONE',  ( -0.03145663000000000625, 3.852326124146261122E-18, 0.007874000000000000790 ) ) ;
#202 = DIRECTION ( 'NONE',  ( 1.000000000000000000, 0.0000000000000000000, 0.0000000000000000000 ) ) ;
#203 = ADVANCED_FACE ( 'NONE', ( #250 ), #147, .T. ) ;
#204 = COLOUR_RGB ( '',0.7921568627450980005, 0.8196078431372548767, 0.9333333333333333481 ) ;
#205 = ORIENTED_EDGE ( 'NONE', *, *, #296, .F. ) ;
#206 = CARTESIAN_POINT ( 'NONE',  ( 0.0000000000000000000, 0.0000000000000000000, 0.0000000000000000000 ) ) ;
#207 = CYLINDRICAL_SURFACE ( 'NONE', #351, 0.03933063000000000531 ) ;
#208 = ORIENTED_EDGE ( 'NONE', *, *, #245, .T. ) ;
#209 = COLOUR_RGB ( '',0.7921568627450980005, 0.8196078431372548767, 0.9333333333333333481 ) ;
#210 = VECTOR ( 'NONE', #308, 39.37007874015748143 ) ;
#211 = ORIENTED_EDGE ( 'NONE', *, *, #170, .T. ) ;
#212 = VERTEX_POINT ( 'NONE', #86 ) ;
#213 = EDGE_CURVE ( 'NONE', #50, #153, #188, .T. ) ;
#214 = DIRECTION ( 'NONE',  ( 1.224646799147353207E-16, 0.0000000000000000000, 1.000000000000000000 ) ) ;
#215 = EDGE_CURVE ( 'NONE', #342, #289, #59, .T. ) ;
#216 =( NAMED_UNIT ( * ) SI_UNIT ( $, .STERADIAN. ) SOLID_ANGLE_UNIT ( ) );
#217 = APPLICATION_PROTOCOL_DEFINITION ( 'draft international standard', 'automotive_design', 1998, #263 ) ;
#218 = FACE_OUTER_BOUND ( 'NONE', #346, .T. ) ;
#219 = TOROIDAL_SURFACE ( 'NONE', #155, 0.03145663000000000625, 0.007874000000000000790 ) ;
#220 = DIRECTION ( 'NONE',  ( -0.0000000000000000000, -0.0000000000000000000, -1.000000000000000000 ) ) ;
#221 = DIRECTION ( 'NONE',  ( -1.000000000000000000, 1.224646799147352714E-16, 0.0000000000000000000 ) ) ;
#222 = PRODUCT_DEFINITION_CONTEXT ( 'detailed design', #263, 'design' ) ;
#223 = DIRECTION ( 'NONE',  ( 1.000000000000000000, 0.0000000000000000000, 0.0000000000000000000 ) ) ;
#224 = ORIENTED_EDGE ( 'NONE', *, *, #120, .T. ) ;
#225 = DIRECTION ( 'NONE',  ( 1.224646799147353207E-16, 0.0000000000000000000, 1.000000000000000000 ) ) ;
#226 = ORIENTED_EDGE ( 'NONE', *, *, #240, .T. ) ;
#227 = CARTESIAN_POINT ( 'NONE',  ( 0.07874000000000000443, 9.642868896486258509E-18, 1.968503999999999809 ) ) ;
#228 = EDGE_CURVE ( 'NONE', #50, #342, #132, .T. ) ;
#229 = ORIENTED_EDGE ( 'NONE', *, *, #215, .F. ) ;
#230 = EDGE_LOOP ( 'NONE', ( #229, #175, #43, #19 ) ) ;
#231 = AXIS2_PLACEMENT_3D ( 'NONE', #242, #214, #63 ) ;
#232 = EDGE_LOOP ( 'NONE', ( #226, #208 ) ) ;
#233 = ADVANCED_FACE ( 'NONE', ( #199 ), #198, .T. ) ;
#234 = ORIENTED_EDGE ( 'NONE', *, *, #124, .F. ) ;
#235 = CARTESIAN_POINT ( 'NONE',  ( 9.642868896486260435E-19, 0.0000000000000000000, 0.007874000000000000790 ) ) ;
#236 = FILL_AREA_STYLE ('',( #159 ) ) ;
#237 = VECTOR ( 'NONE', #143, 39.37007874015748143 ) ;
#238 = STYLED_ITEM ( 'NONE', ( #9 ), #247 ) ;
#239 = ORIENTED_EDGE ( 'NONE', *, *, #85, .T. ) ;
#240 = EDGE_CURVE ( 'NONE', #344, #347, #267, .T. ) ;
#241 = DIRECTION ( 'NONE',  ( 1.000000000000000000, 0.0000000000000000000, 0.0000000000000000000 ) ) ;
#242 = CARTESIAN_POINT ( 'NONE',  ( 2.410717224121564935E-17, 0.0000000000000000000, 0.1968500000000000250 ) ) ;
#243 = VECTOR ( 'NONE', #22, 39.37007874015748854 ) ;
#244 = CIRCLE ( 'NONE', #89, 0.03145663000000000625 ) ;
#245 = EDGE_CURVE ( 'NONE', #347, #344, #244, .T. ) ;
#246 = DIRECTION ( 'NONE',  ( -1.224646799147353207E-16, -0.0000000000000000000, -1.000000000000000000 ) ) ;
#247 = ADVANCED_BREP_SHAPE_REPRESENTATION ( 'Micro_AECM-0202-4X', ( #92, #337 ), #47 ) ;
#248 = LINE ( 'NONE', #10, #237 ) ;
#249 = CARTESIAN_POINT ( 'NONE',  ( 0.0000000000000000000, 0.0000000000000000000, 0.0000000000000000000 ) ) ;
#250 = FACE_OUTER_BOUND ( 'NONE', #93, .T. ) ;
#251 = AXIS2_PLACEMENT_3D ( 'NONE', #141, #281, #35 ) ;
#252 = CARTESIAN_POINT ( 'NONE',  ( 0.0000000000000000000, 0.0000000000000000000, 0.0000000000000000000 ) ) ;
#253 =( LENGTH_UNIT ( ) NAMED_UNIT ( * ) SI_UNIT ( $, .METRE. ) );
#254 = CARTESIAN_POINT ( 'NONE',  ( 2.410717224121564935E-17, 0.0000000000000000000, 0.1968500000000000250 ) ) ;
#255 = ORIENTED_EDGE ( 'NONE', *, *, #228, .F. ) ;
#256 = CARTESIAN_POINT ( 'NONE',  ( 2.410717224121564935E-17, 0.0000000000000000000, 0.1968500000000000250 ) ) ;
#257 = ORIENTED_EDGE ( 'NONE', *, *, #120, .F. ) ;
#258 = CIRCLE ( 'NONE', #182, 0.03933063000000000531 ) ;
#259 = PRODUCT_DEFINITION ( 'UNKNOWN', '', #75, #222 ) ;
#260 = CIRCLE ( 'NONE', #106, 0.007873999999999999055 ) ;
#261 = DIRECTION ( 'NONE',  ( 1.000000000000000000, 0.0000000000000000000, 0.0000000000000000000 ) ) ;
#262 = ORIENTED_EDGE ( 'NONE', *, *, #327, .F. ) ;
#263 = APPLICATION_CONTEXT ( 'automotive_design' ) ;
#264 = DIRECTION ( 'NONE',  ( 1.000000000000000000, 0.0000000000000000000, 0.0000000000000000000 ) ) ;
#265 = VERTEX_POINT ( 'NONE', #174 ) ;
#266 = EDGE_LOOP ( 'NONE', ( #239, #156, #53, #292 ) ) ;
#267 = CIRCLE ( 'NONE', #76, 0.03145663000000000625 ) ;
#268 = AXIS2_PLACEMENT_3D ( 'NONE', #73, #44, #40 ) ;
#269 = LENGTH_MEASURE_WITH_UNIT ( LENGTH_MEASURE( 0.02539999999999999897 ), #78 );
#270 = LINE ( 'NONE', #87, #319 ) ;
#271 = PRODUCT_RELATED_PRODUCT_CATEGORY ( 'part', '', ( #110 ) ) ;
#272 = ORIENTED_EDGE ( 'NONE', *, *, #320, .F. ) ;
#273 = PRESENTATION_STYLE_ASSIGNMENT (( #103 ) ) ;
#274 = DIRECTION ( 'NONE',  ( 0.0000000000000000000, 0.0000000000000000000, -1.000000000000000000 ) ) ;
#275 = CARTESIAN_POINT ( 'NONE',  ( 9.642868896486260435E-19, 0.0000000000000000000, 0.007874000000000000790 ) ) ;
#276 = CONICAL_SURFACE ( 'NONE', #26, 0.06374000000000018540, 0.7853981633974522758 ) ;
#277 = TOROIDAL_SURFACE ( 'NONE', #67, 0.03145663000000000625, 0.007874000000000000790 ) ;
#278 =( NAMED_UNIT ( * ) PLANE_ANGLE_UNIT ( ) SI_UNIT ( $, .RADIAN. ) );
#279 = DIRECTION ( 'NONE',  ( -1.000000000000000000, 0.0000000000000000000, 0.0000000000000000000 ) ) ;
#280 = ADVANCED_FACE ( 'NONE', ( #178 ), #284, .T. ) ;
#281 = DIRECTION ( 'NONE',  ( -0.0000000000000000000, -0.0000000000000000000, -1.000000000000000000 ) ) ;
#282 = VECTOR ( 'NONE', #246, 39.37007874015748143 ) ;
#283 = PRESENTATION_LAYER_ASSIGNMENT (  '', '', ( #238 ) ) ;
#284 = CYLINDRICAL_SURFACE ( 'NONE', #127, 0.03933063000000000531 ) ;
#285 = DIRECTION ( 'NONE',  ( 0.0000000000000000000, 0.0000000000000000000, 1.000000000000000000 ) ) ;
#286 = ORIENTED_EDGE ( 'NONE', *, *, #245, .F. ) ;
#287 = EDGE_CURVE ( 'NONE', #265, #212, #315, .T. ) ;
#288 = DIRECTION ( 'NONE',  ( 0.0000000000000000000, 0.0000000000000000000, 1.000000000000000000 ) ) ;
#289 = VERTEX_POINT ( 'NONE', #176 ) ;
#290 = DIRECTION ( 'NONE',  ( -1.000000000000000000, 0.0000000000000000000, 1.224646799147353207E-16 ) ) ;
#291 = ORIENTED_EDGE ( 'NONE', *, *, #213, .F. ) ;
#292 = ORIENTED_EDGE ( 'NONE', *, *, #98, .F. ) ;
#293 = MECHANICAL_DESIGN_GEOMETRIC_PRESENTATION_REPRESENTATION (  '', ( #136 ), #60 ) ;
#294 =( CONVERSION_BASED_UNIT ( 'INCH', #269 ) LENGTH_UNIT ( ) NAMED_UNIT ( #331 ) );
#295 = FACE_OUTER_BOUND ( 'NONE', #232, .T. ) ;
#296 = EDGE_CURVE ( 'NONE', #342, #50, #168, .T. ) ;
#297 = ORIENTED_EDGE ( 'NONE', *, *, #240, .F. ) ;
#298 = CIRCLE ( 'NONE', #79, 0.06374000000000018540 ) ;
#299 = SURFACE_SIDE_STYLE ('',( #138 ) ) ;
#300 = ADVANCED_FACE ( 'NONE', ( #317 ), #27, .T. ) ;
#301 = CARTESIAN_POINT ( 'NONE',  ( 0.06374000000000018540, 7.805898697765251255E-18, 1.968503999999999809 ) ) ;
#302 = CARTESIAN_POINT ( 'NONE',  ( -0.03933062999999997755, 4.816613013794886973E-18, 0.1968500000000000250 ) ) ;
#303 = UNCERTAINTY_MEASURE_WITH_UNIT (LENGTH_MEASURE( 1.000000000000000082E-05 ), #294, 'distance_accuracy_value', 'NONE');
#304 = CARTESIAN_POINT ( 'NONE',  ( 0.03933063000000000531, 4.816613013794886973E-18, -4.816613013794886973E-18 ) ) ;
#305 = CIRCLE ( 'NONE', #180, 0.03933063000000000531 ) ;
#306 = CARTESIAN_POINT ( 'NONE',  ( -0.07873999999999994892, 0.0000000000000000000, 0.4203516436035862891 ) ) ;
#307 = APPLICATION_CONTEXT ( 'automotive_design' ) ;
#308 = DIRECTION ( 'NONE',  ( -0.0000000000000000000, -0.0000000000000000000, -1.000000000000000000 ) ) ;
#309 = CLOSED_SHELL ( 'NONE', ( #164, #280, #300, #233, #108, #161, #111, #11, #203, #48, #56, #314 ) ) ;
#310 = ORIENTED_EDGE ( 'NONE', *, *, #215, .T. ) ;
#311 = AXIS2_PLACEMENT_3D ( 'NONE', #81, #54, #162 ) ;
#312 = CIRCLE ( 'NONE', #16, 0.07874000000000000443 ) ;
#313 = DIRECTION ( 'NONE',  ( -1.000000000000000000, 0.0000000000000000000, 0.0000000000000000000 ) ) ;
#314 = ADVANCED_FACE ( 'NONE', ( #150 ), #277, .T. ) ;
#315 = LINE ( 'NONE', #227, #210 ) ;
#316 = ORIENTED_EDGE ( 'NONE', *, *, #77, .T. ) ;
#317 = FACE_OUTER_BOUND ( 'NONE', #177, .T. ) ;
#318 = ORIENTED_EDGE ( 'NONE', *, *, #213, .T. ) ;
#319 = VECTOR ( 'NONE', #220, 39.37007874015748143 ) ;
#320 = EDGE_CURVE ( 'NONE', #212, #153, #312, .T. ) ;
#321 = FACE_OUTER_BOUND ( 'NONE', #134, .T. ) ;
#322 = AXIS2_PLACEMENT_3D ( 'NONE', #69, #181, #42 ) ;
#323 = LINE ( 'NONE', #185, #243 ) ;
#324 = EDGE_CURVE ( 'NONE', #265, #2, #62, .T. ) ;
#325 = CARTESIAN_POINT ( 'NONE',  ( -0.03933062999999997755, 7.229740955140571970E-18, 0.1968500000000000250 ) ) ;
#326 = FACE_OUTER_BOUND ( 'NONE', #230, .T. ) ;
#327 = EDGE_CURVE ( 'NONE', #128, #158, #38, .T. ) ;
#328 = AXIS2_PLACEMENT_3D ( 'NONE', #6, #115, #279 ) ;
#329 = CARTESIAN_POINT ( 'NONE',  ( 9.642868896486260435E-19, 0.0000000000000000000, 0.007874000000000000790 ) ) ;
#330 = FACE_OUTER_BOUND ( 'NONE', #197, .T. ) ;
#331 = DIMENSIONAL_EXPONENTS ( 1.000000000000000000, 0.0000000000000000000, 0.0000000000000000000, 0.0000000000000000000, 0.0000000000000000000, 0.0000000000000000000, 0.0000000000000000000 ) ;
#332 =( CONVERSION_BASED_UNIT ( 'INCH', #65 ) LENGTH_UNIT ( ) NAMED_UNIT ( #8 ) );
#333 = PLANE ( 'NONE',  #105 ) ;
#334 = SHAPE_DEFINITION_REPRESENTATION ( #189, #247 ) ;
#335 = DIRECTION ( 'NONE',  ( 1.000000000000000000, 0.0000000000000000000, 0.0000000000000000000 ) ) ;
#336 = AXIS2_PLACEMENT_3D ( 'NONE', #190, #32, #31 ) ;
#337 = AXIS2_PLACEMENT_3D ( 'NONE', #249, #36, #144 ) ;
#338 = FACE_OUTER_BOUND ( 'NONE', #266, .T. ) ;
#339 = UNCERTAINTY_MEASURE_WITH_UNIT (LENGTH_MEASURE( 1.000000000000000082E-05 ), #332, 'distance_accuracy_value', 'NONE');
#340 = CARTESIAN_POINT ( 'NONE',  ( -0.03145663000000000625, 4.334469568970574047E-18, 0.0000000000000000000 ) ) ;
#341 = EDGE_CURVE ( 'NONE', #347, #157, #260, .T. ) ;
#342 = VERTEX_POINT ( 'NONE', #17 ) ;
#343 = DIRECTION ( 'NONE',  ( -0.0000000000000000000, -0.0000000000000000000, -1.000000000000000000 ) ) ;
#344 = VERTEX_POINT ( 'NONE', #49 ) ;
#345 = DIRECTION ( 'NONE',  ( -1.224646799147353207E-16, -0.0000000000000000000, -1.000000000000000000 ) ) ;
#346 = EDGE_LOOP ( 'NONE', ( #99, #13, #18, #272 ) ) ;
#347 = VERTEX_POINT ( 'NONE', #340 ) ;
#348 = DIRECTION ( 'NONE',  ( -1.000000000000000000, 0.0000000000000000000, 1.224646799147353207E-16 ) ) ;
#349 = ORIENTED_EDGE ( 'NONE', *, *, #30, .T. ) ;
#350 = ORIENTED_EDGE ( 'NONE', *, *, #327, .T. ) ;
#351 = AXIS2_PLACEMENT_3D ( 'NONE', #51, #133, #348 ) ;
ENDSEC;
END-ISO-10303-21;
