ISO-10303-21;
HEADER;
FILE_DESCRIPTION (( 'STEP AP214' ),
    '1' );
FILE_NAME ('Micro_BEM-109-02.STEP',
    '2021-09-03T13:01:22',
    ( '' ),
    ( '' ),
    'SwSTEP 2.0',
    'SolidWorks 2020',
    '' );
FILE_SCHEMA (( 'AUTOMOTIVE_DESIGN' ));
ENDSEC;

DATA;
#1 = CARTESIAN_POINT ( 'NONE',  ( 0.06250000000000008327, 7.654042494670966789E-18, 0.4198294978354410456 ) ) ;
#2 = CLOSED_SHELL ( 'NONE', ( #46, #154, #17, #263, #107, #214, #90, #212, #86, #139, #253 ) ) ;
#3 = CARTESIAN_POINT ( 'NONE',  ( 0.0000000000000000000, 0.0000000000000000000, 1.500000000000000222 ) ) ;
#4 = LINE ( 'NONE', #245, #64 ) ;
#5 = FACE_OUTER_BOUND ( 'NONE', #129, .T. ) ;
#6 = PRODUCT_DEFINITION_CONTEXT ( 'detailed design', #238, 'design' ) ;
#7 = DIRECTION ( 'NONE',  ( -1.000000000000000000, 0.0000000000000000000, 0.0000000000000000000 ) ) ;
#8 = CONICAL_SURFACE ( 'NONE', #162, 0.04750000000000064587, 0.7853981633974466137 ) ;
#9 = ORIENTED_EDGE ( 'NONE', *, *, #276, .T. ) ;
#10 = DIRECTION ( 'NONE',  ( 1.000000000000000000, 0.0000000000000000000, 0.0000000000000000000 ) ) ;
#11 = MANIFOLD_SOLID_BREP ( 'Fillet1', #2 ) ;
#12 = ORIENTED_EDGE ( 'NONE', *, *, #187, .T. ) ;
#13 = EDGE_CURVE ( 'NONE', #61, #63, #118, .T. ) ;
#14 = CARTESIAN_POINT ( 'NONE',  ( 0.0000000000000000000, 0.0000000000000000000, 1.500000000000000222 ) ) ;
#15 = ORIENTED_EDGE ( 'NONE', *, *, #59, .T. ) ;
#16 =( NAMED_UNIT ( * ) PLANE_ANGLE_UNIT ( ) SI_UNIT ( $, .RADIAN. ) );
#17 = ADVANCED_FACE ( 'NONE', ( #132 ), #206, .T. ) ;
#18 = AXIS2_PLACEMENT_3D ( 'NONE', #3, #124, #96 ) ;
#19 = VERTEX_POINT ( 'NONE', #294 ) ;
#20 = AXIS2_PLACEMENT_3D ( 'NONE', #55, #171, #122 ) ;
#21 = LINE ( 'NONE', #164, #80 ) ;
#22 = PRODUCT_CONTEXT ( 'NONE', #198, 'mechanical' ) ;
#23 = DIRECTION ( 'NONE',  ( -1.000000000000000000, 1.224646799147353207E-16, 0.0000000000000000000 ) ) ;
#24 = DIRECTION ( 'NONE',  ( -1.000000000000000000, 0.0000000000000000000, 0.0000000000000000000 ) ) ;
#25 = LINE ( 'NONE', #45, #272 ) ;
#26 = CARTESIAN_POINT ( 'NONE',  ( 0.0000000000000000000, 0.0000000000000000000, 0.0000000000000000000 ) ) ;
#27 = CARTESIAN_POINT ( 'NONE',  ( -0.06250000000000002776, 0.0000000000000000000, 1.485000000000000764 ) ) ;
#28 = AXIS2_PLACEMENT_3D ( 'NONE', #39, #257, #87 ) ;
#29 = FILL_AREA_STYLE ('',( #312 ) ) ;
#30 = ORIENTED_EDGE ( 'NONE', *, *, #163, .F. ) ;
#31 = DIRECTION ( 'NONE',  ( 1.000000000000000000, 0.0000000000000000000, 0.0000000000000000000 ) ) ;
#32 = ORIENTED_EDGE ( 'NONE', *, *, #59, .F. ) ;
#33 = CYLINDRICAL_SURFACE ( 'NONE', #255, 0.06250000000000002776 ) ;
#34 = ORIENTED_EDGE ( 'NONE', *, *, #313, .F. ) ;
#35 = DIRECTION ( 'NONE',  ( -1.224646799147353700E-16, -0.0000000000000000000, -1.000000000000000000 ) ) ;
#36 = CIRCLE ( 'NONE', #73, 0.05459535000000000082 ) ;
#37 = AXIS2_PLACEMENT_3D ( 'NONE', #210, #314, #44 ) ;
#38 = ORIENTED_EDGE ( 'NONE', *, *, #191, .T. ) ;
#39 = CARTESIAN_POINT ( 'NONE',  ( 6.686002062582947443E-18, 0.0000000000000000000, 0.05459535000000000082 ) ) ;
#40 = ORIENTED_EDGE ( 'NONE', *, *, #136, .F. ) ;
#41 = EDGE_LOOP ( 'NONE', ( #223, #67, #260, #130 ) ) ;
#42 = SURFACE_STYLE_FILL_AREA ( #182 ) ;
#43 = AXIS2_PLACEMENT_3D ( 'NONE', #115, #159, #53 ) ;
#44 = DIRECTION ( 'NONE',  ( 1.000000000000000000, 0.0000000000000000000, 0.0000000000000000000 ) ) ;
#45 = CARTESIAN_POINT ( 'NONE',  ( -0.04750000000000064587, 0.0000000000000000000, 1.500000000000000222 ) ) ;
#46 = ADVANCED_FACE ( 'NONE', ( #69 ), #217, .T. ) ;
#47 = CIRCLE ( 'NONE', #222, 0.04750000000000064587 ) ;
#48 = CARTESIAN_POINT ( 'NONE',  ( 0.05459535000000000776, 6.686002062582945132E-18, 0.05459534999999999388 ) ) ;
#49 = DIMENSIONAL_EXPONENTS ( 1.000000000000000000, 0.0000000000000000000, 0.0000000000000000000, 0.0000000000000000000, 0.0000000000000000000, 0.0000000000000000000, 0.0000000000000000000 ) ;
#50 =( CONVERSION_BASED_UNIT ( 'INCH', #166 ) LENGTH_UNIT ( ) NAMED_UNIT ( #323 ) );
#51 = CARTESIAN_POINT ( 'NONE',  ( 4.592425496802576684E-17, 0.0000000000000000000, 0.3750000000000000555 ) ) ;
#52 = ORIENTED_EDGE ( 'NONE', *, *, #231, .T. ) ;
#53 = DIRECTION ( 'NONE',  ( 1.000000000000000000, 0.0000000000000000000, 0.0000000000000000000 ) ) ;
#54 = PRODUCT_RELATED_PRODUCT_CATEGORY ( 'part', '', ( #325 ) ) ;
#55 = CARTESIAN_POINT ( 'NONE',  ( 0.0000000000000000000, 0.0000000000000000000, 1.500000000000000222 ) ) ;
#56 = CYLINDRICAL_SURFACE ( 'NONE', #285, 0.05459535000000000082 ) ;
#57 = EDGE_CURVE ( 'NONE', #61, #85, #215, .T. ) ;
#58 = DIRECTION ( 'NONE',  ( -1.000000000000000000, 0.0000000000000000000, 1.563690860155823218E-16 ) ) ;
#59 = EDGE_CURVE ( 'NONE', #19, #98, #126, .T. ) ;
#60 = DIRECTION ( 'NONE',  ( -1.224646799147353700E-16, -0.0000000000000000000, -1.000000000000000000 ) ) ;
#61 = VERTEX_POINT ( 'NONE', #186 ) ;
#62 = DIRECTION ( 'NONE',  ( -1.224646799147353700E-16, -0.0000000000000000000, -1.000000000000000000 ) ) ;
#63 = VERTEX_POINT ( 'NONE', #48 ) ;
#64 = VECTOR ( 'NONE', #127, 39.37007874015748143 ) ;
#65 = ORIENTED_EDGE ( 'NONE', *, *, #276, .F. ) ;
#66 = LENGTH_MEASURE_WITH_UNIT ( LENGTH_MEASURE( 0.02539999999999999897 ), #175 );
#67 = ORIENTED_EDGE ( 'NONE', *, *, #176, .T. ) ;
#68 = FILL_AREA_STYLE_COLOUR ( '', #117 ) ;
#69 = FACE_OUTER_BOUND ( 'NONE', #281, .T. ) ;
#70 = EDGE_CURVE ( 'NONE', #119, #199, #25, .T. ) ;
#71 = DIRECTION ( 'NONE',  ( -0.7071067811865462405, 0.0000000000000000000, -0.7071067811865486830 ) ) ;
#72 =( NAMED_UNIT ( * ) PLANE_ANGLE_UNIT ( ) SI_UNIT ( $, .RADIAN. ) );
#73 = AXIS2_PLACEMENT_3D ( 'NONE', #273, #81, #172 ) ;
#74 = DIRECTION ( 'NONE',  ( 0.0000000000000000000, 0.0000000000000000000, -1.000000000000000000 ) ) ;
#75 = DIRECTION ( 'NONE',  ( -1.000000000000000000, 0.0000000000000000000, 0.0000000000000000000 ) ) ;
#76 = EDGE_LOOP ( 'NONE', ( #100, #12, #180, #52 ) ) ;
#77 = CARTESIAN_POINT ( 'NONE',  ( -0.04750000000000064587, 0.0000000000000000000, 1.500000000000000222 ) ) ;
#78 = EDGE_CURVE ( 'NONE', #289, #98, #21, .T. ) ;
#79 = LINE ( 'NONE', #300, #152 ) ;
#80 = VECTOR ( 'NONE', #296, 39.37007874015748143 ) ;
#81 = DIRECTION ( 'NONE',  ( 0.0000000000000000000, -1.000000000000000000, 0.0000000000000000000 ) ) ;
#82 = ORIENTED_EDGE ( 'NONE', *, *, #57, .F. ) ;
#83 = ORIENTED_EDGE ( 'NONE', *, *, #196, .T. ) ;
#84 = CIRCLE ( 'NONE', #113, 0.06250000000000002776 ) ;
#85 = VERTEX_POINT ( 'NONE', #1 ) ;
#86 = ADVANCED_FACE ( 'NONE', ( #291 ), #304, .T. ) ;
#87 = DIRECTION ( 'NONE',  ( -1.000000000000000000, 0.0000000000000000000, 1.563690860155823218E-16 ) ) ;
#88 = AXIS2_PLACEMENT_3D ( 'NONE', #26, #35, #150 ) ;
#89 = SURFACE_STYLE_USAGE ( .BOTH. , #188 ) ;
#90 = ADVANCED_FACE ( 'NONE', ( #184 ), #114, .T. ) ;
#91 = DIRECTION ( 'NONE',  ( 1.224646799147353207E-16, 1.000000000000000000, -0.0000000000000000000 ) ) ;
#92 = ORIENTED_EDGE ( 'NONE', *, *, #187, .F. ) ;
#93 = DIRECTION ( 'NONE',  ( -1.000000000000000000, 0.0000000000000000000, 0.0000000000000000000 ) ) ;
#94 = AXIS2_PLACEMENT_3D ( 'NONE', #141, #91, #23 ) ;
#95 = DIRECTION ( 'NONE',  ( 0.0000000000000000000, 0.0000000000000000000, -1.000000000000000000 ) ) ;
#96 = DIRECTION ( 'NONE',  ( 1.000000000000000000, 0.0000000000000000000, 0.0000000000000000000 ) ) ;
#97 = LINE ( 'NONE', #303, #168 ) ;
#98 = VERTEX_POINT ( 'NONE', #241 ) ;
#99 = FACE_OUTER_BOUND ( 'NONE', #256, .T. ) ;
#100 = ORIENTED_EDGE ( 'NONE', *, *, #13, .F. ) ;
#101 = CARTESIAN_POINT ( 'NONE',  ( -0.06249999999999997224, 0.0000000000000000000, 0.4198294978354410456 ) ) ;
#102 = ORIENTED_EDGE ( 'NONE', *, *, #274, .F. ) ;
#103 =( NAMED_UNIT ( * ) SI_UNIT ( $, .STERADIAN. ) SOLID_ANGLE_UNIT ( ) );
#104 = ORIENTED_EDGE ( 'NONE', *, *, #196, .F. ) ;
#105 =( NAMED_UNIT ( * ) SI_UNIT ( $, .STERADIAN. ) SOLID_ANGLE_UNIT ( ) );
#106 = AXIS2_PLACEMENT_3D ( 'NONE', #240, #137, #24 ) ;
#107 = ADVANCED_FACE ( 'NONE', ( #268 ), #270, .T. ) ;
#108 = ORIENTED_EDGE ( 'NONE', *, *, #204, .T. ) ;
#109 = DIRECTION ( 'NONE',  ( 0.0000000000000000000, 0.0000000000000000000, -1.000000000000000000 ) ) ;
#110 = UNCERTAINTY_MEASURE_WITH_UNIT (LENGTH_MEASURE( 1.000000000000000082E-05 ), #259, 'distance_accuracy_value', 'NONE');
#111 = SURFACE_SIDE_STYLE ('',( #42 ) ) ;
#112 = AXIS2_PLACEMENT_3D ( 'NONE', #297, #169, #195 ) ;
#113 = AXIS2_PLACEMENT_3D ( 'NONE', #156, #109, #284 ) ;
#114 = PLANE ( 'NONE',  #183 ) ;
#115 = CARTESIAN_POINT ( 'NONE',  ( 6.686002062582947443E-18, 0.0000000000000000000, 0.05459535000000000082 ) ) ;
#116 = PRESENTATION_LAYER_ASSIGNMENT (  '', '', ( #235 ) ) ;
#117 = COLOUR_RGB ( '',0.7921568627450980005, 0.8196078431372548767, 0.9333333333333333481 ) ;
#118 = LINE ( 'NONE', #265, #161 ) ;
#119 = VERTEX_POINT ( 'NONE', #77 ) ;
#120 = CARTESIAN_POINT ( 'NONE',  ( 4.592425496802576684E-17, 0.0000000000000000000, 0.3750000000000000555 ) ) ;
#121 = CARTESIAN_POINT ( 'NONE',  ( 0.0000000000000000000, 0.0000000000000000000, 1.500000000000000222 ) ) ;
#122 = DIRECTION ( 'NONE',  ( -1.000000000000000000, 0.0000000000000000000, 0.0000000000000000000 ) ) ;
#123 = FACE_OUTER_BOUND ( 'NONE', #283, .T. ) ;
#124 = DIRECTION ( 'NONE',  ( 0.0000000000000000000, 0.0000000000000000000, 1.000000000000000000 ) ) ;
#125 = ORIENTED_EDGE ( 'NONE', *, *, #57, .T. ) ;
#126 = CIRCLE ( 'NONE', #94, 0.05459535000000000082 ) ;
#127 = DIRECTION ( 'NONE',  ( -0.0000000000000000000, -0.0000000000000000000, -1.000000000000000000 ) ) ;
#128 = ORIENTED_EDGE ( 'NONE', *, *, #274, .T. ) ;
#129 = EDGE_LOOP ( 'NONE', ( #230, #9, #108, #178 ) ) ;
#130 = ORIENTED_EDGE ( 'NONE', *, *, #204, .F. ) ;
#131 = CARTESIAN_POINT ( 'NONE',  ( -0.05459534999999995919, 7.170022278626953264E-18, 0.3750000000000000555 ) ) ;
#132 = FACE_OUTER_BOUND ( 'NONE', #205, .T. ) ;
#133 = AXIS2_PLACEMENT_3D ( 'NONE', #250, #200, #93 ) ;
#134 = CIRCLE ( 'NONE', #321, 0.05459535000000000082 ) ;
#135 = DIRECTION ( 'NONE',  ( 1.224646799147353700E-16, 0.0000000000000000000, 1.000000000000000000 ) ) ;
#136 = EDGE_CURVE ( 'NONE', #199, #287, #227, .T. ) ;
#137 = DIRECTION ( 'NONE',  ( -0.0000000000000000000, -0.0000000000000000000, -1.000000000000000000 ) ) ;
#138 = CARTESIAN_POINT ( 'NONE',  ( 0.0000000000000000000, 0.0000000000000000000, 1.500000000000000222 ) ) ;
#139 = ADVANCED_FACE ( 'NONE', ( #170 ), #282, .T. ) ;
#140 = EDGE_LOOP ( 'NONE', ( #306, #249 ) ) ;
#141 = CARTESIAN_POINT ( 'NONE',  ( 6.686002062582947443E-18, 0.0000000000000000000, 0.05459535000000000082 ) ) ;
#142 = ADVANCED_BREP_SHAPE_REPRESENTATION ( 'Micro_BEM-109-02', ( #11, #37 ), #279 ) ;
#143 = FACE_OUTER_BOUND ( 'NONE', #258, .T. ) ;
#144 = EDGE_CURVE ( 'NONE', #85, #308, #293, .T. ) ;
#145 = DIRECTION ( 'NONE',  ( -1.000000000000000000, 0.0000000000000000000, 1.224646799147353700E-16 ) ) ;
#146 = ORIENTED_EDGE ( 'NONE', *, *, #78, .F. ) ;
#147 = DIRECTION ( 'NONE',  ( 1.000000000000000000, 0.0000000000000000000, 0.0000000000000000000 ) ) ;
#148 = UNCERTAINTY_MEASURE_WITH_UNIT (LENGTH_MEASURE( 1.000000000000000082E-05 ), #307, 'distance_accuracy_value', 'NONE');
#149 = DIRECTION ( 'NONE',  ( 1.000000000000000000, 0.0000000000000000000, 0.0000000000000000000 ) ) ;
#150 = DIRECTION ( 'NONE',  ( -1.000000000000000000, 0.0000000000000000000, 1.224646799147353700E-16 ) ) ;
#151 = ORIENTED_EDGE ( 'NONE', *, *, #13, .T. ) ;
#152 = VECTOR ( 'NONE', #302, 39.37007874015748143 ) ;
#153 = LINE ( 'NONE', #261, #299 ) ;
#154 = ADVANCED_FACE ( 'NONE', ( #99 ), #56, .T. ) ;
#155 = ORIENTED_EDGE ( 'NONE', *, *, #310, .F. ) ;
#156 = CARTESIAN_POINT ( 'NONE',  ( 0.0000000000000000000, 0.0000000000000000000, 1.485000000000000764 ) ) ;
#157 = ORIENTED_EDGE ( 'NONE', *, *, #70, .T. ) ;
#158 = DIRECTION ( 'NONE',  ( 0.0000000000000000000, 0.0000000000000000000, 1.000000000000000000 ) ) ;
#159 = DIRECTION ( 'NONE',  ( 0.0000000000000000000, 1.000000000000000000, 0.0000000000000000000 ) ) ;
#160 = DIRECTION ( 'NONE',  ( 1.000000000000000000, 0.0000000000000000000, -0.0000000000000000000 ) ) ;
#161 = VECTOR ( 'NONE', #271, 39.37007874015748143 ) ;
#162 = AXIS2_PLACEMENT_3D ( 'NONE', #121, #95, #75 ) ;
#163 = EDGE_CURVE ( 'NONE', #119, #203, #316, .T. ) ;
#164 = CARTESIAN_POINT ( 'NONE',  ( -0.05459535000000000082, 0.0000000000000000000, 6.686002062582947443E-18 ) ) ;
#165 = EDGE_CURVE ( 'NONE', #308, #85, #315, .T. ) ;
#166 = LENGTH_MEASURE_WITH_UNIT ( LENGTH_MEASURE( 0.02539999999999999897 ), #320 );
#167 = AXIS2_PLACEMENT_3D ( 'NONE', #226, #60, #149 ) ;
#168 = VECTOR ( 'NONE', #181, 39.37007874015747433 ) ;
#169 = DIRECTION ( 'NONE',  ( -1.224646799147353700E-16, -0.0000000000000000000, -1.000000000000000000 ) ) ;
#170 = FACE_OUTER_BOUND ( 'NONE', #76, .T. ) ;
#171 = DIRECTION ( 'NONE',  ( 0.0000000000000000000, 0.0000000000000000000, -1.000000000000000000 ) ) ;
#172 = DIRECTION ( 'NONE',  ( 0.0000000000000000000, 0.0000000000000000000, -1.000000000000000000 ) ) ;
#173 = DIRECTION ( 'NONE',  ( 1.224646799147353700E-16, 0.0000000000000000000, 1.000000000000000000 ) ) ;
#174 = ORIENTED_EDGE ( 'NONE', *, *, #144, .T. ) ;
#175 =( LENGTH_UNIT ( ) NAMED_UNIT ( * ) SI_UNIT ( $, .METRE. ) );
#176 = EDGE_CURVE ( 'NONE', #287, #85, #4, .T. ) ;
#177 = COLOUR_RGB ( '',0.7921568627450980005, 0.8196078431372548767, 0.9333333333333333481 ) ;
#178 = ORIENTED_EDGE ( 'NONE', *, *, #144, .F. ) ;
#179 =( GEOMETRIC_REPRESENTATION_CONTEXT ( 3 ) GLOBAL_UNCERTAINTY_ASSIGNED_CONTEXT ( ( #218 ) ) GLOBAL_UNIT_ASSIGNED_CONTEXT ( ( #50, #72, #324 ) ) REPRESENTATION_CONTEXT ( 'NONE', 'WORKASPACE' ) );
#180 = ORIENTED_EDGE ( 'NONE', *, *, #78, .T. ) ;
#181 = DIRECTION ( 'NONE',  ( -0.1736481776669312194, 2.126576849575783625E-17, 0.9848077530122080203 ) ) ;
#182 = FILL_AREA_STYLE ('',( #68 ) ) ;
#183 = AXIS2_PLACEMENT_3D ( 'NONE', #138, #318, #160 ) ;
#184 = FACE_OUTER_BOUND ( 'NONE', #140, .T. ) ;
#185 = APPLICATION_PROTOCOL_DEFINITION ( 'draft international standard', 'automotive_design', 1998, #238 ) ;
#186 = CARTESIAN_POINT ( 'NONE',  ( 0.05459535000000004246, 0.0000000000000000000, 0.3750000000000000555 ) ) ;
#187 = EDGE_CURVE ( 'NONE', #61, #289, #254, .T. ) ;
#188 = SURFACE_SIDE_STYLE ('',( #213 ) ) ;
#189 = DIRECTION ( 'NONE',  ( 0.1736481776669314137, 0.0000000000000000000, 0.9848077530122077983 ) ) ;
#190 = ORIENTED_EDGE ( 'NONE', *, *, #288, .F. ) ;
#191 = EDGE_CURVE ( 'NONE', #19, #63, #36, .T. ) ;
#192 = CARTESIAN_POINT ( 'NONE',  ( 0.04750000000000064587, 6.735557395310483192E-18, 1.500000000000000222 ) ) ;
#193 = DIRECTION ( 'NONE',  ( -1.224646799147353700E-16, -0.0000000000000000000, -1.000000000000000000 ) ) ;
#194 = ORIENTED_EDGE ( 'NONE', *, *, #165, .T. ) ;
#195 = DIRECTION ( 'NONE',  ( -1.000000000000000000, 0.0000000000000000000, 0.0000000000000000000 ) ) ;
#196 = EDGE_CURVE ( 'NONE', #289, #61, #298, .T. ) ;
#197 = CARTESIAN_POINT ( 'NONE',  ( 0.0000000000000000000, 0.0000000000000000000, 1.500000000000000222 ) ) ;
#198 = APPLICATION_CONTEXT ( 'automotive_design' ) ;
#199 = VERTEX_POINT ( 'NONE', #27 ) ;
#200 = DIRECTION ( 'NONE',  ( -1.224646799147353700E-16, -0.0000000000000000000, -1.000000000000000000 ) ) ;
#201 = ORIENTED_EDGE ( 'NONE', *, *, #310, .T. ) ;
#202 = LENGTH_MEASURE_WITH_UNIT ( LENGTH_MEASURE( 0.02539999999999999897 ), #290 );
#203 = VERTEX_POINT ( 'NONE', #192 ) ;
#204 = EDGE_CURVE ( 'NONE', #199, #308, #79, .T. ) ;
#205 = EDGE_LOOP ( 'NONE', ( #104, #128, #194, #82 ) ) ;
#206 = CONICAL_SURFACE ( 'NONE', #221, 0.05459535000000000082, 0.1745329251994339192 ) ;
#207 = STYLED_ITEM ( 'NONE', ( #236 ), #142 ) ;
#208 = ORIENTED_EDGE ( 'NONE', *, *, #70, .F. ) ;
#209 = DIRECTION ( 'NONE',  ( 0.7071067811865462405, 8.659560562354916834E-17, -0.7071067811865486830 ) ) ;
#210 = CARTESIAN_POINT ( 'NONE',  ( 0.0000000000000000000, 0.0000000000000000000, 0.0000000000000000000 ) ) ;
#211 = SHAPE_DEFINITION_REPRESENTATION ( #269, #142 ) ;
#212 = ADVANCED_FACE ( 'NONE', ( #224 ), #311, .T. ) ;
#213 = SURFACE_STYLE_FILL_AREA ( #29 ) ;
#214 = ADVANCED_FACE ( 'NONE', ( #5 ), #33, .T. ) ;
#215 = LINE ( 'NONE', #295, #216 ) ;
#216 = VECTOR ( 'NONE', #189, 39.37007874015748143 ) ;
#217 = SPHERICAL_SURFACE ( 'NONE', #43, 0.05459535000000000082 ) ;
#218 = UNCERTAINTY_MEASURE_WITH_UNIT (LENGTH_MEASURE( 1.000000000000000082E-05 ), #50, 'distance_accuracy_value', 'NONE');
#219 = DIRECTION ( 'NONE',  ( 1.000000000000000000, 0.0000000000000000000, 0.0000000000000000000 ) ) ;
#220 = SPHERICAL_SURFACE ( 'NONE', #267, 0.05459535000000000082 ) ;
#221 = AXIS2_PLACEMENT_3D ( 'NONE', #51, #292, #244 ) ;
#222 = AXIS2_PLACEMENT_3D ( 'NONE', #14, #158, #10 ) ;
#223 = ORIENTED_EDGE ( 'NONE', *, *, #136, .T. ) ;
#224 = FACE_OUTER_BOUND ( 'NONE', #301, .T. ) ;
#225 = CARTESIAN_POINT ( 'NONE',  ( 0.0000000000000000000, 0.0000000000000000000, 0.0000000000000000000 ) ) ;
#226 = CARTESIAN_POINT ( 'NONE',  ( 5.141428507118137733E-17, 0.0000000000000000000, 0.4198294978354410456 ) ) ;
#227 = CIRCLE ( 'NONE', #246, 0.06250000000000002776 ) ;
#228 = ORIENTED_EDGE ( 'NONE', *, *, #231, .F. ) ;
#229 = CARTESIAN_POINT ( 'NONE',  ( 6.686002062582947443E-18, 0.0000000000000000000, 0.05459535000000000082 ) ) ;
#230 = ORIENTED_EDGE ( 'NONE', *, *, #176, .F. ) ;
#231 = EDGE_CURVE ( 'NONE', #98, #63, #134, .T. ) ;
#232 = CARTESIAN_POINT ( 'NONE',  ( 0.06250000000000002776, 7.654042494670959086E-18, 1.485000000000000764 ) ) ;
#233 = ORIENTED_EDGE ( 'NONE', *, *, #191, .F. ) ;
#234 = ORIENTED_EDGE ( 'NONE', *, *, #313, .T. ) ;
#235 = STYLED_ITEM ( 'NONE', ( #322 ), #11 ) ;
#236 = PRESENTATION_STYLE_ASSIGNMENT (( #264 ) ) ;
#237 = PRODUCT_DEFINITION_FORMATION_WITH_SPECIFIED_SOURCE ( 'ANY', '', #325, .NOT_KNOWN. ) ;
#238 = APPLICATION_CONTEXT ( 'automotive_design' ) ;
#239 = PRESENTATION_LAYER_ASSIGNMENT (  '', '', ( #207 ) ) ;
#240 = CARTESIAN_POINT ( 'NONE',  ( 0.0000000000000000000, 0.0000000000000000000, 1.500000000000000222 ) ) ;
#241 = CARTESIAN_POINT ( 'NONE',  ( -0.05459534999999999388, 0.0000000000000000000, 0.05459535000000000776 ) ) ;
#242 = AXIS2_PLACEMENT_3D ( 'NONE', #120, #135, #219 ) ;
#243 =( GEOMETRIC_REPRESENTATION_CONTEXT ( 3 ) GLOBAL_UNCERTAINTY_ASSIGNED_CONTEXT ( ( #110 ) ) GLOBAL_UNIT_ASSIGNED_CONTEXT ( ( #259, #262, #105 ) ) REPRESENTATION_CONTEXT ( 'NONE', 'WORKASPACE' ) );
#244 = DIRECTION ( 'NONE',  ( 1.000000000000000000, 0.0000000000000000000, 0.0000000000000000000 ) ) ;
#245 = CARTESIAN_POINT ( 'NONE',  ( 0.06250000000000002776, 7.654042494670959086E-18, 1.500000000000000222 ) ) ;
#246 = AXIS2_PLACEMENT_3D ( 'NONE', #275, #74, #147 ) ;
#247 = PRODUCT_DEFINITION ( 'UNKNOWN', '', #237, #6 ) ;
#248 = DIRECTION ( 'NONE',  ( 0.0000000000000000000, 1.000000000000000000, 0.0000000000000000000 ) ) ;
#249 = ORIENTED_EDGE ( 'NONE', *, *, #288, .T. ) ;
#250 = CARTESIAN_POINT ( 'NONE',  ( 4.592425496802576684E-17, 0.0000000000000000000, 0.3750000000000000555 ) ) ;
#251 = EDGE_LOOP ( 'NONE', ( #102, #92, #125, #174 ) ) ;
#252 = DIRECTION ( 'NONE',  ( 1.000000000000000000, 0.0000000000000000000, 0.0000000000000000000 ) ) ;
#253 = ADVANCED_FACE ( 'NONE', ( #143 ), #220, .T. ) ;
#254 = CIRCLE ( 'NONE', #112, 0.05459535000000000082 ) ;
#255 = AXIS2_PLACEMENT_3D ( 'NONE', #197, #305, #7 ) ;
#256 = EDGE_LOOP ( 'NONE', ( #83, #151, #234, #146 ) ) ;
#257 = DIRECTION ( 'NONE',  ( 1.224646799147353700E-16, 0.0000000000000000000, 1.000000000000000000 ) ) ;
#258 = EDGE_LOOP ( 'NONE', ( #32, #38, #228 ) ) ;
#259 =( CONVERSION_BASED_UNIT ( 'INCH', #66 ) LENGTH_UNIT ( ) NAMED_UNIT ( #49 ) );
#260 = ORIENTED_EDGE ( 'NONE', *, *, #165, .F. ) ;
#261 = CARTESIAN_POINT ( 'NONE',  ( 0.04750000000000064587, 5.817072295950006528E-18, 1.500000000000000222 ) ) ;
#262 =( NAMED_UNIT ( * ) PLANE_ANGLE_UNIT ( ) SI_UNIT ( $, .RADIAN. ) );
#263 = ADVANCED_FACE ( 'NONE', ( #123 ), #8, .T. ) ;
#264 = SURFACE_STYLE_USAGE ( .BOTH. , #111 ) ;
#265 = CARTESIAN_POINT ( 'NONE',  ( 0.05459535000000000082, 6.686002062582945132E-18, -6.686002062582947443E-18 ) ) ;
#266 = AXIS2_PLACEMENT_3D ( 'NONE', #280, #193, #252 ) ;
#267 = AXIS2_PLACEMENT_3D ( 'NONE', #277, #248, #31 ) ;
#268 = FACE_OUTER_BOUND ( 'NONE', #41, .T. ) ;
#269 = PRODUCT_DEFINITION_SHAPE ( 'NONE', 'NONE',  #247 ) ;
#270 = CYLINDRICAL_SURFACE ( 'NONE', #106, 0.06250000000000002776 ) ;
#271 = DIRECTION ( 'NONE',  ( -1.224646799147353700E-16, -0.0000000000000000000, -1.000000000000000000 ) ) ;
#272 = VECTOR ( 'NONE', #71, 39.37007874015748854 ) ;
#273 = CARTESIAN_POINT ( 'NONE',  ( 6.686002062582947443E-18, 0.0000000000000000000, 0.05459535000000000082 ) ) ;
#274 = EDGE_CURVE ( 'NONE', #289, #308, #97, .T. ) ;
#275 = CARTESIAN_POINT ( 'NONE',  ( 0.0000000000000000000, 0.0000000000000000000, 1.485000000000000764 ) ) ;
#276 = EDGE_CURVE ( 'NONE', #287, #199, #84, .T. ) ;
#277 = CARTESIAN_POINT ( 'NONE',  ( 6.686002062582947443E-18, 0.0000000000000000000, 0.05459535000000000082 ) ) ;
#278 = MECHANICAL_DESIGN_GEOMETRIC_PRESENTATION_REPRESENTATION (  '', ( #235 ), #179 ) ;
#279 =( GEOMETRIC_REPRESENTATION_CONTEXT ( 3 ) GLOBAL_UNCERTAINTY_ASSIGNED_CONTEXT ( ( #148 ) ) GLOBAL_UNIT_ASSIGNED_CONTEXT ( ( #307, #16, #103 ) ) REPRESENTATION_CONTEXT ( 'NONE', 'WORKASPACE' ) );
#280 = CARTESIAN_POINT ( 'NONE',  ( 5.141428507118137733E-17, 0.0000000000000000000, 0.4198294978354410456 ) ) ;
#281 = EDGE_LOOP ( 'NONE', ( #233, #15, #34 ) ) ;
#282 = CYLINDRICAL_SURFACE ( 'NONE', #88, 0.05459535000000000082 ) ;
#283 = EDGE_LOOP ( 'NONE', ( #190, #201, #40, #208 ) ) ;
#284 = DIRECTION ( 'NONE',  ( 1.000000000000000000, 0.0000000000000000000, 0.0000000000000000000 ) ) ;
#285 = AXIS2_PLACEMENT_3D ( 'NONE', #225, #62, #145 ) ;
#286 = MECHANICAL_DESIGN_GEOMETRIC_PRESENTATION_REPRESENTATION (  '', ( #207 ), #243 ) ;
#287 = VERTEX_POINT ( 'NONE', #232 ) ;
#288 = EDGE_CURVE ( 'NONE', #203, #119, #47, .T. ) ;
#289 = VERTEX_POINT ( 'NONE', #131 ) ;
#290 =( LENGTH_UNIT ( ) NAMED_UNIT ( * ) SI_UNIT ( $, .METRE. ) );
#291 = FACE_OUTER_BOUND ( 'NONE', #251, .T. ) ;
#292 = DIRECTION ( 'NONE',  ( 1.224646799147353700E-16, 0.0000000000000000000, 1.000000000000000000 ) ) ;
#293 = CIRCLE ( 'NONE', #266, 0.06250000000000002776 ) ;
#294 = CARTESIAN_POINT ( 'NONE',  ( 1.002900309387441962E-17, 0.0000000000000000000, 0.0000000000000000000 ) ) ;
#295 = CARTESIAN_POINT ( 'NONE',  ( 0.05459535000000004246, 0.0000000000000000000, 0.3750000000000000555 ) ) ;
#296 = DIRECTION ( 'NONE',  ( -1.224646799147353700E-16, -0.0000000000000000000, -1.000000000000000000 ) ) ;
#297 = CARTESIAN_POINT ( 'NONE',  ( 4.592425496802576684E-17, 0.0000000000000000000, 0.3750000000000000555 ) ) ;
#298 = CIRCLE ( 'NONE', #133, 0.05459535000000000082 ) ;
#299 = VECTOR ( 'NONE', #209, 39.37007874015748854 ) ;
#300 = CARTESIAN_POINT ( 'NONE',  ( -0.06250000000000002776, 0.0000000000000000000, 1.500000000000000222 ) ) ;
#301 = EDGE_LOOP ( 'NONE', ( #155, #30, #157, #65 ) ) ;
#302 = DIRECTION ( 'NONE',  ( -0.0000000000000000000, -0.0000000000000000000, -1.000000000000000000 ) ) ;
#303 = CARTESIAN_POINT ( 'NONE',  ( -0.05459534999999995919, 6.686002062582945132E-18, 0.3750000000000000555 ) ) ;
#304 = CONICAL_SURFACE ( 'NONE', #242, 0.05459535000000000082, 0.1745329251994339192 ) ;
#305 = DIRECTION ( 'NONE',  ( -0.0000000000000000000, -0.0000000000000000000, -1.000000000000000000 ) ) ;
#306 = ORIENTED_EDGE ( 'NONE', *, *, #163, .T. ) ;
#307 =( CONVERSION_BASED_UNIT ( 'INCH', #202 ) LENGTH_UNIT ( ) NAMED_UNIT ( #319 ) );
#308 = VERTEX_POINT ( 'NONE', #101 ) ;
#309 = APPLICATION_PROTOCOL_DEFINITION ( 'draft international standard', 'automotive_design', 1998, #198 ) ;
#310 = EDGE_CURVE ( 'NONE', #203, #287, #153, .T. ) ;
#311 = CONICAL_SURFACE ( 'NONE', #20, 0.04750000000000064587, 0.7853981633974466137 ) ;
#312 = FILL_AREA_STYLE_COLOUR ( '', #177 ) ;
#313 = EDGE_CURVE ( 'NONE', #63, #98, #317, .T. ) ;
#314 = DIRECTION ( 'NONE',  ( 0.0000000000000000000, 0.0000000000000000000, 1.000000000000000000 ) ) ;
#315 = CIRCLE ( 'NONE', #167, 0.06250000000000002776 ) ;
#316 = CIRCLE ( 'NONE', #18, 0.04750000000000064587 ) ;
#317 = CIRCLE ( 'NONE', #28, 0.05459535000000000082 ) ;
#318 = DIRECTION ( 'NONE',  ( 0.0000000000000000000, 0.0000000000000000000, 1.000000000000000000 ) ) ;
#319 = DIMENSIONAL_EXPONENTS ( 1.000000000000000000, 0.0000000000000000000, 0.0000000000000000000, 0.0000000000000000000, 0.0000000000000000000, 0.0000000000000000000, 0.0000000000000000000 ) ;
#320 =( LENGTH_UNIT ( ) NAMED_UNIT ( * ) SI_UNIT ( $, .METRE. ) );
#321 = AXIS2_PLACEMENT_3D ( 'NONE', #229, #173, #58 ) ;
#322 = PRESENTATION_STYLE_ASSIGNMENT (( #89 ) ) ;
#323 = DIMENSIONAL_EXPONENTS ( 1.000000000000000000, 0.0000000000000000000, 0.0000000000000000000, 0.0000000000000000000, 0.0000000000000000000, 0.0000000000000000000, 0.0000000000000000000 ) ;
#324 =( NAMED_UNIT ( * ) SI_UNIT ( $, .STERADIAN. ) SOLID_ANGLE_UNIT ( ) );
#325 = PRODUCT ( 'Micro_BEM-109-02', 'Micro_BEM-109-02', '', ( #22 ) ) ;
ENDSEC;
END-ISO-10303-21;
