ISO-10303-21;
HEADER;
FILE_DESCRIPTION (( 'STEP AP214' ),
    '1' );
FILE_NAME ('30572W.STEP',
    '2023-06-22T18:43:58',
    ( '' ),
    ( '' ),
    'SwSTEP 2.0',
    'SolidWorks 2023',
    '' );
FILE_SCHEMA (( 'AUTOMOTIVE_DESIGN' ));
ENDSEC;

DATA;
#1 = PRODUCT_DEFINITION_FORMATION_WITH_SPECIFIED_SOURCE ( 'ANY', '', #90, .NOT_KNOWN. ) ;
#2 = CARTESIAN_POINT ( 'NONE',  ( -0.3125000000000001665, 3.500000000000000000, 0.000000000000000000 ) ) ;
#3 = ORIENTED_EDGE ( 'NONE', *, *, #166, .T. ) ;
#4 = UNCERTAINTY_MEASURE_WITH_UNIT (LENGTH_MEASURE( 1.000000000000000082E-05 ), #196, 'distance_accuracy_value', 'NONE');
#5 = VERTEX_POINT ( 'NONE', #304 ) ;
#6 = MECHANICAL_DESIGN_GEOMETRIC_PRESENTATION_REPRESENTATION (  '', ( #107 ), #156 ) ;
#7 = FACE_OUTER_BOUND ( 'NONE', #39, .T. ) ;
#8 =( NAMED_UNIT ( * ) SI_UNIT ( $, .STERADIAN. ) SOLID_ANGLE_UNIT ( ) );
#9 = DIRECTION ( 'NONE',  ( 0.000000000000000000, 0.000000000000000000, -1.000000000000000000 ) ) ;
#10 = ADVANCED_FACE ( 'NONE', ( #187 ), #264, .T. ) ;
#11 = VERTEX_POINT ( 'NONE', #121 ) ;
#12 = FILL_AREA_STYLE_COLOUR ( '', #80 ) ;
#13 = SURFACE_SIDE_STYLE ('',( #235 ) ) ;
#14 = SURFACE_SIDE_STYLE ('',( #226 ) ) ;
#15 = EDGE_LOOP ( 'NONE', ( #254, #116 ) ) ;
#16 = PRESENTATION_STYLE_ASSIGNMENT (( #216 ) ) ;
#17 = SURFACE_STYLE_FILL_AREA ( #64 ) ;
#18 = EDGE_LOOP ( 'NONE', ( #95, #167 ) ) ;
#19 =( CONVERSION_BASED_UNIT ( 'INCH', #260 ) LENGTH_UNIT ( ) NAMED_UNIT ( #203 ) );
#20 = ORIENTED_EDGE ( 'NONE', *, *, #210, .F. ) ;
#21 = CARTESIAN_POINT ( 'NONE',  ( -6.123233995736759873E-17, 3.500000000000000000, 0.000000000000000000 ) ) ;
#22 = DIRECTION ( 'NONE',  ( -1.000000000000000000, 0.000000000000000000, 0.000000000000000000 ) ) ;
#23 = DIRECTION ( 'NONE',  ( -0.000000000000000000, -1.000000000000000000, -0.000000000000000000 ) ) ;
#24 =( CONVERSION_BASED_UNIT ( 'INCH', #195 ) LENGTH_UNIT ( ) NAMED_UNIT ( #54 ) );
#25 = ADVANCED_FACE ( 'NONE', ( #222 ), #48, .T. ) ;
#26 = CIRCLE ( 'NONE', #141, 0.3125000000000000000 ) ;
#27 = FILL_AREA_STYLE ('',( #266 ) ) ;
#28 = CARTESIAN_POINT ( 'NONE',  ( 0.3125000000000000000, 1.250000000000000000, 3.827021247335478926E-17 ) ) ;
#29 = UNCERTAINTY_MEASURE_WITH_UNIT (LENGTH_MEASURE( 1.000000000000000082E-05 ), #37, 'distance_accuracy_value', 'NONE');
#30 = DIRECTION ( 'NONE',  ( -1.000000000000000000, 0.000000000000000000, 0.000000000000000000 ) ) ;
#31 = AXIS2_PLACEMENT_3D ( 'NONE', #198, #23, #122 ) ;
#32 = VECTOR ( 'NONE', #288, 39.37007874015748143 ) ;
#33 = DIRECTION ( 'NONE',  ( -2.721437331438560389E-17, 1.000000000000000000, -0.000000000000000000 ) ) ;
#34 = DIRECTION ( 'NONE',  ( 2.721437331438560697E-17, -1.000000000000000000, 0.000000000000000000 ) ) ;
#35 = CIRCLE ( 'NONE', #112, 0.3125000000000000555 ) ;
#36 =( CONVERSION_BASED_UNIT ( 'INCH', #163 ) LENGTH_UNIT ( ) NAMED_UNIT ( #252 ) );
#37 =( CONVERSION_BASED_UNIT ( 'INCH', #43 ) LENGTH_UNIT ( ) NAMED_UNIT ( #104 ) );
#38 = DIRECTION ( 'NONE',  ( -2.721437331438560697E-17, 1.000000000000000000, 0.000000000000000000 ) ) ;
#39 = EDGE_LOOP ( 'NONE', ( #180, #62, #42, #250 ) ) ;
#40 = PRESENTATION_STYLE_ASSIGNMENT (( #303 ) ) ;
#41 = MECHANICAL_DESIGN_GEOMETRIC_PRESENTATION_REPRESENTATION (  '', ( #174 ), #145 ) ;
#42 = ORIENTED_EDGE ( 'NONE', *, *, #272, .F. ) ;
#43 = LENGTH_MEASURE_WITH_UNIT ( LENGTH_MEASURE( 0.02539999999999999897 ), #136 );
#44 = PRODUCT_DEFINITION_SHAPE ( 'NONE', 'NONE',  #127 ) ;
#45 = DIRECTION ( 'NONE',  ( 0.000000000000000000, 0.000000000000000000, -1.000000000000000000 ) ) ;
#46 = STYLED_ITEM ( 'NONE', ( #148 ), #257 ) ;
#47 = ORIENTED_EDGE ( 'NONE', *, *, #176, .T. ) ;
#48 = CYLINDRICAL_SURFACE ( 'NONE', #265, 0.3125000000000000000 ) ;
#49 = CARTESIAN_POINT ( 'NONE',  ( -6.123233995736759873E-17, 3.500000000000000000, 0.000000000000000000 ) ) ;
#50 = AXIS2_PLACEMENT_3D ( 'NONE', #49, #147, #22 ) ;
#51 =( GEOMETRIC_REPRESENTATION_CONTEXT ( 3 ) GLOBAL_UNCERTAINTY_ASSIGNED_CONTEXT ( ( #29 ) ) GLOBAL_UNIT_ASSIGNED_CONTEXT ( ( #37, #86, #300 ) ) REPRESENTATION_CONTEXT ( 'NONE', 'WORKASPACE' ) );
#52 = CARTESIAN_POINT ( 'NONE',  ( -6.123233995736759873E-17, 3.500000000000000000, 0.000000000000000000 ) ) ;
#53 = EDGE_CURVE ( 'NONE', #142, #5, #268, .T. ) ;
#54 = DIMENSIONAL_EXPONENTS ( 1.000000000000000000, 0.000000000000000000, 0.000000000000000000, 0.000000000000000000, 0.000000000000000000, 0.000000000000000000, 0.000000000000000000 ) ;
#55 = ORIENTED_EDGE ( 'NONE', *, *, #224, .F. ) ;
#56 = PLANE ( 'NONE',  #168 ) ;
#57 = DIRECTION ( 'NONE',  ( 0.000000000000000000, 1.000000000000000000, 0.000000000000000000 ) ) ;
#58 = CLOSED_SHELL ( 'NONE', ( #308, #134, #25, #257 ) ) ;
#59 = PRODUCT_CONTEXT ( 'NONE', #206, 'mechanical' ) ;
#60 = VERTEX_POINT ( 'NONE', #217 ) ;
#61 = SURFACE_SIDE_STYLE ('',( #67 ) ) ;
#62 = ORIENTED_EDGE ( 'NONE', *, *, #298, .T. ) ;
#63 = SHAPE_DEFINITION_REPRESENTATION ( #44, #290 ) ;
#64 = FILL_AREA_STYLE ('',( #12 ) ) ;
#65 = DIRECTION ( 'NONE',  ( 0.000000000000000000, 0.000000000000000000, -1.000000000000000000 ) ) ;
#66 = CARTESIAN_POINT ( 'NONE',  ( 0.000000000000000000, 0.000000000000000000, -0.3125000000000000000 ) ) ;
#67 = SURFACE_STYLE_FILL_AREA ( #211 ) ;
#68 =( LENGTH_UNIT ( ) NAMED_UNIT ( * ) SI_UNIT ( $, .METRE. ) );
#69 = CARTESIAN_POINT ( 'NONE',  ( 0.000000000000000000, 1.250000000000000000, 0.000000000000000000 ) ) ;
#70 = DIRECTION ( 'NONE',  ( 1.000000000000000000, 0.000000000000000000, 0.000000000000000000 ) ) ;
#71 = LENGTH_MEASURE_WITH_UNIT ( LENGTH_MEASURE( 0.02539999999999999897 ), #68 );
#72 = DIRECTION ( 'NONE',  ( 1.000000000000000000, 2.721437331438560697E-17, 0.000000000000000000 ) ) ;
#73 = AXIS2_PLACEMENT_3D ( 'NONE', #85, #249, #229 ) ;
#74 = EDGE_CURVE ( 'NONE', #60, #175, #26, .T. ) ;
#75 = FILL_AREA_STYLE ('',( #286 ) ) ;
#76 = COLOUR_RGB ( '',1.000000000000000000, 0.000000000000000000, 0.000000000000000000 ) ;
#77 = CARTESIAN_POINT ( 'NONE',  ( 3.827021247335478926E-17, 1.250000000000000000, 0.3125000000000000000 ) ) ;
#78 = CARTESIAN_POINT ( 'NONE',  ( 0.3124999999999999445, 3.500000000000000000, 3.827021247335478926E-17 ) ) ;
#79 = SURFACE_STYLE_USAGE ( .BOTH. , #102 ) ;
#80 = COLOUR_RGB ( '',1.000000000000000000, 0.000000000000000000, 0.000000000000000000 ) ;
#81 = MANIFOLD_SOLID_BREP ( 'Revolve - Cutting Edge', #58 ) ;
#82 = MANIFOLD_SOLID_BREP ( 'Revolve - Tool Body (Straight Shanked)', #84 ) ;
#83 = LINE ( 'NONE', #244, #131 ) ;
#84 = CLOSED_SHELL ( 'NONE', ( #215, #109, #10, #137 ) ) ;
#85 = CARTESIAN_POINT ( 'NONE',  ( 0.000000000000000000, 0.000000000000000000, 0.000000000000000000 ) ) ;
#86 =( NAMED_UNIT ( * ) PLANE_ANGLE_UNIT ( ) SI_UNIT ( $, .RADIAN. ) );
#87 =( LENGTH_UNIT ( ) NAMED_UNIT ( * ) SI_UNIT ( $, .METRE. ) );
#88 = PRESENTATION_LAYER_ASSIGNMENT (  '', '', ( #227 ) ) ;
#89 = PLANE ( 'NONE',  #157 ) ;
#90 = PRODUCT ( '30572W', '30572W', '', ( #59 ) ) ;
#91 = DIRECTION ( 'NONE',  ( 0.000000000000000000, 0.000000000000000000, 1.000000000000000000 ) ) ;
#92 = DIRECTION ( 'NONE',  ( -2.721437331438560389E-17, 1.000000000000000000, -0.000000000000000000 ) ) ;
#93 =( NAMED_UNIT ( * ) PLANE_ANGLE_UNIT ( ) SI_UNIT ( $, .RADIAN. ) );
#94 = PRESENTATION_STYLE_ASSIGNMENT (( #113 ) ) ;
#95 = ORIENTED_EDGE ( 'NONE', *, *, #233, .F. ) ;
#96 = SURFACE_STYLE_FILL_AREA ( #143 ) ;
#97 = PRESENTATION_LAYER_ASSIGNMENT (  '', '', ( #46 ) ) ;
#98 = UNCERTAINTY_MEASURE_WITH_UNIT (LENGTH_MEASURE( 1.000000000000000082E-05 ), #24, 'distance_accuracy_value', 'NONE');
#99 =( GEOMETRIC_REPRESENTATION_CONTEXT ( 3 ) GLOBAL_UNCERTAINTY_ASSIGNED_CONTEXT ( ( #153 ) ) GLOBAL_UNIT_ASSIGNED_CONTEXT ( ( #19, #239, #305 ) ) REPRESENTATION_CONTEXT ( 'NONE', 'WORKASPACE' ) );
#100 = AXIS2_PLACEMENT_3D ( 'NONE', #159, #91, #70 ) ;
#101 = CIRCLE ( 'NONE', #223, 0.3125000000000000555 ) ;
#102 = SURFACE_SIDE_STYLE ('',( #171 ) ) ;
#103 = LENGTH_MEASURE_WITH_UNIT ( LENGTH_MEASURE( 0.02539999999999999897 ), #243 );
#104 = DIMENSIONAL_EXPONENTS ( 1.000000000000000000, 0.000000000000000000, 0.000000000000000000, 0.000000000000000000, 0.000000000000000000, 0.000000000000000000, 0.000000000000000000 ) ;
#105 = CARTESIAN_POINT ( 'NONE',  ( 0.000000000000000000, 0.000000000000000000, -0.3125000000000000000 ) ) ;
#106 = DIMENSIONAL_EXPONENTS ( 1.000000000000000000, 0.000000000000000000, 0.000000000000000000, 0.000000000000000000, 0.000000000000000000, 0.000000000000000000, 0.000000000000000000 ) ;
#107 = STYLED_ITEM ( 'NONE', ( #40 ), #134 ) ;
#108 =( NAMED_UNIT ( * ) PLANE_ANGLE_UNIT ( ) SI_UNIT ( $, .RADIAN. ) );
#109 = ADVANCED_FACE ( 'NONE', ( #117 ), #238, .F. ) ;
#110 = DIRECTION ( 'NONE',  ( 0.000000000000000000, -0.000000000000000000, 1.000000000000000000 ) ) ;
#111 = ORIENTED_EDGE ( 'NONE', *, *, #53, .T. ) ;
#112 = AXIS2_PLACEMENT_3D ( 'NONE', #52, #151, #30 ) ;
#113 = SURFACE_STYLE_USAGE ( .BOTH. , #13 ) ;
#114 = CIRCLE ( 'NONE', #73, 0.3125000000000000000 ) ;
#115 = FILL_AREA_STYLE_COLOUR ( '', #282 ) ;
#116 = ORIENTED_EDGE ( 'NONE', *, *, #210, .T. ) ;
#117 = FACE_OUTER_BOUND ( 'NONE', #255, .T. ) ;
#118 = EDGE_LOOP ( 'NONE', ( #301, #237, #219, #20 ) ) ;
#119 = UNCERTAINTY_MEASURE_WITH_UNIT (LENGTH_MEASURE( 1.000000000000000082E-05 ), #164, 'distance_accuracy_value', 'NONE');
#120 =( GEOMETRIC_REPRESENTATION_CONTEXT ( 3 ) GLOBAL_UNCERTAINTY_ASSIGNED_CONTEXT ( ( #194 ) ) GLOBAL_UNIT_ASSIGNED_CONTEXT ( ( #36, #93, #261 ) ) REPRESENTATION_CONTEXT ( 'NONE', 'WORKASPACE' ) );
#121 = CARTESIAN_POINT ( 'NONE',  ( 0.3125000000000000000, 3.500000000000000000, 3.827021247335478926E-17 ) ) ;
#122 = DIRECTION ( 'NONE',  ( 0.000000000000000000, 0.000000000000000000, -1.000000000000000000 ) ) ;
#123 = MECHANICAL_DESIGN_GEOMETRIC_PRESENTATION_REPRESENTATION (  '', ( #128 ), #99 ) ;
#124 = PRODUCT_RELATED_PRODUCT_CATEGORY ( 'part', '', ( #90 ) ) ;
#125 = VECTOR ( 'NONE', #269, 39.37007874015748143 ) ;
#126 = FILL_AREA_STYLE_COLOUR ( '', #76 ) ;
#127 = PRODUCT_DEFINITION ( 'UNKNOWN', '', #1, #240 ) ;
#128 = STYLED_ITEM ( 'NONE', ( #212 ), #25 ) ;
#129 = FACE_OUTER_BOUND ( 'NONE', #185, .T. ) ;
#130 = DIMENSIONAL_EXPONENTS ( 1.000000000000000000, 0.000000000000000000, 0.000000000000000000, 0.000000000000000000, 0.000000000000000000, 0.000000000000000000, 0.000000000000000000 ) ;
#131 = VECTOR ( 'NONE', #208, 39.37007874015748143 ) ;
#132 = DIRECTION ( 'NONE',  ( -1.000000000000000000, 0.000000000000000000, 0.000000000000000000 ) ) ;
#133 = CARTESIAN_POINT ( 'NONE',  ( 0.000000000000000000, 1.250000000000000000, 0.000000000000000000 ) ) ;
#134 = ADVANCED_FACE ( 'NONE', ( #234 ), #273, .T. ) ;
#135 = CYLINDRICAL_SURFACE ( 'NONE', #191, 0.3125000000000000000 ) ;
#136 =( LENGTH_UNIT ( ) NAMED_UNIT ( * ) SI_UNIT ( $, .METRE. ) );
#137 = ADVANCED_FACE ( 'NONE', ( #209 ), #56, .F. ) ;
#138 = ORIENTED_EDGE ( 'NONE', *, *, #287, .F. ) ;
#139 = CIRCLE ( 'NONE', #31, 0.3125000000000000000 ) ;
#140 = CARTESIAN_POINT ( 'NONE',  ( 3.827021247335478926E-17, 0.000000000000000000, 0.3125000000000000000 ) ) ;
#141 = AXIS2_PLACEMENT_3D ( 'NONE', #241, #92, #302 ) ;
#142 = VERTEX_POINT ( 'NONE', #77 ) ;
#143 = FILL_AREA_STYLE ('',( #126 ) ) ;
#144 = VERTEX_POINT ( 'NONE', #140 ) ;
#145 =( GEOMETRIC_REPRESENTATION_CONTEXT ( 3 ) GLOBAL_UNCERTAINTY_ASSIGNED_CONTEXT ( ( #98 ) ) GLOBAL_UNIT_ASSIGNED_CONTEXT ( ( #24, #178, #190 ) ) REPRESENTATION_CONTEXT ( 'NONE', 'WORKASPACE' ) );
#146 = DIRECTION ( 'NONE',  ( -0.000000000000000000, -1.000000000000000000, -0.000000000000000000 ) ) ;
#147 = DIRECTION ( 'NONE',  ( -2.721437331438560389E-17, 1.000000000000000000, -0.000000000000000000 ) ) ;
#148 = PRESENTATION_STYLE_ASSIGNMENT (( #279 ) ) ;
#149 = AXIS2_PLACEMENT_3D ( 'NONE', #133, #247, #271 ) ;
#150 = PRESENTATION_LAYER_ASSIGNMENT (  '', '', ( #107 ) ) ;
#151 = DIRECTION ( 'NONE',  ( -2.721437331438560389E-17, 1.000000000000000000, -0.000000000000000000 ) ) ;
#152 = DIRECTION ( 'NONE',  ( 0.000000000000000000, -1.000000000000000000, -0.000000000000000000 ) ) ;
#153 = UNCERTAINTY_MEASURE_WITH_UNIT (LENGTH_MEASURE( 1.000000000000000082E-05 ), #19, 'distance_accuracy_value', 'NONE');
#154 = CARTESIAN_POINT ( 'NONE',  ( -6.123233995736759873E-17, 3.500000000000000000, 0.000000000000000000 ) ) ;
#155 = UNCERTAINTY_MEASURE_WITH_UNIT (LENGTH_MEASURE( 1.000000000000000082E-05 ), #253, 'distance_accuracy_value', 'NONE');
#156 =( GEOMETRIC_REPRESENTATION_CONTEXT ( 3 ) GLOBAL_UNCERTAINTY_ASSIGNED_CONTEXT ( ( #119 ) ) GLOBAL_UNIT_ASSIGNED_CONTEXT ( ( #164, #108, #8 ) ) REPRESENTATION_CONTEXT ( 'NONE', 'WORKASPACE' ) );
#157 = AXIS2_PLACEMENT_3D ( 'NONE', #199, #152, #172 ) ;
#158 = ORIENTED_EDGE ( 'NONE', *, *, #267, .F. ) ;
#159 = CARTESIAN_POINT ( 'NONE',  ( 0.000000000000000000, 0.000000000000000000, 0.000000000000000000 ) ) ;
#160 = SURFACE_SIDE_STYLE ('',( #17 ) ) ;
#161 = VERTEX_POINT ( 'NONE', #66 ) ;
#162 = PRESENTATION_LAYER_ASSIGNMENT (  '', '', ( #259 ) ) ;
#163 = LENGTH_MEASURE_WITH_UNIT ( LENGTH_MEASURE( 0.02539999999999999897 ), #87 );
#164 =( CONVERSION_BASED_UNIT ( 'INCH', #71 ) LENGTH_UNIT ( ) NAMED_UNIT ( #106 ) );
#165 = SURFACE_STYLE_USAGE ( .BOTH. , #283 ) ;
#166 = EDGE_CURVE ( 'NONE', #175, #11, #197, .T. ) ;
#167 = ORIENTED_EDGE ( 'NONE', *, *, #53, .F. ) ;
#168 = AXIS2_PLACEMENT_3D ( 'NONE', #251, #34, #72 ) ;
#169 = VECTOR ( 'NONE', #245, 39.37007874015748143 ) ;
#170 = FILL_AREA_STYLE ('',( #232 ) ) ;
#171 = SURFACE_STYLE_FILL_AREA ( #27 ) ;
#172 = DIRECTION ( 'NONE',  ( 0.000000000000000000, 0.000000000000000000, -1.000000000000000000 ) ) ;
#173 = FACE_OUTER_BOUND ( 'NONE', #295, .T. ) ;
#174 = STYLED_ITEM ( 'NONE', ( #94 ), #81 ) ;
#175 = VERTEX_POINT ( 'NONE', #28 ) ;
#176 = EDGE_CURVE ( 'NONE', #5, #161, #225, .T. ) ;
#177 = APPLICATION_PROTOCOL_DEFINITION ( 'draft international standard', 'automotive_design', 1998, #206 ) ;
#178 =( NAMED_UNIT ( * ) PLANE_ANGLE_UNIT ( ) SI_UNIT ( $, .RADIAN. ) );
#179 =( GEOMETRIC_REPRESENTATION_CONTEXT ( 3 ) GLOBAL_UNCERTAINTY_ASSIGNED_CONTEXT ( ( #4 ) ) GLOBAL_UNIT_ASSIGNED_CONTEXT ( ( #196, #285, #207 ) ) REPRESENTATION_CONTEXT ( 'NONE', 'WORKASPACE' ) );
#180 = ORIENTED_EDGE ( 'NONE', *, *, #233, .T. ) ;
#181 = APPLICATION_PROTOCOL_DEFINITION ( 'draft international standard', 'automotive_design', 1998, #275 ) ;
#182 =( LENGTH_UNIT ( ) NAMED_UNIT ( * ) SI_UNIT ( $, .METRE. ) );
#183 = CARTESIAN_POINT ( 'NONE',  ( 0.000000000000000000, 0.000000000000000000, 0.000000000000000000 ) ) ;
#184 = CARTESIAN_POINT ( 'NONE',  ( 3.827021247335478926E-17, 0.000000000000000000, 0.3125000000000000000 ) ) ;
#185 = EDGE_LOOP ( 'NONE', ( #277, #281 ) ) ;
#186 = DIRECTION ( 'NONE',  ( -1.000000000000000000, -2.721437331438560697E-17, 0.000000000000000000 ) ) ;
#187 = FACE_OUTER_BOUND ( 'NONE', #118, .T. ) ;
#188 = DIRECTION ( 'NONE',  ( -2.721437331438560389E-17, 1.000000000000000000, -0.000000000000000000 ) ) ;
#189 = PRESENTATION_STYLE_ASSIGNMENT (( #79 ) ) ;
#190 =( NAMED_UNIT ( * ) SI_UNIT ( $, .STERADIAN. ) SOLID_ANGLE_UNIT ( ) );
#191 = AXIS2_PLACEMENT_3D ( 'NONE', #183, #274, #9 ) ;
#192 = AXIS2_PLACEMENT_3D ( 'NONE', #256, #57, #110 ) ;
#193 = LINE ( 'NONE', #184, #125 ) ;
#194 = UNCERTAINTY_MEASURE_WITH_UNIT (LENGTH_MEASURE( 1.000000000000000082E-05 ), #36, 'distance_accuracy_value', 'NONE');
#195 = LENGTH_MEASURE_WITH_UNIT ( LENGTH_MEASURE( 0.02539999999999999897 ), #182 );
#196 =( CONVERSION_BASED_UNIT ( 'INCH', #103 ) LENGTH_UNIT ( ) NAMED_UNIT ( #248 ) );
#197 = LINE ( 'NONE', #78, #169 ) ;
#198 = CARTESIAN_POINT ( 'NONE',  ( 0.000000000000000000, 0.000000000000000000, 0.000000000000000000 ) ) ;
#199 = CARTESIAN_POINT ( 'NONE',  ( 0.000000000000000000, 0.000000000000000000, 0.000000000000000000 ) ) ;
#200 =( NAMED_UNIT ( * ) SI_UNIT ( $, .STERADIAN. ) SOLID_ANGLE_UNIT ( ) );
#201 = EDGE_CURVE ( 'NONE', #175, #60, #270, .T. ) ;
#202 = VERTEX_POINT ( 'NONE', #2 ) ;
#203 = DIMENSIONAL_EXPONENTS ( 1.000000000000000000, 0.000000000000000000, 0.000000000000000000, 0.000000000000000000, 0.000000000000000000, 0.000000000000000000, 0.000000000000000000 ) ;
#204 = MECHANICAL_DESIGN_GEOMETRIC_PRESENTATION_REPRESENTATION (  '', ( #259 ), #179 ) ;
#205 = ORIENTED_EDGE ( 'NONE', *, *, #298, .F. ) ;
#206 = APPLICATION_CONTEXT ( 'automotive_design' ) ;
#207 =( NAMED_UNIT ( * ) SI_UNIT ( $, .STERADIAN. ) SOLID_ANGLE_UNIT ( ) );
#208 = DIRECTION ( 'NONE',  ( -2.721437331438560697E-17, 1.000000000000000000, -0.000000000000000000 ) ) ;
#209 = FACE_OUTER_BOUND ( 'NONE', #15, .T. ) ;
#210 = EDGE_CURVE ( 'NONE', #11, #202, #101, .T. ) ;
#211 = FILL_AREA_STYLE ('',( #115 ) ) ;
#212 = PRESENTATION_STYLE_ASSIGNMENT (( #165 ) ) ;
#213 = AXIS2_PLACEMENT_3D ( 'NONE', #154, #33, #132 ) ;
#214 = COLOUR_RGB ( '',1.000000000000000000, 0.000000000000000000, 0.000000000000000000 ) ;
#215 = ADVANCED_FACE ( 'NONE', ( #173 ), #293, .T. ) ;
#216 = SURFACE_STYLE_USAGE ( .BOTH. , #61 ) ;
#217 = CARTESIAN_POINT ( 'NONE',  ( -0.3125000000000000000, 1.250000000000000000, 0.000000000000000000 ) ) ;
#218 = CARTESIAN_POINT ( 'NONE',  ( 0.000000000000000000, 1.250000000000000000, 0.000000000000000000 ) ) ;
#219 = ORIENTED_EDGE ( 'NONE', *, *, #287, .T. ) ;
#220 = AXIS2_PLACEMENT_3D ( 'NONE', #221, #38, #186 ) ;
#221 = CARTESIAN_POINT ( 'NONE',  ( 1.157222054523036369E-34, 1.250000000000000000, 0.000000000000000000 ) ) ;
#222 = FACE_OUTER_BOUND ( 'NONE', #306, .T. ) ;
#223 = AXIS2_PLACEMENT_3D ( 'NONE', #21, #188, #289 ) ;
#224 = EDGE_CURVE ( 'NONE', #144, #161, #114, .T. ) ;
#225 = LINE ( 'NONE', #105, #32 ) ;
#226 = SURFACE_STYLE_FILL_AREA ( #170 ) ;
#227 = STYLED_ITEM ( 'NONE', ( #16 ), #308 ) ;
#228 = CIRCLE ( 'NONE', #149, 0.3125000000000000000 ) ;
#229 = DIRECTION ( 'NONE',  ( 0.000000000000000000, 0.000000000000000000, -1.000000000000000000 ) ) ;
#230 = ORIENTED_EDGE ( 'NONE', *, *, #74, .T. ) ;
#231 = COLOUR_RGB ( '',0.7921568627450980005, 0.8196078431372548767, 0.9333333333333333481 ) ;
#232 = FILL_AREA_STYLE_COLOUR ( '', #214 ) ;
#233 = EDGE_CURVE ( 'NONE', #5, #142, #228, .T. ) ;
#234 = FACE_OUTER_BOUND ( 'NONE', #18, .T. ) ;
#235 = SURFACE_STYLE_FILL_AREA ( #75 ) ;
#236 = CARTESIAN_POINT ( 'NONE',  ( 0.000000000000000000, 0.000000000000000000, 0.000000000000000000 ) ) ;
#237 = ORIENTED_EDGE ( 'NONE', *, *, #201, .T. ) ;
#238 = PLANE ( 'NONE',  #220 ) ;
#239 =( NAMED_UNIT ( * ) PLANE_ANGLE_UNIT ( ) SI_UNIT ( $, .RADIAN. ) );
#240 = PRODUCT_DEFINITION_CONTEXT ( 'detailed design', #275, 'design' ) ;
#241 = CARTESIAN_POINT ( 'NONE',  ( 0.000000000000000000, 1.250000000000000000, 0.000000000000000000 ) ) ;
#242 = DIRECTION ( 'NONE',  ( -1.000000000000000000, 0.000000000000000000, 0.000000000000000000 ) ) ;
#243 =( LENGTH_UNIT ( ) NAMED_UNIT ( * ) SI_UNIT ( $, .METRE. ) );
#244 = CARTESIAN_POINT ( 'NONE',  ( -0.3125000000000000555, 3.500000000000000000, 0.000000000000000000 ) ) ;
#245 = DIRECTION ( 'NONE',  ( -2.721437331438560697E-17, 1.000000000000000000, -0.000000000000000000 ) ) ;
#246 =( LENGTH_UNIT ( ) NAMED_UNIT ( * ) SI_UNIT ( $, .METRE. ) );
#247 = DIRECTION ( 'NONE',  ( -0.000000000000000000, -1.000000000000000000, -0.000000000000000000 ) ) ;
#248 = DIMENSIONAL_EXPONENTS ( 1.000000000000000000, 0.000000000000000000, 0.000000000000000000, 0.000000000000000000, 0.000000000000000000, 0.000000000000000000, 0.000000000000000000 ) ;
#249 = DIRECTION ( 'NONE',  ( -0.000000000000000000, -1.000000000000000000, -0.000000000000000000 ) ) ;
#250 = ORIENTED_EDGE ( 'NONE', *, *, #176, .F. ) ;
#251 = CARTESIAN_POINT ( 'NONE',  ( 0.3125000000000000000, 3.500000000000000000, 0.000000000000000000 ) ) ;
#252 = DIMENSIONAL_EXPONENTS ( 1.000000000000000000, 0.000000000000000000, 0.000000000000000000, 0.000000000000000000, 0.000000000000000000, 0.000000000000000000, 0.000000000000000000 ) ;
#253 =( CONVERSION_BASED_UNIT ( 'INCH', #258 ) LENGTH_UNIT ( ) NAMED_UNIT ( #130 ) );
#254 = ORIENTED_EDGE ( 'NONE', *, *, #267, .T. ) ;
#255 = EDGE_LOOP ( 'NONE', ( #299, #276 ) ) ;
#256 = CARTESIAN_POINT ( 'NONE',  ( 0.000000000000000000, 1.250000000000000000, 0.000000000000000000 ) ) ;
#257 = ADVANCED_FACE ( 'NONE', ( #129 ), #89, .T. ) ;
#258 = LENGTH_MEASURE_WITH_UNIT ( LENGTH_MEASURE( 0.02539999999999999897 ), #246 );
#259 = STYLED_ITEM ( 'NONE', ( #189 ), #82 ) ;
#260 = LENGTH_MEASURE_WITH_UNIT ( LENGTH_MEASURE( 0.02539999999999999897 ), #262 );
#261 =( NAMED_UNIT ( * ) SI_UNIT ( $, .STERADIAN. ) SOLID_ANGLE_UNIT ( ) );
#262 =( LENGTH_UNIT ( ) NAMED_UNIT ( * ) SI_UNIT ( $, .METRE. ) );
#263 = MECHANICAL_DESIGN_GEOMETRIC_PRESENTATION_REPRESENTATION (  '', ( #46 ), #307 ) ;
#264 = CYLINDRICAL_SURFACE ( 'NONE', #50, 0.3125000000000000000 ) ;
#265 = AXIS2_PLACEMENT_3D ( 'NONE', #236, #278, #65 ) ;
#266 = FILL_AREA_STYLE_COLOUR ( '', #297 ) ;
#267 = EDGE_CURVE ( 'NONE', #202, #11, #35, .T. ) ;
#268 = CIRCLE ( 'NONE', #309, 0.3125000000000000000 ) ;
#269 = DIRECTION ( 'NONE',  ( -0.000000000000000000, -1.000000000000000000, -0.000000000000000000 ) ) ;
#270 = CIRCLE ( 'NONE', #296, 0.3125000000000000000 ) ;
#271 = DIRECTION ( 'NONE',  ( 0.000000000000000000, 0.000000000000000000, -1.000000000000000000 ) ) ;
#272 = EDGE_CURVE ( 'NONE', #161, #144, #139, .T. ) ;
#273 = PLANE ( 'NONE',  #192 ) ;
#274 = DIRECTION ( 'NONE',  ( -0.000000000000000000, -1.000000000000000000, -0.000000000000000000 ) ) ;
#275 = APPLICATION_CONTEXT ( 'automotive_design' ) ;
#276 = ORIENTED_EDGE ( 'NONE', *, *, #201, .F. ) ;
#277 = ORIENTED_EDGE ( 'NONE', *, *, #272, .T. ) ;
#278 = DIRECTION ( 'NONE',  ( -0.000000000000000000, -1.000000000000000000, -0.000000000000000000 ) ) ;
#279 = SURFACE_STYLE_USAGE ( .BOTH. , #14 ) ;
#280 = PRESENTATION_LAYER_ASSIGNMENT (  '', '', ( #174 ) ) ;
#281 = ORIENTED_EDGE ( 'NONE', *, *, #224, .T. ) ;
#282 = COLOUR_RGB ( '',1.000000000000000000, 0.000000000000000000, 0.000000000000000000 ) ;
#283 = SURFACE_SIDE_STYLE ('',( #96 ) ) ;
#284 = DIRECTION ( 'NONE',  ( -2.721437331438560389E-17, 1.000000000000000000, -0.000000000000000000 ) ) ;
#285 =( NAMED_UNIT ( * ) PLANE_ANGLE_UNIT ( ) SI_UNIT ( $, .RADIAN. ) );
#286 = FILL_AREA_STYLE_COLOUR ( '', #231 ) ;
#287 = EDGE_CURVE ( 'NONE', #60, #202, #83, .T. ) ;
#288 = DIRECTION ( 'NONE',  ( -0.000000000000000000, -1.000000000000000000, -0.000000000000000000 ) ) ;
#289 = DIRECTION ( 'NONE',  ( -1.000000000000000000, 0.000000000000000000, 0.000000000000000000 ) ) ;
#290 = ADVANCED_BREP_SHAPE_REPRESENTATION ( '30572W', ( #81, #82, #100 ), #51 ) ;
#291 =( NAMED_UNIT ( * ) PLANE_ANGLE_UNIT ( ) SI_UNIT ( $, .RADIAN. ) );
#292 = PRESENTATION_LAYER_ASSIGNMENT (  '', '', ( #128 ) ) ;
#293 = CYLINDRICAL_SURFACE ( 'NONE', #213, 0.3125000000000000000 ) ;
#294 = MECHANICAL_DESIGN_GEOMETRIC_PRESENTATION_REPRESENTATION (  '', ( #227 ), #120 ) ;
#295 = EDGE_LOOP ( 'NONE', ( #230, #3, #158, #138 ) ) ;
#296 = AXIS2_PLACEMENT_3D ( 'NONE', #218, #284, #242 ) ;
#297 = COLOUR_RGB ( '',0.7921568627450980005, 0.8196078431372548767, 0.9333333333333333481 ) ;
#298 = EDGE_CURVE ( 'NONE', #142, #144, #193, .T. ) ;
#299 = ORIENTED_EDGE ( 'NONE', *, *, #74, .F. ) ;
#300 =( NAMED_UNIT ( * ) SI_UNIT ( $, .STERADIAN. ) SOLID_ANGLE_UNIT ( ) );
#301 = ORIENTED_EDGE ( 'NONE', *, *, #166, .F. ) ;
#302 = DIRECTION ( 'NONE',  ( -1.000000000000000000, 0.000000000000000000, 0.000000000000000000 ) ) ;
#303 = SURFACE_STYLE_USAGE ( .BOTH. , #160 ) ;
#304 = CARTESIAN_POINT ( 'NONE',  ( 0.000000000000000000, 1.250000000000000000, -0.3125000000000000000 ) ) ;
#305 =( NAMED_UNIT ( * ) SI_UNIT ( $, .STERADIAN. ) SOLID_ANGLE_UNIT ( ) );
#306 = EDGE_LOOP ( 'NONE', ( #205, #111, #47, #55 ) ) ;
#307 =( GEOMETRIC_REPRESENTATION_CONTEXT ( 3 ) GLOBAL_UNCERTAINTY_ASSIGNED_CONTEXT ( ( #155 ) ) GLOBAL_UNIT_ASSIGNED_CONTEXT ( ( #253, #291, #200 ) ) REPRESENTATION_CONTEXT ( 'NONE', 'WORKASPACE' ) );
#308 = ADVANCED_FACE ( 'NONE', ( #7 ), #135, .T. ) ;
#309 = AXIS2_PLACEMENT_3D ( 'NONE', #69, #146, #45 ) ;
ENDSEC;
END-ISO-10303-21;
