ISO-10303-21;
HEADER;
FILE_DESCRIPTION (( 'STEP AP214' ),
    '1' );
FILE_NAME ('00480.STEP',
    '2023-06-22T14:09:11',
    ( '' ),
    ( '' ),
    'SwSTEP 2.0',
    'SolidWorks 2023',
    '' );
FILE_SCHEMA (( 'AUTOMOTIVE_DESIGN' ));
ENDSEC;

DATA;
#1 = DIRECTION ( 'NONE',  ( 0.000000000000000000, 0.000000000000000000, -1.000000000000000000 ) ) ;
#2 = EDGE_LOOP ( 'NONE', ( #120, #11, #83, #99 ) ) ;
#3 = VERTEX_POINT ( 'NONE', #242 ) ;
#4 = DIMENSIONAL_EXPONENTS ( 1.000000000000000000, 0.000000000000000000, 0.000000000000000000, 0.000000000000000000, 0.000000000000000000, 0.000000000000000000, 0.000000000000000000 ) ;
#5 = AXIS2_PLACEMENT_3D ( 'NONE', #231, #25, #1 ) ;
#6 = CARTESIAN_POINT ( 'NONE',  ( -1.224646799147352714E-16, 4.000000000000000000, 0.000000000000000000 ) ) ;
#7 = SURFACE_STYLE_FILL_AREA ( #173 ) ;
#8 = ADVANCED_FACE ( 'NONE', ( #264 ), #79, .T. ) ;
#9 = DIRECTION ( 'NONE',  ( -0.000000000000000000, -1.000000000000000000, -0.000000000000000000 ) ) ;
#10 = EDGE_LOOP ( 'NONE', ( #291, #119 ) ) ;
#11 = ORIENTED_EDGE ( 'NONE', *, *, #140, .T. ) ;
#12 = AXIS2_PLACEMENT_3D ( 'NONE', #237, #9, #290 ) ;
#13 = SURFACE_STYLE_FILL_AREA ( #270 ) ;
#14 = SURFACE_STYLE_USAGE ( .BOTH. , #69 ) ;
#15 = AXIS2_PLACEMENT_3D ( 'NONE', #255, #142, #263 ) ;
#16 =( LENGTH_UNIT ( ) NAMED_UNIT ( * ) SI_UNIT ( $, .METRE. ) );
#17 = ADVANCED_FACE ( 'NONE', ( #110 ), #296, .T. ) ;
#18 = FILL_AREA_STYLE_COLOUR ( '', #250 ) ;
#19 = AXIS2_PLACEMENT_3D ( 'NONE', #113, #210, #47 ) ;
#20 = PRODUCT_DEFINITION_CONTEXT ( 'detailed design', #161, 'design' ) ;
#21 = AXIS2_PLACEMENT_3D ( 'NONE', #248, #109, #301 ) ;
#22 = SURFACE_STYLE_USAGE ( .BOTH. , #227 ) ;
#23 =( NAMED_UNIT ( * ) PLANE_ANGLE_UNIT ( ) SI_UNIT ( $, .RADIAN. ) );
#24 = EDGE_CURVE ( 'NONE', #185, #219, #249, .T. ) ;
#25 = DIRECTION ( 'NONE',  ( -0.000000000000000000, -1.000000000000000000, -0.000000000000000000 ) ) ;
#26 = ORIENTED_EDGE ( 'NONE', *, *, #44, .F. ) ;
#27 = MANIFOLD_SOLID_BREP ( 'Revolve - Tool Body (Straight Shanked)', #257 ) ;
#28 = FILL_AREA_STYLE ('',( #213 ) ) ;
#29 = ORIENTED_EDGE ( 'NONE', *, *, #70, .T. ) ;
#30 = CARTESIAN_POINT ( 'NONE',  ( 3.061616997868383018E-17, 0.000000000000000000, 0.2500000000000000000 ) ) ;
#31 = ADVANCED_FACE ( 'NONE', ( #131 ), #200, .T. ) ;
#32 = MECHANICAL_DESIGN_GEOMETRIC_PRESENTATION_REPRESENTATION (  '', ( #272 ), #204 ) ;
#33 =( CONVERSION_BASED_UNIT ( 'INCH', #60 ) LENGTH_UNIT ( ) NAMED_UNIT ( #58 ) );
#34 = MECHANICAL_DESIGN_GEOMETRIC_PRESENTATION_REPRESENTATION (  '', ( #45 ), #261 ) ;
#35 = DIMENSIONAL_EXPONENTS ( 1.000000000000000000, 0.000000000000000000, 0.000000000000000000, 0.000000000000000000, 0.000000000000000000, 0.000000000000000000, 0.000000000000000000 ) ;
#36 = DIRECTION ( 'NONE',  ( -1.000000000000000000, 0.000000000000000000, 0.000000000000000000 ) ) ;
#37 = SURFACE_SIDE_STYLE ('',( #7 ) ) ;
#38 = DIMENSIONAL_EXPONENTS ( 1.000000000000000000, 0.000000000000000000, 0.000000000000000000, 0.000000000000000000, 0.000000000000000000, 0.000000000000000000, 0.000000000000000000 ) ;
#39 = FILL_AREA_STYLE ('',( #199 ) ) ;
#40 = DIMENSIONAL_EXPONENTS ( 1.000000000000000000, 0.000000000000000000, 0.000000000000000000, 0.000000000000000000, 0.000000000000000000, 0.000000000000000000, 0.000000000000000000 ) ;
#41 = STYLED_ITEM ( 'NONE', ( #236 ), #228 ) ;
#42 = DIRECTION ( 'NONE',  ( -5.156407575357275299E-17, 1.000000000000000000, -0.000000000000000000 ) ) ;
#43 = LENGTH_MEASURE_WITH_UNIT ( LENGTH_MEASURE( 0.02539999999999999897 ), #274 );
#44 = EDGE_CURVE ( 'NONE', #217, #3, #90, .T. ) ;
#45 = STYLED_ITEM ( 'NONE', ( #71 ), #31 ) ;
#46 = FACE_OUTER_BOUND ( 'NONE', #194, .T. ) ;
#47 = DIRECTION ( 'NONE',  ( 0.000000000000000000, 0.000000000000000000, -1.000000000000000000 ) ) ;
#48 = CARTESIAN_POINT ( 'NONE',  ( -0.2500000000000002220, 4.000000000000000000, 0.000000000000000000 ) ) ;
#49 = VECTOR ( 'NONE', #137, 39.37007874015748143 ) ;
#50 = PRESENTATION_STYLE_ASSIGNMENT (( #22 ) ) ;
#51 = CARTESIAN_POINT ( 'NONE',  ( -1.224646799147352714E-16, 4.000000000000000000, 0.000000000000000000 ) ) ;
#52 = AXIS2_PLACEMENT_3D ( 'NONE', #54, #276, #89 ) ;
#53 = AXIS2_PLACEMENT_3D ( 'NONE', #135, #42, #92 ) ;
#54 = CARTESIAN_POINT ( 'NONE',  ( 0.000000000000000000, 0.000000000000000000, 0.000000000000000000 ) ) ;
#55 =( NAMED_UNIT ( * ) SI_UNIT ( $, .STERADIAN. ) SOLID_ANGLE_UNIT ( ) );
#56 = APPLICATION_CONTEXT ( 'automotive_design' ) ;
#57 = DIRECTION ( 'NONE',  ( -5.156407575357275299E-17, 1.000000000000000000, -0.000000000000000000 ) ) ;
#58 = DIMENSIONAL_EXPONENTS ( 1.000000000000000000, 0.000000000000000000, 0.000000000000000000, 0.000000000000000000, 0.000000000000000000, 0.000000000000000000, 0.000000000000000000 ) ;
#59 = DIRECTION ( 'NONE',  ( -1.000000000000000000, 0.000000000000000000, 0.000000000000000000 ) ) ;
#60 = LENGTH_MEASURE_WITH_UNIT ( LENGTH_MEASURE( 0.02539999999999999897 ), #105 );
#61 = UNCERTAINTY_MEASURE_WITH_UNIT (LENGTH_MEASURE( 1.000000000000000082E-05 ), #33, 'distance_accuracy_value', 'NONE');
#62 = DIRECTION ( 'NONE',  ( -5.156407575357275299E-17, 1.000000000000000000, -0.000000000000000000 ) ) ;
#63 = ORIENTED_EDGE ( 'NONE', *, *, #24, .F. ) ;
#64 = CARTESIAN_POINT ( 'NONE',  ( 0.000000000000000000, 0.000000000000000000, 0.000000000000000000 ) ) ;
#65 = ADVANCED_FACE ( 'NONE', ( #208 ), #162, .T. ) ;
#66 = SURFACE_SIDE_STYLE ('',( #275 ) ) ;
#67 = APPLICATION_PROTOCOL_DEFINITION ( 'draft international standard', 'automotive_design', 1998, #56 ) ;
#68 = AXIS2_PLACEMENT_3D ( 'NONE', #6, #62, #147 ) ;
#69 = SURFACE_SIDE_STYLE ('',( #13 ) ) ;
#70 = EDGE_CURVE ( 'NONE', #152, #293, #144, .T. ) ;
#71 = PRESENTATION_STYLE_ASSIGNMENT (( #14 ) ) ;
#72 =( LENGTH_UNIT ( ) NAMED_UNIT ( * ) SI_UNIT ( $, .METRE. ) );
#73 = PRESENTATION_LAYER_ASSIGNMENT (  '', '', ( #96 ) ) ;
#74 = FILL_AREA_STYLE_COLOUR ( '', #303 ) ;
#75 = SURFACE_STYLE_USAGE ( .BOTH. , #184 ) ;
#76 = CARTESIAN_POINT ( 'NONE',  ( 3.323567385400236968E-34, 1.625000000000000000, 0.000000000000000000 ) ) ;
#77 =( NAMED_UNIT ( * ) PLANE_ANGLE_UNIT ( ) SI_UNIT ( $, .RADIAN. ) );
#78 = CIRCLE ( 'NONE', #12, 0.2500000000000000000 ) ;
#79 = PLANE ( 'NONE',  #21 ) ;
#80 = DIRECTION ( 'NONE',  ( -5.156407575357275299E-17, 1.000000000000000000, -0.000000000000000000 ) ) ;
#81 = VERTEX_POINT ( 'NONE', #163 ) ;
#82 = SURFACE_STYLE_FILL_AREA ( #28 ) ;
#83 = ORIENTED_EDGE ( 'NONE', *, *, #44, .T. ) ;
#84 = UNCERTAINTY_MEASURE_WITH_UNIT (LENGTH_MEASURE( 1.000000000000000082E-05 ), #136, 'distance_accuracy_value', 'NONE');
#85 = ADVANCED_FACE ( 'NONE', ( #46 ), #115, .T. ) ;
#86 = ORIENTED_EDGE ( 'NONE', *, *, #225, .F. ) ;
#87 = PRODUCT_CONTEXT ( 'NONE', #56, 'mechanical' ) ;
#88 = ADVANCED_BREP_SHAPE_REPRESENTATION ( '00480', ( #228, #27, #216 ), #220 ) ;
#89 = DIRECTION ( 'NONE',  ( 0.000000000000000000, 0.000000000000000000, -1.000000000000000000 ) ) ;
#90 = LINE ( 'NONE', #283, #190 ) ;
#91 =( CONVERSION_BASED_UNIT ( 'INCH', #299 ) LENGTH_UNIT ( ) NAMED_UNIT ( #35 ) );
#92 = DIRECTION ( 'NONE',  ( -1.000000000000000000, 0.000000000000000000, 0.000000000000000000 ) ) ;
#93 = CIRCLE ( 'NONE', #52, 0.2500000000000000000 ) ;
#94 = PRODUCT_RELATED_PRODUCT_CATEGORY ( 'part', '', ( #175 ) ) ;
#95 = FILL_AREA_STYLE ('',( #74 ) ) ;
#96 = STYLED_ITEM ( 'NONE', ( #150 ), #8 ) ;
#97 = DIRECTION ( 'NONE',  ( -5.156407575357275916E-17, 1.000000000000000000, 0.000000000000000000 ) ) ;
#98 = DIRECTION ( 'NONE',  ( -5.156407575357275299E-17, 1.000000000000000000, -0.000000000000000000 ) ) ;
#99 = ORIENTED_EDGE ( 'NONE', *, *, #297, .F. ) ;
#100 = ORIENTED_EDGE ( 'NONE', *, *, #70, .F. ) ;
#101 = PLANE ( 'NONE',  #182 ) ;
#102 = EDGE_LOOP ( 'NONE', ( #86, #269 ) ) ;
#103 = CARTESIAN_POINT ( 'NONE',  ( 0.2500000000000000555, 1.625000000000000000, 3.061616997868384251E-17 ) ) ;
#104 = EDGE_LOOP ( 'NONE', ( #238, #122, #192, #100 ) ) ;
#105 =( LENGTH_UNIT ( ) NAMED_UNIT ( * ) SI_UNIT ( $, .METRE. ) );
#106 = AXIS2_PLACEMENT_3D ( 'NONE', #265, #98, #59 ) ;
#107 =( NAMED_UNIT ( * ) SI_UNIT ( $, .STERADIAN. ) SOLID_ANGLE_UNIT ( ) );
#108 =( NAMED_UNIT ( * ) PLANE_ANGLE_UNIT ( ) SI_UNIT ( $, .RADIAN. ) );
#109 = DIRECTION ( 'NONE',  ( 0.000000000000000000, 1.000000000000000000, 0.000000000000000000 ) ) ;
#110 = FACE_OUTER_BOUND ( 'NONE', #154, .T. ) ;
#111 = ADVANCED_FACE ( 'NONE', ( #179 ), #280, .T. ) ;
#112 = CIRCLE ( 'NONE', #106, 0.2500000000000001110 ) ;
#113 = CARTESIAN_POINT ( 'NONE',  ( 0.000000000000000000, 0.000000000000000000, 0.000000000000000000 ) ) ;
#114 =( NAMED_UNIT ( * ) SI_UNIT ( $, .STERADIAN. ) SOLID_ANGLE_UNIT ( ) );
#115 = CYLINDRICAL_SURFACE ( 'NONE', #19, 0.2500000000000000000 ) ;
#116 = STYLED_ITEM ( 'NONE', ( #277 ), #111 ) ;
#117 = COLOUR_RGB ( '',1.000000000000000000, 0.000000000000000000, 0.000000000000000000 ) ;
#118 = DIRECTION ( 'NONE',  ( -1.000000000000000000, 0.000000000000000000, 0.000000000000000000 ) ) ;
#119 = ORIENTED_EDGE ( 'NONE', *, *, #297, .T. ) ;
#120 = ORIENTED_EDGE ( 'NONE', *, *, #133, .F. ) ;
#121 = FACE_OUTER_BOUND ( 'NONE', #214, .T. ) ;
#122 = ORIENTED_EDGE ( 'NONE', *, *, #24, .T. ) ;
#123 = COLOUR_RGB ( '',1.000000000000000000, 0.000000000000000000, 0.000000000000000000 ) ;
#124 = DIRECTION ( 'NONE',  ( -0.000000000000000000, -1.000000000000000000, -0.000000000000000000 ) ) ;
#125 = ORIENTED_EDGE ( 'NONE', *, *, #151, .F. ) ;
#126 = LENGTH_MEASURE_WITH_UNIT ( LENGTH_MEASURE( 0.02539999999999999897 ), #259 );
#127 = ORIENTED_EDGE ( 'NONE', *, *, #158, .F. ) ;
#128 = AXIS2_PLACEMENT_3D ( 'NONE', #51, #258, #181 ) ;
#129 = UNCERTAINTY_MEASURE_WITH_UNIT (LENGTH_MEASURE( 1.000000000000000082E-05 ), #178, 'distance_accuracy_value', 'NONE');
#130 =( GEOMETRIC_REPRESENTATION_CONTEXT ( 3 ) GLOBAL_UNCERTAINTY_ASSIGNED_CONTEXT ( ( #61 ) ) GLOBAL_UNIT_ASSIGNED_CONTEXT ( ( #33, #77, #55 ) ) REPRESENTATION_CONTEXT ( 'NONE', 'WORKASPACE' ) );
#131 = FACE_OUTER_BOUND ( 'NONE', #10, .T. ) ;
#132 = DIRECTION ( 'NONE',  ( 0.000000000000000000, 0.000000000000000000, 1.000000000000000000 ) ) ;
#133 = EDGE_CURVE ( 'NONE', #81, #233, #153, .T. ) ;
#134 =( NAMED_UNIT ( * ) PLANE_ANGLE_UNIT ( ) SI_UNIT ( $, .RADIAN. ) );
#135 = CARTESIAN_POINT ( 'NONE',  ( -1.224646799147352714E-16, 4.000000000000000000, 0.000000000000000000 ) ) ;
#136 =( CONVERSION_BASED_UNIT ( 'INCH', #43 ) LENGTH_UNIT ( ) NAMED_UNIT ( #38 ) );
#137 = DIRECTION ( 'NONE',  ( -5.156407575357275916E-17, 1.000000000000000000, -0.000000000000000000 ) ) ;
#138 = ADVANCED_FACE ( 'NONE', ( #267 ), #101, .F. ) ;
#139 =( GEOMETRIC_REPRESENTATION_CONTEXT ( 3 ) GLOBAL_UNCERTAINTY_ASSIGNED_CONTEXT ( ( #202 ) ) GLOBAL_UNIT_ASSIGNED_CONTEXT ( ( #149, #183, #284 ) ) REPRESENTATION_CONTEXT ( 'NONE', 'WORKASPACE' ) );
#140 = EDGE_CURVE ( 'NONE', #81, #217, #157, .T. ) ;
#141 = COLOUR_RGB ( '',0.7921568627450980005, 0.8196078431372548767, 0.9333333333333333481 ) ;
#142 = DIRECTION ( 'NONE',  ( -0.000000000000000000, -1.000000000000000000, -0.000000000000000000 ) ) ;
#143 = SURFACE_STYLE_FILL_AREA ( #95 ) ;
#144 = LINE ( 'NONE', #48, #254 ) ;
#145 = CARTESIAN_POINT ( 'NONE',  ( 0.2500000000000000000, 4.000000000000000000, 0.000000000000000000 ) ) ;
#146 = CIRCLE ( 'NONE', #68, 0.2500000000000001110 ) ;
#147 = DIRECTION ( 'NONE',  ( -1.000000000000000000, 0.000000000000000000, 0.000000000000000000 ) ) ;
#148 = FILL_AREA_STYLE_COLOUR ( '', #117 ) ;
#149 =( CONVERSION_BASED_UNIT ( 'INCH', #126 ) LENGTH_UNIT ( ) NAMED_UNIT ( #241 ) );
#150 = PRESENTATION_STYLE_ASSIGNMENT (( #266 ) ) ;
#151 = EDGE_CURVE ( 'NONE', #3, #233, #78, .T. ) ;
#152 = VERTEX_POINT ( 'NONE', #186 ) ;
#153 = LINE ( 'NONE', #170, #278 ) ;
#154 = EDGE_LOOP ( 'NONE', ( #63, #188, #29, #127 ) ) ;
#155 = CARTESIAN_POINT ( 'NONE',  ( 0.2499999999999999167, 4.000000000000000000, 3.061616997868383634E-17 ) ) ;
#156 = DIRECTION ( 'NONE',  ( 0.000000000000000000, 0.000000000000000000, -1.000000000000000000 ) ) ;
#157 = CIRCLE ( 'NONE', #187, 0.2500000000000000000 ) ;
#158 = EDGE_CURVE ( 'NONE', #219, #293, #146, .T. ) ;
#159 =( LENGTH_UNIT ( ) NAMED_UNIT ( * ) SI_UNIT ( $, .METRE. ) );
#160 =( NAMED_UNIT ( * ) PLANE_ANGLE_UNIT ( ) SI_UNIT ( $, .RADIAN. ) );
#161 = APPLICATION_CONTEXT ( 'automotive_design' ) ;
#162 = CYLINDRICAL_SURFACE ( 'NONE', #128, 0.2500000000000000555 ) ;
#163 = CARTESIAN_POINT ( 'NONE',  ( 3.061616997868383018E-17, 1.625000000000000000, 0.2500000000000000000 ) ) ;
#164 = LENGTH_MEASURE_WITH_UNIT ( LENGTH_MEASURE( 0.02539999999999999897 ), #309 );
#165 = DIRECTION ( 'NONE',  ( -0.000000000000000000, -1.000000000000000000, -0.000000000000000000 ) ) ;
#166 = CIRCLE ( 'NONE', #230, 0.2500000000000000000 ) ;
#167 = ORIENTED_EDGE ( 'NONE', *, *, #140, .F. ) ;
#168 = DIRECTION ( 'NONE',  ( 1.000000000000000000, 5.156407575357275916E-17, 0.000000000000000000 ) ) ;
#169 = ORIENTED_EDGE ( 'NONE', *, *, #158, .T. ) ;
#170 = CARTESIAN_POINT ( 'NONE',  ( 3.061616997868383018E-17, 0.000000000000000000, 0.2500000000000000000 ) ) ;
#171 = EDGE_LOOP ( 'NONE', ( #295, #167 ) ) ;
#172 =( GEOMETRIC_REPRESENTATION_CONTEXT ( 3 ) GLOBAL_UNCERTAINTY_ASSIGNED_CONTEXT ( ( #129 ) ) GLOBAL_UNIT_ASSIGNED_CONTEXT ( ( #178, #108, #201 ) ) REPRESENTATION_CONTEXT ( 'NONE', 'WORKASPACE' ) );
#173 = FILL_AREA_STYLE ('',( #148 ) ) ;
#174 = PRESENTATION_LAYER_ASSIGNMENT (  '', '', ( #272 ) ) ;
#175 = PRODUCT ( '00480', '00480', '', ( #87 ) ) ;
#176 = FILL_AREA_STYLE_COLOUR ( '', #123 ) ;
#177 = APPLICATION_PROTOCOL_DEFINITION ( 'draft international standard', 'automotive_design', 1998, #161 ) ;
#178 =( CONVERSION_BASED_UNIT ( 'INCH', #224 ) LENGTH_UNIT ( ) NAMED_UNIT ( #221 ) );
#179 = FACE_OUTER_BOUND ( 'NONE', #2, .T. ) ;
#180 = SURFACE_SIDE_STYLE ('',( #251 ) ) ;
#181 = DIRECTION ( 'NONE',  ( -1.000000000000000000, 0.000000000000000000, 0.000000000000000000 ) ) ;
#182 = AXIS2_PLACEMENT_3D ( 'NONE', #76, #97, #193 ) ;
#183 =( NAMED_UNIT ( * ) PLANE_ANGLE_UNIT ( ) SI_UNIT ( $, .RADIAN. ) );
#184 = SURFACE_SIDE_STYLE ('',( #82 ) ) ;
#185 = VERTEX_POINT ( 'NONE', #103 ) ;
#186 = CARTESIAN_POINT ( 'NONE',  ( -0.2500000000000000000, 1.625000000000000000, 0.000000000000000000 ) ) ;
#187 = AXIS2_PLACEMENT_3D ( 'NONE', #240, #165, #218 ) ;
#188 = ORIENTED_EDGE ( 'NONE', *, *, #252, .T. ) ;
#189 = MECHANICAL_DESIGN_GEOMETRIC_PRESENTATION_REPRESENTATION (  '', ( #246 ), #172 ) ;
#190 = VECTOR ( 'NONE', #203, 39.37007874015748143 ) ;
#191 = DIRECTION ( 'NONE',  ( 5.156407575357275916E-17, -1.000000000000000000, 0.000000000000000000 ) ) ;
#192 = ORIENTED_EDGE ( 'NONE', *, *, #281, .F. ) ;
#193 = DIRECTION ( 'NONE',  ( -1.000000000000000000, -5.156407575357275916E-17, 0.000000000000000000 ) ) ;
#194 = EDGE_LOOP ( 'NONE', ( #289, #286, #125, #26 ) ) ;
#195 = UNCERTAINTY_MEASURE_WITH_UNIT (LENGTH_MEASURE( 1.000000000000000082E-05 ), #279, 'distance_accuracy_value', 'NONE');
#196 = CARTESIAN_POINT ( 'NONE',  ( 0.000000000000000000, 0.000000000000000000, 0.000000000000000000 ) ) ;
#197 = MECHANICAL_DESIGN_GEOMETRIC_PRESENTATION_REPRESENTATION (  '', ( #41 ), #139 ) ;
#198 = PRODUCT_DEFINITION ( 'UNKNOWN', '', #256, #20 ) ;
#199 = FILL_AREA_STYLE_COLOUR ( '', #232 ) ;
#200 = PLANE ( 'NONE',  #207 ) ;
#201 =( NAMED_UNIT ( * ) SI_UNIT ( $, .STERADIAN. ) SOLID_ANGLE_UNIT ( ) );
#202 = UNCERTAINTY_MEASURE_WITH_UNIT (LENGTH_MEASURE( 1.000000000000000082E-05 ), #149, 'distance_accuracy_value', 'NONE');
#203 = DIRECTION ( 'NONE',  ( -0.000000000000000000, -1.000000000000000000, -0.000000000000000000 ) ) ;
#204 =( GEOMETRIC_REPRESENTATION_CONTEXT ( 3 ) GLOBAL_UNCERTAINTY_ASSIGNED_CONTEXT ( ( #195 ) ) GLOBAL_UNIT_ASSIGNED_CONTEXT ( ( #279, #23, #114 ) ) REPRESENTATION_CONTEXT ( 'NONE', 'WORKASPACE' ) );
#205 = PRESENTATION_LAYER_ASSIGNMENT (  '', '', ( #246 ) ) ;
#206 = FILL_AREA_STYLE ('',( #18 ) ) ;
#207 = AXIS2_PLACEMENT_3D ( 'NONE', #64, #244, #156 ) ;
#208 = FACE_OUTER_BOUND ( 'NONE', #104, .T. ) ;
#209 = AXIS2_PLACEMENT_3D ( 'NONE', #211, #80, #118 ) ;
#210 = DIRECTION ( 'NONE',  ( -0.000000000000000000, -1.000000000000000000, -0.000000000000000000 ) ) ;
#211 = CARTESIAN_POINT ( 'NONE',  ( 3.032960542342103792E-32, 1.625000000000000000, 0.000000000000000000 ) ) ;
#212 = ORIENTED_EDGE ( 'NONE', *, *, #281, .T. ) ;
#213 = FILL_AREA_STYLE_COLOUR ( '', #141 ) ;
#214 = EDGE_LOOP ( 'NONE', ( #212, #169 ) ) ;
#215 = PLANE ( 'NONE',  #245 ) ;
#216 = AXIS2_PLACEMENT_3D ( 'NONE', #196, #132, #243 ) ;
#217 = VERTEX_POINT ( 'NONE', #234 ) ;
#218 = DIRECTION ( 'NONE',  ( 0.000000000000000000, 0.000000000000000000, -1.000000000000000000 ) ) ;
#219 = VERTEX_POINT ( 'NONE', #292 ) ;
#220 =( GEOMETRIC_REPRESENTATION_CONTEXT ( 3 ) GLOBAL_UNCERTAINTY_ASSIGNED_CONTEXT ( ( #84 ) ) GLOBAL_UNIT_ASSIGNED_CONTEXT ( ( #136, #134, #107 ) ) REPRESENTATION_CONTEXT ( 'NONE', 'WORKASPACE' ) );
#221 = DIMENSIONAL_EXPONENTS ( 1.000000000000000000, 0.000000000000000000, 0.000000000000000000, 0.000000000000000000, 0.000000000000000000, 0.000000000000000000, 0.000000000000000000 ) ;
#222 = PRESENTATION_STYLE_ASSIGNMENT (( #302 ) ) ;
#223 = CIRCLE ( 'NONE', #209, 0.2500000000000000000 ) ;
#224 = LENGTH_MEASURE_WITH_UNIT ( LENGTH_MEASURE( 0.02539999999999999897 ), #16 );
#225 = EDGE_CURVE ( 'NONE', #152, #185, #166, .T. ) ;
#226 =( GEOMETRIC_REPRESENTATION_CONTEXT ( 3 ) GLOBAL_UNCERTAINTY_ASSIGNED_CONTEXT ( ( #273 ) ) GLOBAL_UNIT_ASSIGNED_CONTEXT ( ( #282, #308, #307 ) ) REPRESENTATION_CONTEXT ( 'NONE', 'WORKASPACE' ) );
#227 = SURFACE_SIDE_STYLE ('',( #143 ) ) ;
#228 = MANIFOLD_SOLID_BREP ( 'Revolve - Cutting Edge', #306 ) ;
#229 = DIRECTION ( 'NONE',  ( -5.156407575357275916E-17, 1.000000000000000000, -0.000000000000000000 ) ) ;
#230 = AXIS2_PLACEMENT_3D ( 'NONE', #288, #57, #36 ) ;
#231 = CARTESIAN_POINT ( 'NONE',  ( 0.000000000000000000, 1.625000000000000000, 0.000000000000000000 ) ) ;
#232 = COLOUR_RGB ( '',0.7921568627450980005, 0.8196078431372548767, 0.9333333333333333481 ) ;
#233 = VERTEX_POINT ( 'NONE', #30 ) ;
#234 = CARTESIAN_POINT ( 'NONE',  ( 0.000000000000000000, 1.625000000000000000, -0.2500000000000000000 ) ) ;
#235 = ADVANCED_FACE ( 'NONE', ( #121 ), #215, .F. ) ;
#236 = PRESENTATION_STYLE_ASSIGNMENT (( #75 ) ) ;
#237 = CARTESIAN_POINT ( 'NONE',  ( 0.000000000000000000, 0.000000000000000000, 0.000000000000000000 ) ) ;
#238 = ORIENTED_EDGE ( 'NONE', *, *, #225, .T. ) ;
#239 = UNCERTAINTY_MEASURE_WITH_UNIT (LENGTH_MEASURE( 1.000000000000000082E-05 ), #91, 'distance_accuracy_value', 'NONE');
#240 = CARTESIAN_POINT ( 'NONE',  ( 0.000000000000000000, 1.625000000000000000, 0.000000000000000000 ) ) ;
#241 = DIMENSIONAL_EXPONENTS ( 1.000000000000000000, 0.000000000000000000, 0.000000000000000000, 0.000000000000000000, 0.000000000000000000, 0.000000000000000000, 0.000000000000000000 ) ;
#242 = CARTESIAN_POINT ( 'NONE',  ( 0.000000000000000000, 0.000000000000000000, -0.2500000000000000000 ) ) ;
#243 = DIRECTION ( 'NONE',  ( 1.000000000000000000, 0.000000000000000000, 0.000000000000000000 ) ) ;
#244 = DIRECTION ( 'NONE',  ( 0.000000000000000000, -1.000000000000000000, -0.000000000000000000 ) ) ;
#245 = AXIS2_PLACEMENT_3D ( 'NONE', #145, #191, #168 ) ;
#246 = STYLED_ITEM ( 'NONE', ( #222 ), #27 ) ;
#247 = SHAPE_DEFINITION_REPRESENTATION ( #262, #88 ) ;
#248 = CARTESIAN_POINT ( 'NONE',  ( 0.000000000000000000, 1.625000000000000000, 0.000000000000000000 ) ) ;
#249 = LINE ( 'NONE', #155, #49 ) ;
#250 = COLOUR_RGB ( '',1.000000000000000000, 0.000000000000000000, 0.000000000000000000 ) ;
#251 = SURFACE_STYLE_FILL_AREA ( #206 ) ;
#252 = EDGE_CURVE ( 'NONE', #185, #152, #223, .T. ) ;
#253 = SURFACE_STYLE_USAGE ( .BOTH. , #180 ) ;
#254 = VECTOR ( 'NONE', #229, 39.37007874015748143 ) ;
#255 = CARTESIAN_POINT ( 'NONE',  ( 0.000000000000000000, 0.000000000000000000, 0.000000000000000000 ) ) ;
#256 = PRODUCT_DEFINITION_FORMATION_WITH_SPECIFIED_SOURCE ( 'ANY', '', #175, .NOT_KNOWN. ) ;
#257 = CLOSED_SHELL ( 'NONE', ( #65, #138, #17, #235 ) ) ;
#258 = DIRECTION ( 'NONE',  ( -5.156407575357275299E-17, 1.000000000000000000, -0.000000000000000000 ) ) ;
#259 =( LENGTH_UNIT ( ) NAMED_UNIT ( * ) SI_UNIT ( $, .METRE. ) );
#260 = MECHANICAL_DESIGN_GEOMETRIC_PRESENTATION_REPRESENTATION (  '', ( #96 ), #130 ) ;
#261 =( GEOMETRIC_REPRESENTATION_CONTEXT ( 3 ) GLOBAL_UNCERTAINTY_ASSIGNED_CONTEXT ( ( #239 ) ) GLOBAL_UNIT_ASSIGNED_CONTEXT ( ( #91, #160, #271 ) ) REPRESENTATION_CONTEXT ( 'NONE', 'WORKASPACE' ) );
#262 = PRODUCT_DEFINITION_SHAPE ( 'NONE', 'NONE',  #198 ) ;
#263 = DIRECTION ( 'NONE',  ( 0.000000000000000000, 0.000000000000000000, -1.000000000000000000 ) ) ;
#264 = FACE_OUTER_BOUND ( 'NONE', #171, .T. ) ;
#265 = CARTESIAN_POINT ( 'NONE',  ( -1.224646799147352714E-16, 4.000000000000000000, 0.000000000000000000 ) ) ;
#266 = SURFACE_STYLE_USAGE ( .BOTH. , #37 ) ;
#267 = FACE_OUTER_BOUND ( 'NONE', #102, .T. ) ;
#268 = EDGE_CURVE ( 'NONE', #217, #81, #287, .T. ) ;
#269 = ORIENTED_EDGE ( 'NONE', *, *, #252, .F. ) ;
#270 = FILL_AREA_STYLE ('',( #176 ) ) ;
#271 =( NAMED_UNIT ( * ) SI_UNIT ( $, .STERADIAN. ) SOLID_ANGLE_UNIT ( ) );
#272 = STYLED_ITEM ( 'NONE', ( #50 ), #85 ) ;
#273 = UNCERTAINTY_MEASURE_WITH_UNIT (LENGTH_MEASURE( 1.000000000000000082E-05 ), #282, 'distance_accuracy_value', 'NONE');
#274 =( LENGTH_UNIT ( ) NAMED_UNIT ( * ) SI_UNIT ( $, .METRE. ) );
#275 = SURFACE_STYLE_FILL_AREA ( #39 ) ;
#276 = DIRECTION ( 'NONE',  ( -0.000000000000000000, -1.000000000000000000, -0.000000000000000000 ) ) ;
#277 = PRESENTATION_STYLE_ASSIGNMENT (( #253 ) ) ;
#278 = VECTOR ( 'NONE', #124, 39.37007874015748143 ) ;
#279 =( CONVERSION_BASED_UNIT ( 'INCH', #164 ) LENGTH_UNIT ( ) NAMED_UNIT ( #40 ) );
#280 = CYLINDRICAL_SURFACE ( 'NONE', #15, 0.2500000000000000000 ) ;
#281 = EDGE_CURVE ( 'NONE', #293, #219, #112, .T. ) ;
#282 =( CONVERSION_BASED_UNIT ( 'INCH', #304 ) LENGTH_UNIT ( ) NAMED_UNIT ( #4 ) );
#283 = CARTESIAN_POINT ( 'NONE',  ( 0.000000000000000000, 0.000000000000000000, -0.2500000000000000000 ) ) ;
#284 =( NAMED_UNIT ( * ) SI_UNIT ( $, .STERADIAN. ) SOLID_ANGLE_UNIT ( ) );
#285 = CARTESIAN_POINT ( 'NONE',  ( -0.2500000000000002776, 4.000000000000000000, 0.000000000000000000 ) ) ;
#286 = ORIENTED_EDGE ( 'NONE', *, *, #133, .T. ) ;
#287 = CIRCLE ( 'NONE', #5, 0.2500000000000000000 ) ;
#288 = CARTESIAN_POINT ( 'NONE',  ( 3.032960542342103792E-32, 1.625000000000000000, 0.000000000000000000 ) ) ;
#289 = ORIENTED_EDGE ( 'NONE', *, *, #268, .T. ) ;
#290 = DIRECTION ( 'NONE',  ( 0.000000000000000000, 0.000000000000000000, -1.000000000000000000 ) ) ;
#291 = ORIENTED_EDGE ( 'NONE', *, *, #151, .T. ) ;
#292 = CARTESIAN_POINT ( 'NONE',  ( 0.2500000000000000555, 4.000000000000000000, 3.061616997868384251E-17 ) ) ;
#293 = VERTEX_POINT ( 'NONE', #285 ) ;
#294 = MECHANICAL_DESIGN_GEOMETRIC_PRESENTATION_REPRESENTATION (  '', ( #116 ), #226 ) ;
#295 = ORIENTED_EDGE ( 'NONE', *, *, #268, .F. ) ;
#296 = CYLINDRICAL_SURFACE ( 'NONE', #53, 0.2500000000000000555 ) ;
#297 = EDGE_CURVE ( 'NONE', #233, #3, #93, .T. ) ;
#298 = PRESENTATION_LAYER_ASSIGNMENT (  '', '', ( #41 ) ) ;
#299 = LENGTH_MEASURE_WITH_UNIT ( LENGTH_MEASURE( 0.02539999999999999897 ), #159 );
#300 = PRESENTATION_LAYER_ASSIGNMENT (  '', '', ( #45 ) ) ;
#301 = DIRECTION ( 'NONE',  ( 0.000000000000000000, -0.000000000000000000, 1.000000000000000000 ) ) ;
#302 = SURFACE_STYLE_USAGE ( .BOTH. , #66 ) ;
#303 = COLOUR_RGB ( '',1.000000000000000000, 0.000000000000000000, 0.000000000000000000 ) ;
#304 = LENGTH_MEASURE_WITH_UNIT ( LENGTH_MEASURE( 0.02539999999999999897 ), #72 );
#305 = PRESENTATION_LAYER_ASSIGNMENT (  '', '', ( #116 ) ) ;
#306 = CLOSED_SHELL ( 'NONE', ( #85, #8, #111, #31 ) ) ;
#307 =( NAMED_UNIT ( * ) SI_UNIT ( $, .STERADIAN. ) SOLID_ANGLE_UNIT ( ) );
#308 =( NAMED_UNIT ( * ) PLANE_ANGLE_UNIT ( ) SI_UNIT ( $, .RADIAN. ) );
#309 =( LENGTH_UNIT ( ) NAMED_UNIT ( * ) SI_UNIT ( $, .METRE. ) );
ENDSEC;
END-ISO-10303-21;
