ISO-10303-21;
HEADER;
FILE_DESCRIPTION (( 'STEP AP214' ),
    '1' );
FILE_NAME ('07004.STEP',
    '2023-07-12T13:04:50',
    ( '' ),
    ( '' ),
    'SwSTEP 2.0',
    'SolidWorks 2023',
    '' );
FILE_SCHEMA (( 'AUTOMOTIVE_DESIGN' ));
ENDSEC;

DATA;
#1 = EDGE_LOOP ( 'NONE', ( #30, #248, #221, #200 ) ) ;
#2 = APPLICATION_CONTEXT ( 'automotive_design' ) ;
#3 = APPLICATION_PROTOCOL_DEFINITION ( 'draft international standard', 'automotive_design', 1998, #66 ) ;
#4 = ADVANCED_FACE ( 'NONE', ( #198 ), #146, .T. ) ;
#5 = DIRECTION ( 'NONE',  ( 0.000000000000000000, -0.000000000000000000, 1.000000000000000000 ) ) ;
#6 = ORIENTED_EDGE ( 'NONE', *, *, #96, .T. ) ;
#7 = ORIENTED_EDGE ( 'NONE', *, *, #112, .F. ) ;
#8 = MECHANICAL_DESIGN_GEOMETRIC_PRESENTATION_REPRESENTATION (  '', ( #28 ), #113 ) ;
#9 = AXIS2_PLACEMENT_3D ( 'NONE', #256, #190, #92 ) ;
#10 = ORIENTED_EDGE ( 'NONE', *, *, #255, .T. ) ;
#11 =( NAMED_UNIT ( * ) PLANE_ANGLE_UNIT ( ) SI_UNIT ( $, .RADIAN. ) );
#12 = ORIENTED_EDGE ( 'NONE', *, *, #122, .F. ) ;
#13 = SURFACE_STYLE_USAGE ( .BOTH. , #228 ) ;
#14 = UNCERTAINTY_MEASURE_WITH_UNIT (LENGTH_MEASURE( 1.000000000000000082E-05 ), #155, 'distance_accuracy_value', 'NONE');
#15 = AXIS2_PLACEMENT_3D ( 'NONE', #219, #182, #276 ) ;
#16 = SURFACE_STYLE_USAGE ( .BOTH. , #162 ) ;
#17 = PLANE ( 'NONE',  #103 ) ;
#18 = LENGTH_MEASURE_WITH_UNIT ( LENGTH_MEASURE( 0.02539999999999999897 ), #135 );
#19 = PRODUCT_DEFINITION_CONTEXT ( 'detailed design', #2, 'design' ) ;
#20 = FILL_AREA_STYLE ('',( #134 ) ) ;
#21 =( CONVERSION_BASED_UNIT ( 'INCH', #160 ) LENGTH_UNIT ( ) NAMED_UNIT ( #206 ) );
#22 = PLANE ( 'NONE',  #210 ) ;
#23 =( NAMED_UNIT ( * ) SI_UNIT ( $, .STERADIAN. ) SOLID_ANGLE_UNIT ( ) );
#24 = CARTESIAN_POINT ( 'NONE',  ( 0.000000000000000000, 0.4633235910246734091, 0.000000000000000000 ) ) ;
#25 = CARTESIAN_POINT ( 'NONE',  ( 0.000000000000000000, 0.4633235910246734091, 0.000000000000000000 ) ) ;
#26 =( GEOMETRIC_REPRESENTATION_CONTEXT ( 3 ) GLOBAL_UNCERTAINTY_ASSIGNED_CONTEXT ( ( #83 ) ) GLOBAL_UNIT_ASSIGNED_CONTEXT ( ( #170, #51, #72 ) ) REPRESENTATION_CONTEXT ( 'NONE', 'WORKASPACE' ) );
#27 = DIRECTION ( 'NONE',  ( 0.000000000000000000, 0.000000000000000000, 1.000000000000000000 ) ) ;
#28 = STYLED_ITEM ( 'NONE', ( #69 ), #54 ) ;
#29 =( GEOMETRIC_REPRESENTATION_CONTEXT ( 3 ) GLOBAL_UNCERTAINTY_ASSIGNED_CONTEXT ( ( #36 ) ) GLOBAL_UNIT_ASSIGNED_CONTEXT ( ( #137, #304, #23 ) ) REPRESENTATION_CONTEXT ( 'NONE', 'WORKASPACE' ) );
#30 = ORIENTED_EDGE ( 'NONE', *, *, #281, .F. ) ;
#31 = FILL_AREA_STYLE_COLOUR ( '', #229 ) ;
#32 = VERTEX_POINT ( 'NONE', #174 ) ;
#33 = MECHANICAL_DESIGN_GEOMETRIC_PRESENTATION_REPRESENTATION (  '', ( #153 ), #185 ) ;
#34 = AXIS2_PLACEMENT_3D ( 'NONE', #296, #207, #39 ) ;
#35 = FILL_AREA_STYLE ('',( #61 ) ) ;
#36 = UNCERTAINTY_MEASURE_WITH_UNIT (LENGTH_MEASURE( 1.000000000000000082E-05 ), #137, 'distance_accuracy_value', 'NONE');
#37 = SURFACE_SIDE_STYLE ('',( #110 ) ) ;
#38 = SURFACE_STYLE_USAGE ( .BOTH. , #65 ) ;
#39 = DIRECTION ( 'NONE',  ( -1.000000000000000000, 0.000000000000000000, 0.000000000000000000 ) ) ;
#40 = CARTESIAN_POINT ( 'NONE',  ( 0.000000000000000000, 0.4633235910246734091, 0.3125000000000000000 ) ) ;
#41 = COLOUR_RGB ( '',1.000000000000000000, 0.000000000000000000, 0.000000000000000000 ) ;
#42 = PRODUCT ( '07004', '07004', '', ( #93 ) ) ;
#43 =( NAMED_UNIT ( * ) PLANE_ANGLE_UNIT ( ) SI_UNIT ( $, .RADIAN. ) );
#44 = EDGE_CURVE ( 'NONE', #79, #180, #164, .T. ) ;
#45 = PLANE ( 'NONE',  #143 ) ;
#46 = DIRECTION ( 'NONE',  ( 0.000000000000000000, 0.000000000000000000, -1.000000000000000000 ) ) ;
#47 = FILL_AREA_STYLE_COLOUR ( '', #277 ) ;
#48 = DIRECTION ( 'NONE',  ( 0.000000000000000000, 0.000000000000000000, -1.000000000000000000 ) ) ;
#49 = AXIS2_PLACEMENT_3D ( 'NONE', #196, #77, #199 ) ;
#50 = AXIS2_PLACEMENT_3D ( 'NONE', #73, #161, #48 ) ;
#51 =( NAMED_UNIT ( * ) PLANE_ANGLE_UNIT ( ) SI_UNIT ( $, .RADIAN. ) );
#52 = DIRECTION ( 'NONE',  ( 1.000000000000000000, 0.000000000000000000, 0.000000000000000000 ) ) ;
#53 = CLOSED_SHELL ( 'NONE', ( #55, #62, #4, #249 ) ) ;
#54 = MANIFOLD_SOLID_BREP ( 'Revolve - Tool Body (Tipped Off)', #181 ) ;
#55 = ADVANCED_FACE ( 'NONE', ( #133 ), #306, .T. ) ;
#56 = LINE ( 'NONE', #145, #195 ) ;
#57 =( NAMED_UNIT ( * ) PLANE_ANGLE_UNIT ( ) SI_UNIT ( $, .RADIAN. ) );
#58 = CARTESIAN_POINT ( 'NONE',  ( 3.073328992872296367E-16, 0.4633235910246734091, 0.000000000000000000 ) ) ;
#59 = ORIENTED_EDGE ( 'NONE', *, *, #149, .T. ) ;
#60 = ORIENTED_EDGE ( 'NONE', *, *, #96, .F. ) ;
#61 = FILL_AREA_STYLE_COLOUR ( '', #238 ) ;
#62 = ADVANCED_FACE ( 'NONE', ( #299 ), #22, .T. ) ;
#63 =( GEOMETRIC_REPRESENTATION_CONTEXT ( 3 ) GLOBAL_UNCERTAINTY_ASSIGNED_CONTEXT ( ( #268 ) ) GLOBAL_UNIT_ASSIGNED_CONTEXT ( ( #250, #11, #156 ) ) REPRESENTATION_CONTEXT ( 'NONE', 'WORKASPACE' ) );
#64 = CARTESIAN_POINT ( 'NONE',  ( -6.123233995736770966E-17, 3.000000000000000444, 0.000000000000000000 ) ) ;
#65 = SURFACE_SIDE_STYLE ('',( #71 ) ) ;
#66 = APPLICATION_CONTEXT ( 'automotive_design' ) ;
#67 =( NAMED_UNIT ( * ) SI_UNIT ( $, .STERADIAN. ) SOLID_ANGLE_UNIT ( ) );
#68 = PRESENTATION_LAYER_ASSIGNMENT (  '', '', ( #244 ) ) ;
#69 = PRESENTATION_STYLE_ASSIGNMENT (( #38 ) ) ;
#70 = LENGTH_MEASURE_WITH_UNIT ( LENGTH_MEASURE( 0.02539999999999999897 ), #225 );
#71 = SURFACE_STYLE_FILL_AREA ( #295 ) ;
#72 =( NAMED_UNIT ( * ) SI_UNIT ( $, .STERADIAN. ) SOLID_ANGLE_UNIT ( ) );
#73 = CARTESIAN_POINT ( 'NONE',  ( 0.000000000000000000, 0.000000000000000000, 0.000000000000000000 ) ) ;
#74 = CARTESIAN_POINT ( 'NONE',  ( 0.000000000000000000, 0.000000000000000000, 0.000000000000000000 ) ) ;
#75 = LENGTH_MEASURE_WITH_UNIT ( LENGTH_MEASURE( 0.02539999999999999897 ), #204 );
#76 = CARTESIAN_POINT ( 'NONE',  ( 0.000000000000000000, 0.000000000000000000, 0.04499999999999999833 ) ) ;
#77 = DIRECTION ( 'NONE',  ( 0.000000000000000000, 1.000000000000000000, 0.000000000000000000 ) ) ;
#78 = LINE ( 'NONE', #285, #270 ) ;
#79 = VERTEX_POINT ( 'NONE', #309 ) ;
#80 = STYLED_ITEM ( 'NONE', ( #128 ), #249 ) ;
#81 =( CONVERSION_BASED_UNIT ( 'INCH', #177 ) LENGTH_UNIT ( ) NAMED_UNIT ( #305 ) );
#82 = ORIENTED_EDGE ( 'NONE', *, *, #112, .T. ) ;
#83 = UNCERTAINTY_MEASURE_WITH_UNIT (LENGTH_MEASURE( 1.000000000000000082E-05 ), #170, 'distance_accuracy_value', 'NONE');
#84 = VERTEX_POINT ( 'NONE', #239 ) ;
#85 = DIRECTION ( 'NONE',  ( -1.000000000000000000, -2.185478394931412547E-16, 0.000000000000000000 ) ) ;
#86 = ADVANCED_FACE ( 'NONE', ( #192 ), #117, .T. ) ;
#87 =( NAMED_UNIT ( * ) SI_UNIT ( $, .STERADIAN. ) SOLID_ANGLE_UNIT ( ) );
#88 = DIRECTION ( 'NONE',  ( -1.452945428674037189E-16, 1.000000000000000000, -0.000000000000000000 ) ) ;
#89 = FACE_OUTER_BOUND ( 'NONE', #290, .T. ) ;
#90 = SURFACE_STYLE_USAGE ( .BOTH. , #37 ) ;
#91 = SURFACE_STYLE_FILL_AREA ( #301 ) ;
#92 = DIRECTION ( 'NONE',  ( -1.000000000000000000, -2.185478394931412547E-16, 0.000000000000000000 ) ) ;
#93 = PRODUCT_CONTEXT ( 'NONE', #66, 'mechanical' ) ;
#94 = DIMENSIONAL_EXPONENTS ( 1.000000000000000000, 0.000000000000000000, 0.000000000000000000, 0.000000000000000000, 0.000000000000000000, 0.000000000000000000, 0.000000000000000000 ) ;
#95 = DIRECTION ( 'NONE',  ( -1.452945428674037189E-16, 1.000000000000000000, -0.000000000000000000 ) ) ;
#96 = EDGE_CURVE ( 'NONE', #168, #102, #232, .T. ) ;
#97 = DIMENSIONAL_EXPONENTS ( 1.000000000000000000, 0.000000000000000000, 0.000000000000000000, 0.000000000000000000, 0.000000000000000000, 0.000000000000000000, 0.000000000000000000 ) ;
#98 = AXIS2_PLACEMENT_3D ( 'NONE', #108, #88, #282 ) ;
#99 = AXIS2_PLACEMENT_3D ( 'NONE', #24, #169, #141 ) ;
#100 =( LENGTH_UNIT ( ) NAMED_UNIT ( * ) SI_UNIT ( $, .METRE. ) );
#101 = VERTEX_POINT ( 'NONE', #76 ) ;
#102 = VERTEX_POINT ( 'NONE', #172 ) ;
#103 = AXIS2_PLACEMENT_3D ( 'NONE', #297, #226, #247 ) ;
#104 = ORIENTED_EDGE ( 'NONE', *, *, #175, .T. ) ;
#105 = ORIENTED_EDGE ( 'NONE', *, *, #208, .T. ) ;
#106 = DIRECTION ( 'NONE',  ( -1.000000000000000000, 0.000000000000000000, 0.000000000000000000 ) ) ;
#107 = EDGE_CURVE ( 'NONE', #101, #180, #78, .T. ) ;
#108 = CARTESIAN_POINT ( 'NONE',  ( -6.123233995736770966E-17, 3.000000000000000444, 0.000000000000000000 ) ) ;
#109 = PRESENTATION_STYLE_ASSIGNMENT (( #16 ) ) ;
#110 = SURFACE_STYLE_FILL_AREA ( #20 ) ;
#111 = FILL_AREA_STYLE_COLOUR ( '', #41 ) ;
#112 = EDGE_CURVE ( 'NONE', #101, #32, #139, .T. ) ;
#113 =( GEOMETRIC_REPRESENTATION_CONTEXT ( 3 ) GLOBAL_UNCERTAINTY_ASSIGNED_CONTEXT ( ( #234 ) ) GLOBAL_UNIT_ASSIGNED_CONTEXT ( ( #21, #187, #67 ) ) REPRESENTATION_CONTEXT ( 'NONE', 'WORKASPACE' ) );
#114 = CIRCLE ( 'NONE', #99, 0.3125000000000000000 ) ;
#115 = ORIENTED_EDGE ( 'NONE', *, *, #149, .F. ) ;
#116 = CARTESIAN_POINT ( 'NONE',  ( 0.3124999999999998335, 3.000000000000000444, 3.827021247335477078E-17 ) ) ;
#117 = CYLINDRICAL_SURFACE ( 'NONE', #194, 0.3124999999999998890 ) ;
#118 = CARTESIAN_POINT ( 'NONE',  ( 0.000000000000000000, 0.000000000000000000, 0.000000000000000000 ) ) ;
#119 = FILL_AREA_STYLE ('',( #31 ) ) ;
#120 = PRESENTATION_STYLE_ASSIGNMENT (( #243 ) ) ;
#121 = EDGE_LOOP ( 'NONE', ( #59, #261, #224, #286 ) ) ;
#122 = EDGE_CURVE ( 'NONE', #32, #79, #56, .T. ) ;
#123 = ORIENTED_EDGE ( 'NONE', *, *, #281, .T. ) ;
#124 = PRESENTATION_LAYER_ASSIGNMENT (  '', '', ( #153 ) ) ;
#125 =( NAMED_UNIT ( * ) PLANE_ANGLE_UNIT ( ) SI_UNIT ( $, .RADIAN. ) );
#126 = ORIENTED_EDGE ( 'NONE', *, *, #278, .F. ) ;
#127 = DIRECTION ( 'NONE',  ( 0.000000000000000000, 0.000000000000000000, 1.000000000000000000 ) ) ;
#128 = PRESENTATION_STYLE_ASSIGNMENT (( #90 ) ) ;
#129 = CARTESIAN_POINT ( 'NONE',  ( 0.000000000000000000, 0.000000000000000000, 0.000000000000000000 ) ) ;
#130 = STYLED_ITEM ( 'NONE', ( #279 ), #62 ) ;
#131 = DIRECTION ( 'NONE',  ( -1.452945428674037189E-16, 1.000000000000000000, -0.000000000000000000 ) ) ;
#132 = PRODUCT_DEFINITION_SHAPE ( 'NONE', 'NONE',  #287 ) ;
#133 = FACE_OUTER_BOUND ( 'NONE', #1, .T. ) ;
#134 = FILL_AREA_STYLE_COLOUR ( '', #217 ) ;
#135 =( LENGTH_UNIT ( ) NAMED_UNIT ( * ) SI_UNIT ( $, .METRE. ) );
#136 = PRODUCT_RELATED_PRODUCT_CATEGORY ( 'part', '', ( #42 ) ) ;
#137 =( CONVERSION_BASED_UNIT ( 'INCH', #308 ) LENGTH_UNIT ( ) NAMED_UNIT ( #94 ) );
#138 = FILL_AREA_STYLE_COLOUR ( '', #216 ) ;
#139 = CIRCLE ( 'NONE', #252, 0.04499999999999999833 ) ;
#140 = PRODUCT_DEFINITION_FORMATION_WITH_SPECIFIED_SOURCE ( 'ANY', '', #42, .NOT_KNOWN. ) ;
#141 = DIRECTION ( 'NONE',  ( 0.000000000000000000, 0.000000000000000000, -1.000000000000000000 ) ) ;
#142 = PLANE ( 'NONE',  #148 ) ;
#143 = AXIS2_PLACEMENT_3D ( 'NONE', #74, #236, #46 ) ;
#144 = MANIFOLD_SOLID_BREP ( 'Revolve - Cutting Edge', #53 ) ;
#145 = CARTESIAN_POINT ( 'NONE',  ( 5.510910596163089556E-18, 0.000000000000000000, -0.04499999999999999833 ) ) ;
#146 = CONICAL_SURFACE ( 'NONE', #49, 0.04499999999999999833, 0.5235987755983001479 ) ;
#147 = ORIENTED_EDGE ( 'NONE', *, *, #298, .F. ) ;
#148 = AXIS2_PLACEMENT_3D ( 'NONE', #191, #260, #259 ) ;
#149 = EDGE_CURVE ( 'NONE', #152, #84, #265, .T. ) ;
#150 = ORIENTED_EDGE ( 'NONE', *, *, #44, .F. ) ;
#151 =( NAMED_UNIT ( * ) SI_UNIT ( $, .STERADIAN. ) SOLID_ANGLE_UNIT ( ) );
#152 = VERTEX_POINT ( 'NONE', #203 ) ;
#153 = STYLED_ITEM ( 'NONE', ( #109 ), #55 ) ;
#154 = UNCERTAINTY_MEASURE_WITH_UNIT (LENGTH_MEASURE( 1.000000000000000082E-05 ), #273, 'distance_accuracy_value', 'NONE');
#155 =( CONVERSION_BASED_UNIT ( 'INCH', #18 ) LENGTH_UNIT ( ) NAMED_UNIT ( #227 ) );
#156 =( NAMED_UNIT ( * ) SI_UNIT ( $, .STERADIAN. ) SOLID_ANGLE_UNIT ( ) );
#157 = FILL_AREA_STYLE ('',( #47 ) ) ;
#158 = DIRECTION ( 'NONE',  ( -1.452945428674037189E-16, 1.000000000000000000, -0.000000000000000000 ) ) ;
#159 =( NAMED_UNIT ( * ) SI_UNIT ( $, .STERADIAN. ) SOLID_ANGLE_UNIT ( ) );
#160 = LENGTH_MEASURE_WITH_UNIT ( LENGTH_MEASURE( 0.02539999999999999897 ), #189 );
#161 = DIRECTION ( 'NONE',  ( -0.000000000000000000, -1.000000000000000000, -0.000000000000000000 ) ) ;
#162 = SURFACE_SIDE_STYLE ('',( #251 ) ) ;
#163 = MECHANICAL_DESIGN_GEOMETRIC_PRESENTATION_REPRESENTATION (  '', ( #244 ), #294 ) ;
#164 = CIRCLE ( 'NONE', #15, 0.3125000000000000000 ) ;
#165 = DIRECTION ( 'NONE',  ( -1.000000000000000000, 0.000000000000000000, 0.000000000000000000 ) ) ;
#166 = APPLICATION_PROTOCOL_DEFINITION ( 'draft international standard', 'automotive_design', 1998, #2 ) ;
#167 = DIRECTION ( 'NONE',  ( -1.452945428674037189E-16, 1.000000000000000000, -0.000000000000000000 ) ) ;
#168 = VERTEX_POINT ( 'NONE', #231 ) ;
#169 = DIRECTION ( 'NONE',  ( -0.000000000000000000, -1.000000000000000000, -0.000000000000000000 ) ) ;
#170 =( CONVERSION_BASED_UNIT ( 'INCH', #75 ) LENGTH_UNIT ( ) NAMED_UNIT ( #274 ) );
#171 = ADVANCED_BREP_SHAPE_REPRESENTATION ( '07004', ( #144, #54, #283 ), #29 ) ;
#172 = CARTESIAN_POINT ( 'NONE',  ( -0.3125000000000001665, 3.000000000000000444, 0.000000000000000000 ) ) ;
#173 = DIRECTION ( 'NONE',  ( 0.000000000000000000, 0.8660254037844379305, 0.5000000000000009992 ) ) ;
#174 = CARTESIAN_POINT ( 'NONE',  ( 2.189056153475893941E-17, 0.000000000000000000, -0.04499999999999999833 ) ) ;
#175 = EDGE_CURVE ( 'NONE', #152, #102, #253, .T. ) ;
#176 = AXIS2_PLACEMENT_3D ( 'NONE', #129, #209, #127 ) ;
#177 = LENGTH_MEASURE_WITH_UNIT ( LENGTH_MEASURE( 0.02539999999999999897 ), #100 );
#178 = CIRCLE ( 'NONE', #272, 0.3125000000000000555 ) ;
#179 = UNCERTAINTY_MEASURE_WITH_UNIT (LENGTH_MEASURE( 1.000000000000000082E-05 ), #81, 'distance_accuracy_value', 'NONE');
#180 = VERTEX_POINT ( 'NONE', #40 ) ;
#181 = CLOSED_SHELL ( 'NONE', ( #197, #193, #86, #303 ) ) ;
#182 = DIRECTION ( 'NONE',  ( -0.000000000000000000, -1.000000000000000000, -0.000000000000000000 ) ) ;
#183 = SURFACE_STYLE_USAGE ( .BOTH. , #293 ) ;
#184 = PRESENTATION_STYLE_ASSIGNMENT (( #183 ) ) ;
#185 =( GEOMETRIC_REPRESENTATION_CONTEXT ( 3 ) GLOBAL_UNCERTAINTY_ASSIGNED_CONTEXT ( ( #14 ) ) GLOBAL_UNIT_ASSIGNED_CONTEXT ( ( #155, #43, #159 ) ) REPRESENTATION_CONTEXT ( 'NONE', 'WORKASPACE' ) );
#186 = VECTOR ( 'NONE', #167, 39.37007874015748143 ) ;
#187 =( NAMED_UNIT ( * ) PLANE_ANGLE_UNIT ( ) SI_UNIT ( $, .RADIAN. ) );
#188 =( LENGTH_UNIT ( ) NAMED_UNIT ( * ) SI_UNIT ( $, .METRE. ) );
#189 =( LENGTH_UNIT ( ) NAMED_UNIT ( * ) SI_UNIT ( $, .METRE. ) );
#190 = DIRECTION ( 'NONE',  ( -1.452945428674037189E-16, 1.000000000000000000, -0.000000000000000000 ) ) ;
#191 = CARTESIAN_POINT ( 'NONE',  ( 0.3125000000000000000, 3.000000000000000444, 0.000000000000000000 ) ) ;
#192 = FACE_OUTER_BOUND ( 'NONE', #245, .T. ) ;
#193 = ADVANCED_FACE ( 'NONE', ( #230 ), #17, .F. ) ;
#194 = AXIS2_PLACEMENT_3D ( 'NONE', #215, #95, #165 ) ;
#195 = VECTOR ( 'NONE', #240, 39.37007874015748854 ) ;
#196 = CARTESIAN_POINT ( 'NONE',  ( 0.000000000000000000, 0.000000000000000000, 0.000000000000000000 ) ) ;
#197 = ADVANCED_FACE ( 'NONE', ( #291 ), #201, .T. ) ;
#198 = FACE_OUTER_BOUND ( 'NONE', #220, .T. ) ;
#199 = DIRECTION ( 'NONE',  ( 0.000000000000000000, 0.000000000000000000, 1.000000000000000000 ) ) ;
#200 = ORIENTED_EDGE ( 'NONE', *, *, #107, .F. ) ;
#201 = CYLINDRICAL_SURFACE ( 'NONE', #34, 0.3124999999999998890 ) ;
#202 = SURFACE_STYLE_FILL_AREA ( #35 ) ;
#203 = CARTESIAN_POINT ( 'NONE',  ( -0.3124999999999994449, 0.4633235910246733535, 0.000000000000000000 ) ) ;
#204 =( LENGTH_UNIT ( ) NAMED_UNIT ( * ) SI_UNIT ( $, .METRE. ) );
#205 = AXIS2_PLACEMENT_3D ( 'NONE', #58, #158, #85 ) ;
#206 = DIMENSIONAL_EXPONENTS ( 1.000000000000000000, 0.000000000000000000, 0.000000000000000000, 0.000000000000000000, 0.000000000000000000, 0.000000000000000000, 0.000000000000000000 ) ;
#207 = DIRECTION ( 'NONE',  ( -1.452945428674037189E-16, 1.000000000000000000, -0.000000000000000000 ) ) ;
#208 = EDGE_CURVE ( 'NONE', #102, #168, #178, .T. ) ;
#209 = DIRECTION ( 'NONE',  ( 0.000000000000000000, 1.000000000000000000, 0.000000000000000000 ) ) ;
#210 = AXIS2_PLACEMENT_3D ( 'NONE', #25, #213, #5 ) ;
#211 = STYLED_ITEM ( 'NONE', ( #184 ), #144 ) ;
#212 = PRESENTATION_LAYER_ASSIGNMENT (  '', '', ( #130 ) ) ;
#213 = DIRECTION ( 'NONE',  ( 0.000000000000000000, 1.000000000000000000, 0.000000000000000000 ) ) ;
#214 = EDGE_LOOP ( 'NONE', ( #105, #6 ) ) ;
#215 = CARTESIAN_POINT ( 'NONE',  ( -6.123233995736772199E-17, 3.000000000000000444, 0.000000000000000000 ) ) ;
#216 = COLOUR_RGB ( '',0.7921568627450980005, 0.8196078431372548767, 0.9333333333333333481 ) ;
#217 = COLOUR_RGB ( '',1.000000000000000000, 0.000000000000000000, 0.000000000000000000 ) ;
#218 = SURFACE_STYLE_FILL_AREA ( #119 ) ;
#219 = CARTESIAN_POINT ( 'NONE',  ( 0.000000000000000000, 0.4633235910246734091, 0.000000000000000000 ) ) ;
#220 = EDGE_LOOP ( 'NONE', ( #12, #7, #289, #10 ) ) ;
#221 = ORIENTED_EDGE ( 'NONE', *, *, #44, .T. ) ;
#222 = MECHANICAL_DESIGN_GEOMETRIC_PRESENTATION_REPRESENTATION (  '', ( #80 ), #300 ) ;
#223 = LENGTH_MEASURE_WITH_UNIT ( LENGTH_MEASURE( 0.02539999999999999897 ), #269 );
#224 = ORIENTED_EDGE ( 'NONE', *, *, #208, .F. ) ;
#225 =( LENGTH_UNIT ( ) NAMED_UNIT ( * ) SI_UNIT ( $, .METRE. ) );
#226 = DIRECTION ( 'NONE',  ( -1.452945428674037189E-16, 1.000000000000000000, 0.000000000000000000 ) ) ;
#227 = DIMENSIONAL_EXPONENTS ( 1.000000000000000000, 0.000000000000000000, 0.000000000000000000, 0.000000000000000000, 0.000000000000000000, 0.000000000000000000, 0.000000000000000000 ) ;
#228 = SURFACE_SIDE_STYLE ('',( #91 ) ) ;
#229 = COLOUR_RGB ( '',0.7921568627450980005, 0.8196078431372548767, 0.9333333333333333481 ) ;
#230 = FACE_OUTER_BOUND ( 'NONE', #267, .T. ) ;
#231 = CARTESIAN_POINT ( 'NONE',  ( 0.3125000000000000000, 3.000000000000000444, 3.827021247335478926E-17 ) ) ;
#232 = CIRCLE ( 'NONE', #98, 0.3125000000000000555 ) ;
#233 = PRESENTATION_LAYER_ASSIGNMENT (  '', '', ( #80 ) ) ;
#234 = UNCERTAINTY_MEASURE_WITH_UNIT (LENGTH_MEASURE( 1.000000000000000082E-05 ), #21, 'distance_accuracy_value', 'NONE');
#235 = LINE ( 'NONE', #116, #186 ) ;
#236 = DIRECTION ( 'NONE',  ( 0.000000000000000000, -1.000000000000000000, -0.000000000000000000 ) ) ;
#237 = CARTESIAN_POINT ( 'NONE',  ( 0.000000000000000000, 0.000000000000000000, 0.000000000000000000 ) ) ;
#238 = COLOUR_RGB ( '',1.000000000000000000, 0.000000000000000000, 0.000000000000000000 ) ;
#239 = CARTESIAN_POINT ( 'NONE',  ( 0.3125000000000000000, 0.4633235910246734646, 3.827021247335478926E-17 ) ) ;
#240 = DIRECTION ( 'NONE',  ( 6.123233995736778362E-17, 0.8660254037844379305, -0.5000000000000009992 ) ) ;
#241 = PRESENTATION_LAYER_ASSIGNMENT (  '', '', ( #211 ) ) ;
#242 = EDGE_LOOP ( 'NONE', ( #266, #150 ) ) ;
#243 = SURFACE_STYLE_USAGE ( .BOTH. , #292 ) ;
#244 = STYLED_ITEM ( 'NONE', ( #120 ), #4 ) ;
#245 = EDGE_LOOP ( 'NONE', ( #147, #271, #104, #60 ) ) ;
#246 = CIRCLE ( 'NONE', #50, 0.04499999999999999833 ) ;
#247 = DIRECTION ( 'NONE',  ( -1.000000000000000000, -1.452945428674037189E-16, 0.000000000000000000 ) ) ;
#248 = ORIENTED_EDGE ( 'NONE', *, *, #122, .T. ) ;
#249 = ADVANCED_FACE ( 'NONE', ( #89 ), #45, .T. ) ;
#250 =( CONVERSION_BASED_UNIT ( 'INCH', #223 ) LENGTH_UNIT ( ) NAMED_UNIT ( #284 ) );
#251 = SURFACE_STYLE_FILL_AREA ( #157 ) ;
#252 = AXIS2_PLACEMENT_3D ( 'NONE', #118, #264, #263 ) ;
#253 = LINE ( 'NONE', #275, #280 ) ;
#254 = DIRECTION ( 'NONE',  ( -1.452945428674037189E-16, 1.000000000000000000, -0.000000000000000000 ) ) ;
#255 = EDGE_CURVE ( 'NONE', #180, #79, #114, .T. ) ;
#256 = CARTESIAN_POINT ( 'NONE',  ( 3.073328992872296367E-16, 0.4633235910246734091, 0.000000000000000000 ) ) ;
#257 = FACE_OUTER_BOUND ( 'NONE', #214, .T. ) ;
#258 = CIRCLE ( 'NONE', #9, 0.3124999999999997224 ) ;
#259 = DIRECTION ( 'NONE',  ( 1.000000000000000000, 1.452945428674037189E-16, 0.000000000000000000 ) ) ;
#260 = DIRECTION ( 'NONE',  ( 1.452945428674037189E-16, -1.000000000000000000, 0.000000000000000000 ) ) ;
#261 = ORIENTED_EDGE ( 'NONE', *, *, #298, .T. ) ;
#262 = PRESENTATION_LAYER_ASSIGNMENT (  '', '', ( #28 ) ) ;
#263 = DIRECTION ( 'NONE',  ( 0.000000000000000000, 0.000000000000000000, -1.000000000000000000 ) ) ;
#264 = DIRECTION ( 'NONE',  ( -0.000000000000000000, -1.000000000000000000, -0.000000000000000000 ) ) ;
#265 = CIRCLE ( 'NONE', #205, 0.3124999999999997224 ) ;
#266 = ORIENTED_EDGE ( 'NONE', *, *, #255, .F. ) ;
#267 = EDGE_LOOP ( 'NONE', ( #115, #126 ) ) ;
#268 = UNCERTAINTY_MEASURE_WITH_UNIT (LENGTH_MEASURE( 1.000000000000000082E-05 ), #250, 'distance_accuracy_value', 'NONE');
#269 =( LENGTH_UNIT ( ) NAMED_UNIT ( * ) SI_UNIT ( $, .METRE. ) );
#270 = VECTOR ( 'NONE', #173, 39.37007874015748854 ) ;
#271 = ORIENTED_EDGE ( 'NONE', *, *, #278, .T. ) ;
#272 = AXIS2_PLACEMENT_3D ( 'NONE', #64, #254, #106 ) ;
#273 =( CONVERSION_BASED_UNIT ( 'INCH', #70 ) LENGTH_UNIT ( ) NAMED_UNIT ( #97 ) );
#274 = DIMENSIONAL_EXPONENTS ( 1.000000000000000000, 0.000000000000000000, 0.000000000000000000, 0.000000000000000000, 0.000000000000000000, 0.000000000000000000, 0.000000000000000000 ) ;
#275 = CARTESIAN_POINT ( 'NONE',  ( -0.3124999999999999445, 3.000000000000000444, 0.000000000000000000 ) ) ;
#276 = DIRECTION ( 'NONE',  ( 0.000000000000000000, 0.000000000000000000, -1.000000000000000000 ) ) ;
#277 = COLOUR_RGB ( '',1.000000000000000000, 0.000000000000000000, 0.000000000000000000 ) ;
#278 = EDGE_CURVE ( 'NONE', #84, #152, #258, .T. ) ;
#279 = PRESENTATION_STYLE_ASSIGNMENT (( #13 ) ) ;
#280 = VECTOR ( 'NONE', #131, 39.37007874015748143 ) ;
#281 = EDGE_CURVE ( 'NONE', #32, #101, #246, .T. ) ;
#282 = DIRECTION ( 'NONE',  ( -1.000000000000000000, 0.000000000000000000, 0.000000000000000000 ) ) ;
#283 = AXIS2_PLACEMENT_3D ( 'NONE', #237, #27, #52 ) ;
#284 = DIMENSIONAL_EXPONENTS ( 1.000000000000000000, 0.000000000000000000, 0.000000000000000000, 0.000000000000000000, 0.000000000000000000, 0.000000000000000000, 0.000000000000000000 ) ;
#285 = CARTESIAN_POINT ( 'NONE',  ( 0.000000000000000000, 0.000000000000000000, 0.04499999999999999833 ) ) ;
#286 = ORIENTED_EDGE ( 'NONE', *, *, #175, .F. ) ;
#287 = PRODUCT_DEFINITION ( 'UNKNOWN', '', #140, #19 ) ;
#288 = MECHANICAL_DESIGN_GEOMETRIC_PRESENTATION_REPRESENTATION (  '', ( #130 ), #26 ) ;
#289 = ORIENTED_EDGE ( 'NONE', *, *, #107, .T. ) ;
#290 = EDGE_LOOP ( 'NONE', ( #82, #123 ) ) ;
#291 = FACE_OUTER_BOUND ( 'NONE', #121, .T. ) ;
#292 = SURFACE_SIDE_STYLE ('',( #202 ) ) ;
#293 = SURFACE_SIDE_STYLE ('',( #218 ) ) ;
#294 =( GEOMETRIC_REPRESENTATION_CONTEXT ( 3 ) GLOBAL_UNCERTAINTY_ASSIGNED_CONTEXT ( ( #179 ) ) GLOBAL_UNIT_ASSIGNED_CONTEXT ( ( #81, #57, #151 ) ) REPRESENTATION_CONTEXT ( 'NONE', 'WORKASPACE' ) );
#295 = FILL_AREA_STYLE ('',( #138 ) ) ;
#296 = CARTESIAN_POINT ( 'NONE',  ( -6.123233995736772199E-17, 3.000000000000000444, 0.000000000000000000 ) ) ;
#297 = CARTESIAN_POINT ( 'NONE',  ( 3.073328992872296367E-16, 0.4633235910246734091, 0.000000000000000000 ) ) ;
#298 = EDGE_CURVE ( 'NONE', #84, #168, #235, .T. ) ;
#299 = FACE_OUTER_BOUND ( 'NONE', #242, .T. ) ;
#300 =( GEOMETRIC_REPRESENTATION_CONTEXT ( 3 ) GLOBAL_UNCERTAINTY_ASSIGNED_CONTEXT ( ( #154 ) ) GLOBAL_UNIT_ASSIGNED_CONTEXT ( ( #273, #125, #87 ) ) REPRESENTATION_CONTEXT ( 'NONE', 'WORKASPACE' ) );
#301 = FILL_AREA_STYLE ('',( #111 ) ) ;
#302 = SHAPE_DEFINITION_REPRESENTATION ( #132, #171 ) ;
#303 = ADVANCED_FACE ( 'NONE', ( #257 ), #142, .F. ) ;
#304 =( NAMED_UNIT ( * ) PLANE_ANGLE_UNIT ( ) SI_UNIT ( $, .RADIAN. ) );
#305 = DIMENSIONAL_EXPONENTS ( 1.000000000000000000, 0.000000000000000000, 0.000000000000000000, 0.000000000000000000, 0.000000000000000000, 0.000000000000000000, 0.000000000000000000 ) ;
#306 = CONICAL_SURFACE ( 'NONE', #176, 0.04499999999999999833, 0.5235987755983001479 ) ;
#307 = MECHANICAL_DESIGN_GEOMETRIC_PRESENTATION_REPRESENTATION (  '', ( #211 ), #63 ) ;
#308 = LENGTH_MEASURE_WITH_UNIT ( LENGTH_MEASURE( 0.02539999999999999897 ), #188 );
#309 = CARTESIAN_POINT ( 'NONE',  ( 3.827021247335479543E-17, 0.4633235910246734091, -0.3125000000000000000 ) ) ;
ENDSEC;
END-ISO-10303-21;
