ISO-10303-21;
HEADER;
FILE_DESCRIPTION (( 'STEP AP214' ),
    '1' );
FILE_NAME ('81414.STEP',
    '2023-06-23T01:30:54',
    ( '' ),
    ( '' ),
    'SwSTEP 2.0',
    'SolidWorks 2023',
    '' );
FILE_SCHEMA (( 'AUTOMOTIVE_DESIGN' ));
ENDSEC;

DATA;
#1 = FACE_OUTER_BOUND ( 'NONE', #194, .T. ) ;
#2 = FACE_OUTER_BOUND ( 'NONE', #127, .T. ) ;
#3 = ADVANCED_FACE ( 'NONE', ( #283 ), #305, .F. ) ;
#4 = CARTESIAN_POINT ( 'NONE',  ( 0.000000000000000000, 0.000000000000000000, 0.000000000000000000 ) ) ;
#5 = SURFACE_STYLE_FILL_AREA ( #97 ) ;
#6 = AXIS2_PLACEMENT_3D ( 'NONE', #67, #172, #267 ) ;
#7 = CARTESIAN_POINT ( 'NONE',  ( -0.1875000000000001110, 3.000000000000000444, 0.000000000000000000 ) ) ;
#8 = VECTOR ( 'NONE', #277, 39.37007874015748143 ) ;
#9 = CARTESIAN_POINT ( 'NONE',  ( -0.1875000000000001388, 3.000000000000000444, 0.000000000000000000 ) ) ;
#10 =( NAMED_UNIT ( * ) SI_UNIT ( $, .STERADIAN. ) SOLID_ANGLE_UNIT ( ) );
#11 = EDGE_LOOP ( 'NONE', ( #103, #28 ) ) ;
#12 = MECHANICAL_DESIGN_GEOMETRIC_PRESENTATION_REPRESENTATION (  '', ( #66 ), #304 ) ;
#13 = AXIS2_PLACEMENT_3D ( 'NONE', #193, #55, #128 ) ;
#14 = ORIENTED_EDGE ( 'NONE', *, *, #222, .T. ) ;
#15 = DIRECTION ( 'NONE',  ( 0.000000000000000000, 1.000000000000000000, 0.000000000000000000 ) ) ;
#16 = SURFACE_STYLE_USAGE ( .BOTH. , #217 ) ;
#17 = CARTESIAN_POINT ( 'NONE',  ( 0.1874999999999999722, 3.000000000000000444, 2.296212748401288034E-17 ) ) ;
#18 = SURFACE_STYLE_FILL_AREA ( #86 ) ;
#19 = EDGE_LOOP ( 'NONE', ( #139, #33, #256, #183 ) ) ;
#20 = DIRECTION ( 'NONE',  ( 1.000000000000000000, 0.000000000000000000, 0.000000000000000000 ) ) ;
#21 = DIRECTION ( 'NONE',  ( -3.498990854706726443E-17, 1.000000000000000000, -0.000000000000000000 ) ) ;
#22 = PRESENTATION_LAYER_ASSIGNMENT (  '', '', ( #223 ) ) ;
#23 = CYLINDRICAL_SURFACE ( 'NONE', #60, 0.1875000000000000278 ) ;
#24 = DIRECTION ( 'NONE',  ( -3.498990854706726443E-17, 1.000000000000000000, -0.000000000000000000 ) ) ;
#25 = LENGTH_MEASURE_WITH_UNIT ( LENGTH_MEASURE( 0.02539999999999999897 ), #254 );
#26 = VECTOR ( 'NONE', #300, 39.37007874015748143 ) ;
#27 = CYLINDRICAL_SURFACE ( 'NONE', #213, 0.1875000000000000555 ) ;
#28 = ORIENTED_EDGE ( 'NONE', *, *, #49, .T. ) ;
#29 = DIMENSIONAL_EXPONENTS ( 1.000000000000000000, 0.000000000000000000, 0.000000000000000000, 0.000000000000000000, 0.000000000000000000, 0.000000000000000000, 0.000000000000000000 ) ;
#30 = SURFACE_SIDE_STYLE ('',( #102 ) ) ;
#31 = PRODUCT_DEFINITION_FORMATION_WITH_SPECIFIED_SOURCE ( 'ANY', '', #136, .NOT_KNOWN. ) ;
#32 = DIRECTION ( 'NONE',  ( -0.000000000000000000, -1.000000000000000000, -0.000000000000000000 ) ) ;
#33 = ORIENTED_EDGE ( 'NONE', *, *, #196, .T. ) ;
#34 = VERTEX_POINT ( 'NONE', #112 ) ;
#35 = LENGTH_MEASURE_WITH_UNIT ( LENGTH_MEASURE( 0.02539999999999999897 ), #307 );
#36 = AXIS2_PLACEMENT_3D ( 'NONE', #160, #64, #236 ) ;
#37 = CIRCLE ( 'NONE', #293, 0.1875000000000000278 ) ;
#38 = ORIENTED_EDGE ( 'NONE', *, *, #93, .F. ) ;
#39 = CARTESIAN_POINT ( 'NONE',  ( 2.296212748401287726E-17, 0.000000000000000000, 0.1875000000000000278 ) ) ;
#40 = ORIENTED_EDGE ( 'NONE', *, *, #266, .F. ) ;
#41 = PRODUCT_DEFINITION_CONTEXT ( 'detailed design', #130, 'design' ) ;
#42 =( NAMED_UNIT ( * ) PLANE_ANGLE_UNIT ( ) SI_UNIT ( $, .RADIAN. ) );
#43 = VERTEX_POINT ( 'NONE', #129 ) ;
#44 = AXIS2_PLACEMENT_3D ( 'NONE', #245, #24, #140 ) ;
#45 = CARTESIAN_POINT ( 'NONE',  ( 0.000000000000000000, 1.250000000000000000, 0.000000000000000000 ) ) ;
#46 = APPLICATION_PROTOCOL_DEFINITION ( 'draft international standard', 'automotive_design', 1998, #130 ) ;
#47 = AXIS2_PLACEMENT_3D ( 'NONE', #59, #261, #133 ) ;
#48 = PRESENTATION_LAYER_ASSIGNMENT (  '', '', ( #180 ) ) ;
#49 = EDGE_CURVE ( 'NONE', #190, #219, #122, .T. ) ;
#50 = DIMENSIONAL_EXPONENTS ( 1.000000000000000000, 0.000000000000000000, 0.000000000000000000, 0.000000000000000000, 0.000000000000000000, 0.000000000000000000, 0.000000000000000000 ) ;
#51 = FACE_OUTER_BOUND ( 'NONE', #249, .T. ) ;
#52 = SURFACE_STYLE_USAGE ( .BOTH. , #30 ) ;
#53 = FILL_AREA_STYLE ('',( #229 ) ) ;
#54 =( CONVERSION_BASED_UNIT ( 'INCH', #228 ) LENGTH_UNIT ( ) NAMED_UNIT ( #176 ) );
#55 = DIRECTION ( 'NONE',  ( -0.000000000000000000, -1.000000000000000000, -0.000000000000000000 ) ) ;
#56 = ORIENTED_EDGE ( 'NONE', *, *, #200, .T. ) ;
#57 =( NAMED_UNIT ( * ) SI_UNIT ( $, .STERADIAN. ) SOLID_ANGLE_UNIT ( ) );
#58 = SURFACE_SIDE_STYLE ('',( #85 ) ) ;
#59 = CARTESIAN_POINT ( 'NONE',  ( -6.123233995736772199E-17, 3.000000000000000444, 0.000000000000000000 ) ) ;
#60 = AXIS2_PLACEMENT_3D ( 'NONE', #244, #201, #225 ) ;
#61 = UNCERTAINTY_MEASURE_WITH_UNIT (LENGTH_MEASURE( 1.000000000000000082E-05 ), #107, 'distance_accuracy_value', 'NONE');
#62 = PLANE ( 'NONE',  #153 ) ;
#63 = PRESENTATION_STYLE_ASSIGNMENT (( #16 ) ) ;
#64 = DIRECTION ( 'NONE',  ( -0.000000000000000000, -1.000000000000000000, -0.000000000000000000 ) ) ;
#65 = MANIFOLD_SOLID_BREP ( 'Revolve - Tool Body (Straight Shanked)', #144 ) ;
#66 = STYLED_ITEM ( 'NONE', ( #258 ), #232 ) ;
#67 = CARTESIAN_POINT ( 'NONE',  ( 0.000000000000000000, 0.000000000000000000, 0.000000000000000000 ) ) ;
#68 = EDGE_CURVE ( 'NONE', #79, #43, #259, .T. ) ;
#69 = DIRECTION ( 'NONE',  ( 0.000000000000000000, 0.000000000000000000, -1.000000000000000000 ) ) ;
#70 = SURFACE_STYLE_USAGE ( .BOTH. , #264 ) ;
#71 =( GEOMETRIC_REPRESENTATION_CONTEXT ( 3 ) GLOBAL_UNCERTAINTY_ASSIGNED_CONTEXT ( ( #186 ) ) GLOBAL_UNIT_ASSIGNED_CONTEXT ( ( #252, #278, #123 ) ) REPRESENTATION_CONTEXT ( 'NONE', 'WORKASPACE' ) );
#72 = PRESENTATION_STYLE_ASSIGNMENT (( #70 ) ) ;
#73 = ADVANCED_FACE ( 'NONE', ( #137 ), #169, .T. ) ;
#74 = DIRECTION ( 'NONE',  ( -3.498990854706726443E-17, 1.000000000000000000, -0.000000000000000000 ) ) ;
#75 = PRESENTATION_STYLE_ASSIGNMENT (( #248 ) ) ;
#76 = ADVANCED_FACE ( 'NONE', ( #226 ), #23, .T. ) ;
#77 = PLANE ( 'NONE',  #270 ) ;
#78 = CARTESIAN_POINT ( 'NONE',  ( 0.000000000000000000, 0.000000000000000000, -0.1875000000000000278 ) ) ;
#79 = VERTEX_POINT ( 'NONE', #147 ) ;
#80 = FACE_OUTER_BOUND ( 'NONE', #192, .T. ) ;
#81 = ORIENTED_EDGE ( 'NONE', *, *, #170, .T. ) ;
#82 = FILL_AREA_STYLE ('',( #105 ) ) ;
#83 = DIRECTION ( 'NONE',  ( -1.000000000000000000, 0.000000000000000000, 0.000000000000000000 ) ) ;
#84 = FILL_AREA_STYLE_COLOUR ( '', #265 ) ;
#85 = SURFACE_STYLE_FILL_AREA ( #82 ) ;
#86 = FILL_AREA_STYLE ('',( #84 ) ) ;
#87 =( GEOMETRIC_REPRESENTATION_CONTEXT ( 3 ) GLOBAL_UNCERTAINTY_ASSIGNED_CONTEXT ( ( #280 ) ) GLOBAL_UNIT_ASSIGNED_CONTEXT ( ( #143, #243, #96 ) ) REPRESENTATION_CONTEXT ( 'NONE', 'WORKASPACE' ) );
#88 = UNCERTAINTY_MEASURE_WITH_UNIT (LENGTH_MEASURE( 1.000000000000000082E-05 ), #306, 'distance_accuracy_value', 'NONE');
#89 = DIRECTION ( 'NONE',  ( -1.000000000000000000, 0.000000000000000000, 0.000000000000000000 ) ) ;
#90 = ORIENTED_EDGE ( 'NONE', *, *, #124, .T. ) ;
#91 = ORIENTED_EDGE ( 'NONE', *, *, #196, .F. ) ;
#92 = PLANE ( 'NONE',  #202 ) ;
#93 = EDGE_CURVE ( 'NONE', #219, #190, #253, .T. ) ;
#94 = PRESENTATION_LAYER_ASSIGNMENT (  '', '', ( #234 ) ) ;
#95 =( GEOMETRIC_REPRESENTATION_CONTEXT ( 3 ) GLOBAL_UNCERTAINTY_ASSIGNED_CONTEXT ( ( #134 ) ) GLOBAL_UNIT_ASSIGNED_CONTEXT ( ( #54, #155, #299 ) ) REPRESENTATION_CONTEXT ( 'NONE', 'WORKASPACE' ) );
#96 =( NAMED_UNIT ( * ) SI_UNIT ( $, .STERADIAN. ) SOLID_ANGLE_UNIT ( ) );
#97 = FILL_AREA_STYLE ('',( #146 ) ) ;
#98 = CARTESIAN_POINT ( 'NONE',  ( 0.1875000000000000278, 3.000000000000000444, 2.296212748401288342E-17 ) ) ;
#99 = CARTESIAN_POINT ( 'NONE',  ( 0.000000000000000000, 0.000000000000000000, 0.000000000000000000 ) ) ;
#100 = MECHANICAL_DESIGN_GEOMETRIC_PRESENTATION_REPRESENTATION (  '', ( #223 ), #95 ) ;
#101 = AXIS2_PLACEMENT_3D ( 'NONE', #141, #224, #20 ) ;
#102 = SURFACE_STYLE_FILL_AREA ( #272 ) ;
#103 = ORIENTED_EDGE ( 'NONE', *, *, #93, .T. ) ;
#104 = ADVANCED_FACE ( 'NONE', ( #1 ), #92, .F. ) ;
#105 = FILL_AREA_STYLE_COLOUR ( '', #290 ) ;
#106 = LENGTH_MEASURE_WITH_UNIT ( LENGTH_MEASURE( 0.02539999999999999897 ), #188 );
#107 =( CONVERSION_BASED_UNIT ( 'INCH', #35 ) LENGTH_UNIT ( ) NAMED_UNIT ( #29 ) );
#108 = COLOUR_RGB ( '',0.7921568627450980005, 0.8196078431372548767, 0.9333333333333333481 ) ;
#109 =( GEOMETRIC_REPRESENTATION_CONTEXT ( 3 ) GLOBAL_UNCERTAINTY_ASSIGNED_CONTEXT ( ( #167 ) ) GLOBAL_UNIT_ASSIGNED_CONTEXT ( ( #168, #138, #10 ) ) REPRESENTATION_CONTEXT ( 'NONE', 'WORKASPACE' ) );
#110 = FILL_AREA_STYLE ('',( #281 ) ) ;
#111 = CARTESIAN_POINT ( 'NONE',  ( 0.000000000000000000, 0.000000000000000000, -0.1875000000000000278 ) ) ;
#112 = CARTESIAN_POINT ( 'NONE',  ( 0.1875000000000000278, 1.250000000000000000, 2.296212748401288342E-17 ) ) ;
#113 = DIRECTION ( 'NONE',  ( -3.498990854706726443E-17, 1.000000000000000000, -0.000000000000000000 ) ) ;
#114 = SURFACE_SIDE_STYLE ('',( #18 ) ) ;
#115 = VECTOR ( 'NONE', #152, 39.37007874015748143 ) ;
#116 = ADVANCED_BREP_SHAPE_REPRESENTATION ( '81414', ( #185, #65, #101 ), #109 ) ;
#117 = DIRECTION ( 'NONE',  ( 3.498990854706726443E-17, -1.000000000000000000, 0.000000000000000000 ) ) ;
#118 = PRODUCT_DEFINITION ( 'UNKNOWN', '', #31, #41 ) ;
#119 = DIRECTION ( 'NONE',  ( -1.000000000000000000, 0.000000000000000000, 0.000000000000000000 ) ) ;
#120 = AXIS2_PLACEMENT_3D ( 'NONE', #4, #291, #69 ) ;
#121 = EDGE_CURVE ( 'NONE', #255, #166, #247, .T. ) ;
#122 = CIRCLE ( 'NONE', #47, 0.1875000000000000833 ) ;
#123 =( NAMED_UNIT ( * ) SI_UNIT ( $, .STERADIAN. ) SOLID_ANGLE_UNIT ( ) );
#124 = EDGE_CURVE ( 'NONE', #34, #156, #230, .T. ) ;
#125 = MECHANICAL_DESIGN_GEOMETRIC_PRESENTATION_REPRESENTATION (  '', ( #195 ), #71 ) ;
#126 = DIRECTION ( 'NONE',  ( 0.000000000000000000, 0.000000000000000000, -1.000000000000000000 ) ) ;
#127 = EDGE_LOOP ( 'NONE', ( #81, #239 ) ) ;
#128 = DIRECTION ( 'NONE',  ( 0.000000000000000000, 0.000000000000000000, -1.000000000000000000 ) ) ;
#129 = CARTESIAN_POINT ( 'NONE',  ( 0.000000000000000000, 1.250000000000000000, -0.1875000000000000278 ) ) ;
#130 = APPLICATION_CONTEXT ( 'automotive_design' ) ;
#131 = LINE ( 'NONE', #111, #26 ) ;
#132 =( NAMED_UNIT ( * ) PLANE_ANGLE_UNIT ( ) SI_UNIT ( $, .RADIAN. ) );
#133 = DIRECTION ( 'NONE',  ( -1.000000000000000000, 0.000000000000000000, 0.000000000000000000 ) ) ;
#134 = UNCERTAINTY_MEASURE_WITH_UNIT (LENGTH_MEASURE( 1.000000000000000082E-05 ), #54, 'distance_accuracy_value', 'NONE');
#135 = FACE_OUTER_BOUND ( 'NONE', #279, .T. ) ;
#136 = PRODUCT ( '81414', '81414', '', ( #268 ) ) ;
#137 = FACE_OUTER_BOUND ( 'NONE', #19, .T. ) ;
#138 =( NAMED_UNIT ( * ) PLANE_ANGLE_UNIT ( ) SI_UNIT ( $, .RADIAN. ) );
#139 = ORIENTED_EDGE ( 'NONE', *, *, #250, .T. ) ;
#140 = DIRECTION ( 'NONE',  ( -1.000000000000000000, 0.000000000000000000, 0.000000000000000000 ) ) ;
#141 = CARTESIAN_POINT ( 'NONE',  ( 0.000000000000000000, 0.000000000000000000, 0.000000000000000000 ) ) ;
#142 = CARTESIAN_POINT ( 'NONE',  ( 1.147775343873872857E-34, 1.250000000000000000, 0.000000000000000000 ) ) ;
#143 =( CONVERSION_BASED_UNIT ( 'INCH', #241 ) LENGTH_UNIT ( ) NAMED_UNIT ( #295 ) );
#144 = CLOSED_SHELL ( 'NONE', ( #208, #104, #274, #3 ) ) ;
#145 = AXIS2_PLACEMENT_3D ( 'NONE', #276, #32, #126 ) ;
#146 = FILL_AREA_STYLE_COLOUR ( '', #189 ) ;
#147 = CARTESIAN_POINT ( 'NONE',  ( 2.296212748401287726E-17, 1.250000000000000000, 0.1875000000000000278 ) ) ;
#148 = DIMENSIONAL_EXPONENTS ( 1.000000000000000000, 0.000000000000000000, 0.000000000000000000, 0.000000000000000000, 0.000000000000000000, 0.000000000000000000, 0.000000000000000000 ) ;
#149 =( LENGTH_UNIT ( ) NAMED_UNIT ( * ) SI_UNIT ( $, .METRE. ) );
#150 = DIMENSIONAL_EXPONENTS ( 1.000000000000000000, 0.000000000000000000, 0.000000000000000000, 0.000000000000000000, 0.000000000000000000, 0.000000000000000000, 0.000000000000000000 ) ;
#151 = PRESENTATION_LAYER_ASSIGNMENT (  '', '', ( #66 ) ) ;
#152 = DIRECTION ( 'NONE',  ( -0.000000000000000000, -1.000000000000000000, -0.000000000000000000 ) ) ;
#153 = AXIS2_PLACEMENT_3D ( 'NONE', #262, #15, #211 ) ;
#154 = DIRECTION ( 'NONE',  ( 0.000000000000000000, -1.000000000000000000, -0.000000000000000000 ) ) ;
#155 =( NAMED_UNIT ( * ) PLANE_ANGLE_UNIT ( ) SI_UNIT ( $, .RADIAN. ) );
#156 = VERTEX_POINT ( 'NONE', #221 ) ;
#157 =( LENGTH_UNIT ( ) NAMED_UNIT ( * ) SI_UNIT ( $, .METRE. ) );
#158 = SURFACE_STYLE_FILL_AREA ( #110 ) ;
#159 = DIRECTION ( 'NONE',  ( -3.498990854706726443E-17, 1.000000000000000000, -0.000000000000000000 ) ) ;
#160 = CARTESIAN_POINT ( 'NONE',  ( 0.000000000000000000, 1.250000000000000000, 0.000000000000000000 ) ) ;
#161 = ADVANCED_FACE ( 'NONE', ( #2 ), #77, .T. ) ;
#162 = SURFACE_STYLE_USAGE ( .BOTH. , #58 ) ;
#163 = EDGE_LOOP ( 'NONE', ( #91, #210, #14, #212 ) ) ;
#164 = AXIS2_PLACEMENT_3D ( 'NONE', #45, #21, #119 ) ;
#165 = CARTESIAN_POINT ( 'NONE',  ( -6.123233995736772199E-17, 3.000000000000000444, 0.000000000000000000 ) ) ;
#166 = VERTEX_POINT ( 'NONE', #78 ) ;
#167 = UNCERTAINTY_MEASURE_WITH_UNIT (LENGTH_MEASURE( 1.000000000000000082E-05 ), #168, 'distance_accuracy_value', 'NONE');
#168 =( CONVERSION_BASED_UNIT ( 'INCH', #106 ) LENGTH_UNIT ( ) NAMED_UNIT ( #150 ) );
#169 = CYLINDRICAL_SURFACE ( 'NONE', #120, 0.1875000000000000278 ) ;
#170 = EDGE_CURVE ( 'NONE', #166, #255, #284, .T. ) ;
#171 = COLOUR_RGB ( '',0.7921568627450980005, 0.8196078431372548767, 0.9333333333333333481 ) ;
#172 = DIRECTION ( 'NONE',  ( -0.000000000000000000, -1.000000000000000000, -0.000000000000000000 ) ) ;
#173 = APPLICATION_PROTOCOL_DEFINITION ( 'draft international standard', 'automotive_design', 1998, #303 ) ;
#174 =( LENGTH_UNIT ( ) NAMED_UNIT ( * ) SI_UNIT ( $, .METRE. ) );
#175 =( CONVERSION_BASED_UNIT ( 'INCH', #287 ) LENGTH_UNIT ( ) NAMED_UNIT ( #148 ) );
#176 = DIMENSIONAL_EXPONENTS ( 1.000000000000000000, 0.000000000000000000, 0.000000000000000000, 0.000000000000000000, 0.000000000000000000, 0.000000000000000000, 0.000000000000000000 ) ;
#177 = PRESENTATION_STYLE_ASSIGNMENT (( #52 ) ) ;
#178 = EDGE_CURVE ( 'NONE', #156, #219, #231, .T. ) ;
#179 = DIRECTION ( 'NONE',  ( -1.000000000000000000, 0.000000000000000000, 0.000000000000000000 ) ) ;
#180 = STYLED_ITEM ( 'NONE', ( #72 ), #76 ) ;
#181 =( GEOMETRIC_REPRESENTATION_CONTEXT ( 3 ) GLOBAL_UNCERTAINTY_ASSIGNED_CONTEXT ( ( #61 ) ) GLOBAL_UNIT_ASSIGNED_CONTEXT ( ( #107, #132, #191 ) ) REPRESENTATION_CONTEXT ( 'NONE', 'WORKASPACE' ) );
#182 = FILL_AREA_STYLE_COLOUR ( '', #302 ) ;
#183 = ORIENTED_EDGE ( 'NONE', *, *, #222, .F. ) ;
#184 = ORIENTED_EDGE ( 'NONE', *, *, #250, .F. ) ;
#185 = MANIFOLD_SOLID_BREP ( 'Revolve - Cutting Edge', #206 ) ;
#186 = UNCERTAINTY_MEASURE_WITH_UNIT (LENGTH_MEASURE( 1.000000000000000082E-05 ), #252, 'distance_accuracy_value', 'NONE');
#187 = ORIENTED_EDGE ( 'NONE', *, *, #178, .F. ) ;
#188 =( LENGTH_UNIT ( ) NAMED_UNIT ( * ) SI_UNIT ( $, .METRE. ) );
#189 = COLOUR_RGB ( '',1.000000000000000000, 0.000000000000000000, 0.000000000000000000 ) ;
#190 = VERTEX_POINT ( 'NONE', #98 ) ;
#191 =( NAMED_UNIT ( * ) SI_UNIT ( $, .STERADIAN. ) SOLID_ANGLE_UNIT ( ) );
#192 = EDGE_LOOP ( 'NONE', ( #40, #90, #286, #301 ) ) ;
#193 = CARTESIAN_POINT ( 'NONE',  ( 0.000000000000000000, 1.250000000000000000, 0.000000000000000000 ) ) ;
#194 = EDGE_LOOP ( 'NONE', ( #309, #298 ) ) ;
#195 = STYLED_ITEM ( 'NONE', ( #75 ), #185 ) ;
#196 = EDGE_CURVE ( 'NONE', #79, #255, #246, .T. ) ;
#197 = DIRECTION ( 'NONE',  ( -3.498990854706726443E-17, 1.000000000000000000, 0.000000000000000000 ) ) ;
#198 = AXIS2_PLACEMENT_3D ( 'NONE', #260, #117, #214 ) ;
#199 = VECTOR ( 'NONE', #113, 39.37007874015748143 ) ;
#200 = EDGE_CURVE ( 'NONE', #156, #34, #37, .T. ) ;
#201 = DIRECTION ( 'NONE',  ( -0.000000000000000000, -1.000000000000000000, -0.000000000000000000 ) ) ;
#202 = AXIS2_PLACEMENT_3D ( 'NONE', #142, #197, #289 ) ;
#203 = PRODUCT_RELATED_PRODUCT_CATEGORY ( 'part', '', ( #136 ) ) ;
#204 = CARTESIAN_POINT ( 'NONE',  ( 2.296212748401287726E-17, 0.000000000000000000, 0.1875000000000000278 ) ) ;
#205 = ORIENTED_EDGE ( 'NONE', *, *, #68, .F. ) ;
#206 = CLOSED_SHELL ( 'NONE', ( #73, #232, #76, #161 ) ) ;
#207 = MECHANICAL_DESIGN_GEOMETRIC_PRESENTATION_REPRESENTATION (  '', ( #218 ), #87 ) ;
#208 = ADVANCED_FACE ( 'NONE', ( #51 ), #27, .T. ) ;
#209 = SURFACE_SIDE_STYLE ('',( #297 ) ) ;
#210 = ORIENTED_EDGE ( 'NONE', *, *, #68, .T. ) ;
#211 = DIRECTION ( 'NONE',  ( 0.000000000000000000, -0.000000000000000000, 1.000000000000000000 ) ) ;
#212 = ORIENTED_EDGE ( 'NONE', *, *, #121, .F. ) ;
#213 = AXIS2_PLACEMENT_3D ( 'NONE', #165, #215, #83 ) ;
#214 = DIRECTION ( 'NONE',  ( 1.000000000000000000, 3.498990854706726443E-17, 0.000000000000000000 ) ) ;
#215 = DIRECTION ( 'NONE',  ( -3.498990854706726443E-17, 1.000000000000000000, -0.000000000000000000 ) ) ;
#216 = CYLINDRICAL_SURFACE ( 'NONE', #294, 0.1875000000000000555 ) ;
#217 = SURFACE_SIDE_STYLE ('',( #158 ) ) ;
#218 = STYLED_ITEM ( 'NONE', ( #220 ), #73 ) ;
#219 = VERTEX_POINT ( 'NONE', #9 ) ;
#220 = PRESENTATION_STYLE_ASSIGNMENT (( #263 ) ) ;
#221 = CARTESIAN_POINT ( 'NONE',  ( -0.1875000000000000278, 1.250000000000000000, 0.000000000000000000 ) ) ;
#222 = EDGE_CURVE ( 'NONE', #43, #166, #131, .T. ) ;
#223 = STYLED_ITEM ( 'NONE', ( #177 ), #161 ) ;
#224 = DIRECTION ( 'NONE',  ( 0.000000000000000000, 0.000000000000000000, 1.000000000000000000 ) ) ;
#225 = DIRECTION ( 'NONE',  ( 0.000000000000000000, 0.000000000000000000, -1.000000000000000000 ) ) ;
#226 = FACE_OUTER_BOUND ( 'NONE', #163, .T. ) ;
#227 = PRESENTATION_LAYER_ASSIGNMENT (  '', '', ( #195 ) ) ;
#228 = LENGTH_MEASURE_WITH_UNIT ( LENGTH_MEASURE( 0.02539999999999999897 ), #149 );
#229 = FILL_AREA_STYLE_COLOUR ( '', #171 ) ;
#230 = CIRCLE ( 'NONE', #164, 0.1875000000000000278 ) ;
#231 = LINE ( 'NONE', #7, #8 ) ;
#232 = ADVANCED_FACE ( 'NONE', ( #135 ), #62, .T. ) ;
#233 = CARTESIAN_POINT ( 'NONE',  ( -6.123233995736772199E-17, 3.000000000000000444, 0.000000000000000000 ) ) ;
#234 = STYLED_ITEM ( 'NONE', ( #63 ), #65 ) ;
#235 =( GEOMETRIC_REPRESENTATION_CONTEXT ( 3 ) GLOBAL_UNCERTAINTY_ASSIGNED_CONTEXT ( ( #285 ) ) GLOBAL_UNIT_ASSIGNED_CONTEXT ( ( #175, #269, #292 ) ) REPRESENTATION_CONTEXT ( 'NONE', 'WORKASPACE' ) );
#236 = DIRECTION ( 'NONE',  ( 0.000000000000000000, 0.000000000000000000, -1.000000000000000000 ) ) ;
#237 = ORIENTED_EDGE ( 'NONE', *, *, #266, .T. ) ;
#238 = LINE ( 'NONE', #17, #199 ) ;
#239 = ORIENTED_EDGE ( 'NONE', *, *, #121, .T. ) ;
#240 = MECHANICAL_DESIGN_GEOMETRIC_PRESENTATION_REPRESENTATION (  '', ( #180 ), #235 ) ;
#241 = LENGTH_MEASURE_WITH_UNIT ( LENGTH_MEASURE( 0.02539999999999999897 ), #174 );
#242 =( LENGTH_UNIT ( ) NAMED_UNIT ( * ) SI_UNIT ( $, .METRE. ) );
#243 =( NAMED_UNIT ( * ) PLANE_ANGLE_UNIT ( ) SI_UNIT ( $, .RADIAN. ) );
#244 = CARTESIAN_POINT ( 'NONE',  ( 0.000000000000000000, 0.000000000000000000, 0.000000000000000000 ) ) ;
#245 = CARTESIAN_POINT ( 'NONE',  ( -6.123233995736772199E-17, 3.000000000000000444, 0.000000000000000000 ) ) ;
#246 = LINE ( 'NONE', #204, #115 ) ;
#247 = CIRCLE ( 'NONE', #6, 0.1875000000000000278 ) ;
#248 = SURFACE_STYLE_USAGE ( .BOTH. , #209 ) ;
#249 = EDGE_LOOP ( 'NONE', ( #56, #237, #38, #187 ) ) ;
#250 = EDGE_CURVE ( 'NONE', #43, #79, #275, .T. ) ;
#251 = DIRECTION ( 'NONE',  ( 0.000000000000000000, 0.000000000000000000, -1.000000000000000000 ) ) ;
#252 =( CONVERSION_BASED_UNIT ( 'INCH', #25 ) LENGTH_UNIT ( ) NAMED_UNIT ( #271 ) );
#253 = CIRCLE ( 'NONE', #44, 0.1875000000000000833 ) ;
#254 =( LENGTH_UNIT ( ) NAMED_UNIT ( * ) SI_UNIT ( $, .METRE. ) );
#255 = VERTEX_POINT ( 'NONE', #39 ) ;
#256 = ORIENTED_EDGE ( 'NONE', *, *, #170, .F. ) ;
#257 = PRODUCT_DEFINITION_SHAPE ( 'NONE', 'NONE',  #118 ) ;
#258 = PRESENTATION_STYLE_ASSIGNMENT (( #162 ) ) ;
#259 = CIRCLE ( 'NONE', #36, 0.1875000000000000278 ) ;
#260 = CARTESIAN_POINT ( 'NONE',  ( 0.1875000000000000278, 3.000000000000000444, 0.000000000000000000 ) ) ;
#261 = DIRECTION ( 'NONE',  ( -3.498990854706726443E-17, 1.000000000000000000, -0.000000000000000000 ) ) ;
#262 = CARTESIAN_POINT ( 'NONE',  ( 0.000000000000000000, 1.250000000000000000, 0.000000000000000000 ) ) ;
#263 = SURFACE_STYLE_USAGE ( .BOTH. , #114 ) ;
#264 = SURFACE_SIDE_STYLE ('',( #5 ) ) ;
#265 = COLOUR_RGB ( '',1.000000000000000000, 0.000000000000000000, 0.000000000000000000 ) ;
#266 = EDGE_CURVE ( 'NONE', #34, #190, #238, .T. ) ;
#267 = DIRECTION ( 'NONE',  ( 0.000000000000000000, 0.000000000000000000, -1.000000000000000000 ) ) ;
#268 = PRODUCT_CONTEXT ( 'NONE', #303, 'mechanical' ) ;
#269 =( NAMED_UNIT ( * ) PLANE_ANGLE_UNIT ( ) SI_UNIT ( $, .RADIAN. ) );
#270 = AXIS2_PLACEMENT_3D ( 'NONE', #99, #154, #251 ) ;
#271 = DIMENSIONAL_EXPONENTS ( 1.000000000000000000, 0.000000000000000000, 0.000000000000000000, 0.000000000000000000, 0.000000000000000000, 0.000000000000000000, 0.000000000000000000 ) ;
#272 = FILL_AREA_STYLE ('',( #182 ) ) ;
#273 = MECHANICAL_DESIGN_GEOMETRIC_PRESENTATION_REPRESENTATION (  '', ( #234 ), #181 ) ;
#274 = ADVANCED_FACE ( 'NONE', ( #80 ), #216, .T. ) ;
#275 = CIRCLE ( 'NONE', #13, 0.1875000000000000278 ) ;
#276 = CARTESIAN_POINT ( 'NONE',  ( 0.000000000000000000, 0.000000000000000000, 0.000000000000000000 ) ) ;
#277 = DIRECTION ( 'NONE',  ( -3.498990854706726443E-17, 1.000000000000000000, -0.000000000000000000 ) ) ;
#278 =( NAMED_UNIT ( * ) PLANE_ANGLE_UNIT ( ) SI_UNIT ( $, .RADIAN. ) );
#279 = EDGE_LOOP ( 'NONE', ( #184, #205 ) ) ;
#280 = UNCERTAINTY_MEASURE_WITH_UNIT (LENGTH_MEASURE( 1.000000000000000082E-05 ), #143, 'distance_accuracy_value', 'NONE');
#281 = FILL_AREA_STYLE_COLOUR ( '', #108 ) ;
#282 = LENGTH_MEASURE_WITH_UNIT ( LENGTH_MEASURE( 0.02539999999999999897 ), #157 );
#283 = FACE_OUTER_BOUND ( 'NONE', #11, .T. ) ;
#284 = CIRCLE ( 'NONE', #145, 0.1875000000000000278 ) ;
#285 = UNCERTAINTY_MEASURE_WITH_UNIT (LENGTH_MEASURE( 1.000000000000000082E-05 ), #175, 'distance_accuracy_value', 'NONE');
#286 = ORIENTED_EDGE ( 'NONE', *, *, #178, .T. ) ;
#287 = LENGTH_MEASURE_WITH_UNIT ( LENGTH_MEASURE( 0.02539999999999999897 ), #242 );
#288 = SHAPE_DEFINITION_REPRESENTATION ( #257, #116 ) ;
#289 = DIRECTION ( 'NONE',  ( -1.000000000000000000, -3.498990854706726443E-17, 0.000000000000000000 ) ) ;
#290 = COLOUR_RGB ( '',1.000000000000000000, 0.000000000000000000, 0.000000000000000000 ) ;
#291 = DIRECTION ( 'NONE',  ( -0.000000000000000000, -1.000000000000000000, -0.000000000000000000 ) ) ;
#292 =( NAMED_UNIT ( * ) SI_UNIT ( $, .STERADIAN. ) SOLID_ANGLE_UNIT ( ) );
#293 = AXIS2_PLACEMENT_3D ( 'NONE', #296, #74, #179 ) ;
#294 = AXIS2_PLACEMENT_3D ( 'NONE', #233, #159, #89 ) ;
#295 = DIMENSIONAL_EXPONENTS ( 1.000000000000000000, 0.000000000000000000, 0.000000000000000000, 0.000000000000000000, 0.000000000000000000, 0.000000000000000000, 0.000000000000000000 ) ;
#296 = CARTESIAN_POINT ( 'NONE',  ( 0.000000000000000000, 1.250000000000000000, 0.000000000000000000 ) ) ;
#297 = SURFACE_STYLE_FILL_AREA ( #53 ) ;
#298 = ORIENTED_EDGE ( 'NONE', *, *, #124, .F. ) ;
#299 =( NAMED_UNIT ( * ) SI_UNIT ( $, .STERADIAN. ) SOLID_ANGLE_UNIT ( ) );
#300 = DIRECTION ( 'NONE',  ( -0.000000000000000000, -1.000000000000000000, -0.000000000000000000 ) ) ;
#301 = ORIENTED_EDGE ( 'NONE', *, *, #49, .F. ) ;
#302 = COLOUR_RGB ( '',1.000000000000000000, 0.000000000000000000, 0.000000000000000000 ) ;
#303 = APPLICATION_CONTEXT ( 'automotive_design' ) ;
#304 =( GEOMETRIC_REPRESENTATION_CONTEXT ( 3 ) GLOBAL_UNCERTAINTY_ASSIGNED_CONTEXT ( ( #88 ) ) GLOBAL_UNIT_ASSIGNED_CONTEXT ( ( #306, #42, #57 ) ) REPRESENTATION_CONTEXT ( 'NONE', 'WORKASPACE' ) );
#305 = PLANE ( 'NONE',  #198 ) ;
#306 =( CONVERSION_BASED_UNIT ( 'INCH', #282 ) LENGTH_UNIT ( ) NAMED_UNIT ( #50 ) );
#307 =( LENGTH_UNIT ( ) NAMED_UNIT ( * ) SI_UNIT ( $, .METRE. ) );
#308 = PRESENTATION_LAYER_ASSIGNMENT (  '', '', ( #218 ) ) ;
#309 = ORIENTED_EDGE ( 'NONE', *, *, #200, .F. ) ;
ENDSEC;
END-ISO-10303-21;
